  0
SECTION
  2
HEADER
  9
$ACADVER
  1
AC1009
  9
$INSBASE
 10
0.0
 20
0.0
 30
0.0
  9
$EXTMIN
 10
0.0
 20
-2.960436562073669
 30
0.0
  9
$EXTMAX
 10
210.15654036269891
 20
183.4233561691253
 30
0.0
  9
$LIMMIN
 10
0.0
 20
0.0
  9
$LIMMAX
 10
275.0
 20
175.0
  9
$ORTHOMODE
 70
     1
  9
$REGENMODE
 70
     1
  9
$FILLMODE
 70
     1
  9
$QTEXTMODE
 70
     0
  9
$MIRRTEXT
 70
     0
  9
$DRAGMODE
 70
     2
  9
$LTSCALE
 40
5.0
  9
$OSMODE
 70
    55
  9
$ATTMODE
 70
     1
  9
$TEXTSIZE
 40
0.2
  9
$TRACEWID
 40
0.05
  9
$TEXTSTYLE
  7
STANDARD
  9
$CLAYER
  8
0
  9
$CELTYPE
  6
BYLAYER
  9
$CECOLOR
 62
   256
  9
$DIMSCALE
 40
1.0
  9
$DIMASZ
 40
3.0
  9
$DIMEXO
 40
1.0
  9
$DIMDLI
 40
6.0
  9
$DIMRND
 40
0.0
  9
$DIMDLE
 40
0.0
  9
$DIMEXE
 40
1.0
  9
$DIMTP
 40
495.0
  9
$DIMTM
 40
0.0
  9
$DIMTXT
 40
3.0
  9
$DIMCEN
 40
0.0
  9
$DIMTSZ
 40
0.0
  9
$DIMTOL
 70
     0
  9
$DIMLIM
 70
     0
  9
$DIMTIH
 70
     0
  9
$DIMTOH
 70
     0
  9
$DIMSE1
 70
     0
  9
$DIMSE2
 70
     0
  9
$DIMTAD
 70
     1
  9
$DIMZIN
 70
     0
  9
$DIMBLK
  1

  9
$DIMASO
 70
     0
  9
$DIMSHO
 70
     0
  9
$DIMPOST
  1

  9
$DIMAPOST
  1

  9
$DIMALT
 70
     0
  9
$DIMALTD
 70
     2
  9
$DIMALTF
 40
25.399999999999999
  9
$DIMLFAC
 40
1.0
  9
$DIMTOFL
 70
     1
  9
$DIMTVP
 40
0.0
  9
$DIMTIX
 70
     1
  9
$DIMSOXD
 70
     0
  9
$DIMSAH
 70
     0
  9
$DIMBLK1
  1

  9
$DIMBLK2
  1

  9
$DIMSTYLE
  2
STANDARD
  9
$DIMCLRD
 70
     0
  9
$DIMCLRE
 70
     0
  9
$DIMCLRT
 70
     4
  9
$DIMTFAC
 40
1.0
  9
$DIMGAP
 40
1.0
  9
$LUNITS
 70
     2
  9
$LUPREC
 70
     4
  9
$SKETCHINC
 40
0.1
  9
$FILLETRAD
 40
0.0
  9
$AUNITS
 70
     0
  9
$AUPREC
 70
     0
  9
$MENU
  1
E:\r13\win\SUPPORT\ACAD
  9
$ELEVATION
 40
0.0
  9
$PELEVATION
 40
0.0
  9
$THICKNESS
 40
0.0
  9
$LIMCHECK
 70
     0
  9
$BLIPMODE
 70
     0
  9
$CHAMFERA
 40
0.0
  9
$CHAMFERB
 40
0.0
  9
$SKPOLY
 70
     0
  9
$TDCREATE
 40
2450653.5278402781
  9
$TDUPDATE
 40
2456598.4978047572
  9
$TDINDWG
 40
0.1452535764
  9
$TDUSRTIMER
 40
0.1452535764
  9
$USRTIMER
 70
     1
  9
$ANGBASE
 50
0.0
  9
$ANGDIR
 70
     0
  9
$PDMODE
 70
     0
  9
$PDSIZE
 40
0.0
  9
$PLINEWID
 40
0.0
  9
$COORDS
 70
     1
  9
$SPLFRAME
 70
     0
  9
$SPLINETYPE
 70
     6
  9
$SPLINESEGS
 70
     8
  9
$ATTDIA
 70
     0
  9
$ATTREQ
 70
     1
  9
$HANDLING
 70
     1
  9
$HANDSEED
  5
162A
  9
$SURFTAB1
 70
     6
  9
$SURFTAB2
 70
     6
  9
$SURFTYPE
 70
     6
  9
$SURFU
 70
     6
  9
$SURFV
 70
     6
  9
$UCSNAME
  2

  9
$UCSORG
 10
0.0
 20
0.0
 30
0.0
  9
$UCSXDIR
 10
1.0
 20
0.0
 30
0.0
  9
$UCSYDIR
 10
0.0
 20
1.0
 30
0.0
  9
$PUCSNAME
  2

  9
$PUCSORG
 10
0.0
 20
0.0
 30
0.0
  9
$PUCSXDIR
 10
1.0
 20
0.0
 30
0.0
  9
$PUCSYDIR
 10
0.0
 20
1.0
 30
0.0
  9
$USERI1
 70
     4
  9
$USERI2
 70
     1
  9
$USERI3
 70
     1
  9
$USERI4
 70
     0
  9
$USERI5
 70
     0
  9
$USERR1
 40
1.0
  9
$USERR2
 40
3.0
  9
$USERR3
 40
3.0
  9
$USERR4
 40
3.0
  9
$USERR5
 40
10.0
  9
$WORLDVIEW
 70
     1
  9
$SHADEDGE
 70
     3
  9
$SHADEDIF
 70
    70
  9
$TILEMODE
 70
     1
  9
$MAXACTVP
 70
    16
  9
$PLIMCHECK
 70
     0
  9
$PEXTMIN
 10
1.0000000000000000E+020
 20
1.0000000000000000E+020
 30
1.0000000000000000E+020
  9
$PEXTMAX
 10
-1.0000000000000000E+020
 20
-1.0000000000000000E+020
 30
-1.0000000000000000E+020
  9
$PLIMMIN
 10
0.0
 20
0.0
  9
$PLIMMAX
 10
12.0
 20
9.0
  9
$UNITMODE
 70
     0
  9
$VISRETAIN
 70
     0
  9
$PLINEGEN
 70
     0
  9
$PSLTSCALE
 70
     0
  0
ENDSEC
  0
SECTION
  2
TABLES
  0
TABLE
  2
VPORT
 70
     1
  0
VPORT
  2
*ACTIVE
 70
     0
 10
0.0
 20
0.0
 11
1.0
 21
1.0
 12
137.495804153145
 22
118.5011532907989
 13
0.0
 23
0.0
 14
5.0
 24
5.0
 15
10.0
 25
10.0
 16
0.0
 26
0.0
 36
1.0
 17
0.0
 27
0.0
 37
0.0
 40
245.0895394704244
 41
1.7807262569832401
 42
50.0
 43
0.0
 44
0.0
 50
0.0
 51
0.0
 71
     0
 72
   100
 73
     1
 74
     0
 75
     0
 76
     0
 77
     0
 78
     0
  0
ENDTAB
  0
TABLE
  2
LTYPE
 70
     4
  0
LTYPE
  2
CONTINUOUS
 70
     0
  3
Solid Line
 72
    65
 73
     0
 40
0.0
  0
LTYPE
  2
CENTER
 70
     0
  3
____ _ ____ _ ____ _ ____ _ ____ _ ____ _ ____
 72
    65
 73
     4
 40
2.0
 49
1.25
 49
-0.25
 49
0.25
 49
-0.25
  0
LTYPE
  2
HIDDEN
 70
     0
  3
_ _ _ _ _ _ _ _ _ _ _ _ _ _ _ _ _ _ _ _ _ _ _
 72
    65
 73
     2
 40
0.375
 49
0.25
 49
-0.125
  0
LTYPE
  2
PHANTOM2
 70
     0
  3
___ _ _ ___ _ _ ___ _ _ ___ _ _
 72
    65
 73
     6
 40
1.25
 49
0.625
 49
-0.125
 49
0.125
 49
-0.125
 49
0.125
 49
-0.125
  0
ENDTAB
  0
TABLE
  2
LAYER
 70
     4
  0
LAYER
  2
0
 70
     0
 62
     7
  6
CONTINUOUS
  0
LAYER
  2
1
 70
     0
 62
     1
  6
CENTER
  0
LAYER
  2
2
 70
     0
 62
     2
  6
HIDDEN
  0
LAYER
  2
3
 70
     0
 62
     3
  6
CONTINUOUS
  0
ENDTAB
  0
TABLE
  2
STYLE
 70
     2
  0
STYLE
  2
STANDARD
 70
     0
 40
0.0
 41
1.0
 50
0.0
 71
     0
 42
0.2
  3
simplex
  4
bigfont
  0
STYLE
  2
STANDARD1
 70
     0
 40
0.0
 41
1.0
 50
0.0
 71
     0
 42
3.0
  3
txt
  4

  0
ENDTAB
  0
TABLE
  2
VIEW
 70
     0
  0
ENDTAB
  0
TABLE
  2
UCS
 70
     0
  0
ENDTAB
  0
TABLE
  2
APPID
 70
    46
  0
APPID
  2
ACAD
 70
     0
  0
APPID
  2
GENIUS_GENODEF_13
 70
     0
  0
APPID
  2
GENIUS_GENOBJ-N-FIL_13
 70
     0
  0
APPID
  2
GENIUS_GENOENT_13
 70
     0
  0
APPID
  2
GENIUS_GENOBJ_13
 70
     0
  0
APPID
  2
GENIUS_GENOLIS_13
 70
     0
  0
APPID
  2
GENIUS_GENOREF_13
 70
     0
  0
APPID
  2
GENIUS_GENOBJ-N-SEC_13
 70
     0
  0
APPID
  2
GENIUS_GENOBJ-N-CRS_13
 70
     0
  0
APPID
  2
GENIUS_GENBH_13
 70
     0
  0
APPID
  2
GENIUS_GENOBJ-NBEHI-BHF_13
 70
     0
  0
APPID
  2
GENIUS_GENOBJ-NBEHI-BHB_13
 70
     0
  0
APPID
  2
GENIUS_GENOBJ-F-PART_13
 70
     0
  0
APPID
  2
GENIUS_GEFSTDP_13
 70
     0
  0
APPID
  2
GENIUS_GENOBJ-N-RSSYM_13
 70
     0
  0
APPID
  2
GENIUS_GENSYMENT_13
 70
     0
  0
APPID
  2
GENIUS_GEFINERT_13
 70
     0
  0
APPID
  2
GENIUS_GENOBJ-F-INER_13
 70
     0
  0
APPID
  2
GENIUS_GENOBJ-N-TIT_13
 70
     0
  0
APPID
  2
GENIUS_GENTITLE_13
 70
     0
  0
APPID
  2
GENIUS_GENZVEED_13
 70
     0
  0
APPID
  2
GENIUS_GENOBJ-N-LEADER_13
 70
     0
  0
APPID
  2
GENIUS_GENOBJ-N-ZOO_13
 70
     0
  0
APPID
  2
GENIUS_GENZOO_13
 70
     0
  0
APPID
  2
GENIUS_GENOBJ-F-TOL_13
 70
     0
  0
APPID
  2
GENIUS_GENOBJ-N-REV_13
 70
     0
  0
APPID
  2
GENIUS_GENOBJ-F-ROD_13
 70
     0
  0
APPID
  2
GENIUS_GENOBJ-F-SPR_13
 70
     0
  0
APPID
  2
GENIUS_GEFSPRING_13
 70
     0
  0
APPID
  2
GENIUS_GENCFG_13
 70
     0
  0
APPID
  2
GENIUS_GENCFG0_13
 70
     0
  0
APPID
  2
GENIUS_GENCFG1_13
 70
     0
  0
APPID
  2
GENIUS_GENCFG2_13
 70
     0
  0
APPID
  2
GENIUS_GENCFG3_13
 70
     0
  0
APPID
  2
GENIUS_GENCFG4_13
 70
     0
  0
APPID
  2
GENIUS_GEVCFG0_13
 70
     0
  0
APPID
  2
GENIUS_GENOBJ-N-REC_13
 70
     0
  0
APPID
  2
GENIUS_GENFIL_13
 70
     0
  0
APPID
  2
GENIUS_GENOBJ-N-CHA_13
 70
     0
  0
APPID
  2
GENIUS_GENREC_13
 70
     0
  0
APPID
  2
GENIUS_GENOBJ-F-FEM_13
 70
     0
  0
APPID
  2
GENIUS_GEFFEM_13
 70
     0
  0
APPID
  2
GENIUS_GENOBJ-N-CEN_13
 70
     0
  0
APPID
  2
GENIUS_GENREC_14
 70
     0
  0
APPID
  2
ACAD_MLEADERVER
 70
     0
  0
APPID
  2
ACAD_NAV_VCDISPLAY
 70
     0
  0
ENDTAB
  0
TABLE
  2
DIMSTYLE
 70
     1
  0
DIMSTYLE
  2
STANDARD
 70
     0
  3

  4

  5

  6

  7

 40
1.0
 41
0.18
 42
0.0625
 43
0.38
 44
0.18
 45
0.0
 46
0.0
 47
0.0
 48
0.0
140
0.18
141
0.09
142
0.0
143
25.399999999999999
144
1.0
145
0.0
146
1.0
147
0.09
 71
     0
 72
     0
 73
     1
 74
     1
 75
     0
 76
     0
 77
     0
 78
     0
170
     0
171
     2
172
     0
173
     0
174
     0
175
     0
176
     0
177
     0
178
     0
  0
ENDTAB
  0
ENDSEC
  0
SECTION
  2
BLOCKS
  0
BLOCK
  8
0
  2
$MODEL_SPACE
 70
     0
 10
0.0
 20
0.0
 30
0.0
  3
$MODEL_SPACE
  1

  0
ENDBLK
  5
12C9
  8
0
  0
BLOCK
 67
     1
  8
0
  2
$PAPER_SPACE
 70
     0
 10
0.0
 20
0.0
 30
0.0
  3
$PAPER_SPACE
  1

  0
ENDBLK
  5
12C7
 67
     1
  8
0
  0
ENDSEC
  0
SECTION
  2
ENTITIES
  0
LINE
  5
11F1
  8
0
 10
101.6158426179061
 20
178.4233561691253
 30
0.0
 11
101.6158426179061
 21
98.423356169125327
 31
0.0
  0
LINE
  5
11F8
  8
0
 10
69.615842617906139
 20
178.4233561691253
 30
0.0
 11
69.615842617906139
 21
98.423356169125327
 31
0.0
  0
LINE
  5
11F9
  8
0
 10
127.65654036269891
 20
57.043838682049717
 30
0.0
 11
207.65654036269891
 21
57.043838682049703
 31
0.0
  0
LINE
  5
11FA
  8
0
 10
207.65654036269891
 20
65.043838682049696
 30
0.0
 11
127.65654036269891
 21
65.04383868204971
 31
0.0
  0
LINE
  5
11FB
  8
0
 10
207.65654036269891
 20
61.043838682049582
 30
0.0
 11
127.65654036269891
 21
61.043838682049589
 31
0.0
  0
LINE
  5
11FC
  8
0
 10
207.65654036269891
 20
69.842320498430354
 30
0.0
 11
127.65654036269891
 21
69.842320498430382
 31
0.0
  0
LINE
  5
11FD
  8
0
 10
207.65654036269891
 20
74.842320498430354
 30
0.0
 11
127.65654036269891
 21
74.842320498430382
 31
0.0
  0
LINE
  5
1209
  8
0
 10
70.615842617905884
 20
61.043838682049582
 30
0.0
 11
82.665842617905966
 21
61.043838682049589
 31
0.0
  0
LINE
  5
120A
  8
0
 10
70.615842617905884
 20
65.043838682049696
 30
0.0
 11
80.665842617905867
 21
65.043838682049696
 31
0.0
  0
LINE
  5
120B
  8
0
 10
101.6158426179061
 20
98.423356169125327
 30
0.0
 11
69.615842617906139
 21
98.423356169125327
 31
0.0
  0
LINE
  5
120C
  8
0
 10
77.318685645614593
 20
69.842320498430482
 30
0.0
 11
81.165842617905852
 21
69.842320498430354
 31
0.0
  0
LINE
  5
120D
  8
0
 10
79.128736151953547
 20
74.549427279616921
 30
0.0
 11
76.470157508190752
 21
71.890848635854255
 31
0.0
  0
ARC
  5
120E
  8
0
 10
93.918685645614616
 20
71.042320498430414
 30
0.0
 40
1.2000000000000091
 50
273.65515896893982
 51
45.000000000000632
  0
LINE
  5
120F
  8
1
 10
85.615842617906026
 20
183.4233561691253
 30
0.0
 11
85.615842617906026
 21
93.423356169125327
 31
0.0
1001
GENIUS_GENODEF_13
1002
{
1000
HIER
1070
     0
1002
}
1002
{
1000
MANEDIT
1070
     0
1002
}
1002
{
1000
NOSEL
1070
     0
1002
}
1002
{
1000
BEHIND
1070
     0
1002
}
1002
{
1000
REACTOR
1002
}
1001
GENIUS_GENOBJ-N-CEN_13
1002
{
1000
OWNER
1000
GEN
1002
}
  0
ARC
  5
1212
  8
0
 10
79.835842933140086
 20
73.842320498430368
 30
0.0
 40
1.0
 50
90.0
 51
135.00000000000031
1001
GENIUS_GENODEF_13
1002
{
1000
HIER
1070
     0
1002
}
1002
{
1000
MANEDIT
1070
     0
1002
}
1002
{
1000
NOSEL
1070
     0
1002
}
1002
{
1000
BEHIND
1070
     0
1002
}
1002
{
1000
REACTOR
1002
}
1001
GENIUS_GENOBJ-N-FIL_13
1002
{
1000
OWNER
1000
GEN
1002
}
  0
ARC
  5
1213
  8
0
 10
91.401528358089351
 20
73.842320498430368
 30
0.0
 40
1.0
 50
44.99999999999968
 51
90.0
1001
GENIUS_GENODEF_13
1002
{
1000
HIER
1070
     0
1002
}
1002
{
1000
MANEDIT
1070
     0
1002
}
1002
{
1000
NOSEL
1070
     0
1002
}
1002
{
1000
BEHIND
1070
     0
1002
}
1002
{
1000
REACTOR
1002
}
1001
GENIUS_GENOBJ-N-FIL_13
1002
{
1000
OWNER
1000
GEN
1002
}
  0
LINE
  5
1214
  8
0
 10
91.401528358089365
 20
74.842320498430354
 30
0.0
 11
79.835842933140086
 21
74.842320498430354
 31
0.0
  0
LINE
  5
1215
  8
0
 10
94.767213783038457
 20
71.890848635854255
 30
0.0
 11
92.108635139275805
 21
74.549427279616921
 31
0.0
  0
ARC
  5
1218
  8
0
 10
84.165842617906065
 20
57.543838682049689
 30
0.0
 40
0.5
 50
180.0
 51
269.99999999999682
1001
GENIUS_GENODEF_13
1002
{
1000
HIER
1070
     0
1002
}
1002
{
1000
MANEDIT
1070
     0
1002
}
1002
{
1000
NOSEL
1070
     0
1002
}
1002
{
1000
BEHIND
1070
     0
1002
}
1002
{
1000
REACTOR
1002
}
1001
GENIUS_GENOBJ-N-FIL_13
1002
{
1000
OWNER
1000
GEN
1002
}
  0
LINE
  5
1219
  8
0
 10
83.66584261790608
 20
57.543838682049689
 30
0.0
 11
83.66584261790608
 21
60.043838682049582
 31
0.0
  0
ARC
  5
121A
  8
0
 10
80.665842617905867
 20
66.043838682049582
 30
0.0
 40
1.0
 50
270.0
 51
0.0
1001
GENIUS_GENODEF_13
1002
{
1000
HIER
1070
     0
1002
}
1002
{
1000
MANEDIT
1070
     0
1002
}
1002
{
1000
NOSEL
1070
     0
1002
}
1002
{
1000
BEHIND
1070
     0
1002
}
1002
{
1000
REACTOR
1002
}
1001
GENIUS_GENOBJ-N-FIL_13
1002
{
1000
OWNER
1000
GEN
1002
}
  0
ARC
  5
121B
  8
0
 10
82.665842617905966
 20
60.043838682049582
 30
0.0
 40
1.0
 50
0.0
 51
90.0
1001
GENIUS_GENODEF_13
1002
{
1000
HIER
1070
     0
1002
}
1002
{
1000
MANEDIT
1070
     0
1002
}
1002
{
1000
NOSEL
1070
     0
1002
}
1002
{
1000
BEHIND
1070
     0
1002
}
1002
{
1000
REACTOR
1002
}
1001
GENIUS_GENOBJ-N-FIL_13
1002
{
1000
OWNER
1000
GEN
1002
}
  0
ARC
  5
121C
  8
0
 10
91.065842617905915
 20
57.543838682049689
 30
0.0
 40
0.5
 50
270.0
 51
0.0000000000003997
1001
GENIUS_GENODEF_13
1002
{
1000
HIER
1070
     0
1002
}
1002
{
1000
MANEDIT
1070
     0
1002
}
1002
{
1000
NOSEL
1070
     0
1002
}
1002
{
1000
BEHIND
1070
     0
1002
}
1002
{
1000
REACTOR
1002
}
1001
GENIUS_GENOBJ-N-FIL_13
1002
{
1000
OWNER
1000
GEN
1002
}
  0
LINE
  5
121D
  8
0
 10
91.565842617906057
 20
57.543838682049689
 30
0.0
 11
91.565842617905943
 21
60.043838682049582
 31
0.0
  0
ARC
  5
121E
  8
0
 10
90.565842617905943
 20
66.043838682049582
 30
0.0
 40
1.0
 50
179.99999999999881
 51
270.0
1001
GENIUS_GENODEF_13
1002
{
1000
HIER
1070
     0
1002
}
1002
{
1000
MANEDIT
1070
     0
1002
}
1002
{
1000
NOSEL
1070
     0
1002
}
1002
{
1000
BEHIND
1070
     0
1002
}
1002
{
1000
REACTOR
1002
}
1001
GENIUS_GENOBJ-N-FIL_13
1002
{
1000
OWNER
1000
GEN
1002
}
  0
LINE
  5
121F
  8
1
 10
87.615842617905997
 20
52.043838682049682
 30
0.0
 11
87.615842617905997
 21
62.04383868204971
 31
0.0
  0
LINE
  5
1220
  8
0
 10
91.065842617905943
 20
57.043838682049703
 30
0.0
 11
84.165842617906094
 21
57.043838682049703
 31
0.0
  0
LINE
  5
1221
  8
0
 10
92.565842617905957
 20
61.043838682049689
 30
0.0
 11
100.6158426179059
 21
61.043838682049582
 31
0.0
  0
LINE
  5
1222
  8
0
 10
101.6158426179059
 20
64.043838682049582
 30
0.0
 11
101.6158426179059
 21
62.043838682049582
 31
0.0
  0
ARC
  5
1223
  8
0
 10
100.6158426179059
 20
64.043838682049582
 30
0.0
 40
1.0
 50
0.0
 51
90.0
1001
GENIUS_GENODEF_13
1002
{
1000
HIER
1070
     0
1002
}
1002
{
1000
MANEDIT
1070
     0
1002
}
1002
{
1000
NOSEL
1070
     0
1002
}
1002
{
1000
BEHIND
1070
     0
1002
}
1002
{
1000
REACTOR
1002
}
1001
GENIUS_GENOBJ-N-FIL_13
1002
{
1000
OWNER
1000
GEN
1002
}
  0
ARC
  5
1224
  8
0
 10
100.6158426179059
 20
62.043838682049582
 30
0.0
 40
1.0
 50
270.0
 51
0.0
1001
GENIUS_GENODEF_13
1002
{
1000
HIER
1070
     0
1002
}
1002
{
1000
MANEDIT
1070
     0
1002
}
1002
{
1000
NOSEL
1070
     0
1002
}
1002
{
1000
BEHIND
1070
     0
1002
}
1002
{
1000
REACTOR
1002
}
1001
GENIUS_GENOBJ-N-FIL_13
1002
{
1000
OWNER
1000
GEN
1002
}
  0
LINE
  5
1225
  8
0
 10
90.565842617905943
 20
65.043838682049696
 30
0.0
 11
100.6158426179059
 21
65.043838682049696
 31
0.0
  0
ARC
  5
1226
  8
0
 10
92.565842617905943
 20
60.043838682049689
 30
0.0
 40
1.0
 50
90.0
 51
180.00000000000159
1001
GENIUS_GENODEF_13
1002
{
1000
HIER
1070
     0
1002
}
1002
{
1000
MANEDIT
1070
     0
1002
}
1002
{
1000
NOSEL
1070
     0
1002
}
1002
{
1000
BEHIND
1070
     0
1002
}
1002
{
1000
REACTOR
1002
}
1001
GENIUS_GENOBJ-N-FIL_13
1002
{
1000
OWNER
1000
GEN
1002
}
  0
ARC
  5
1227
  8
0
 10
81.165842617905852
 20
69.342320498430482
 30
0.0
 40
0.5
 50
0.0
 51
89.999999999999204
1001
GENIUS_GENODEF_13
1002
{
1000
HIER
1070
     0
1002
}
1002
{
1000
MANEDIT
1070
     0
1002
}
1002
{
1000
NOSEL
1070
     0
1002
}
1002
{
1000
BEHIND
1070
     0
1002
}
1002
{
1000
REACTOR
1002
}
1001
GENIUS_GENOBJ-N-FIL_13
1002
{
1000
OWNER
1000
GEN
1002
}
  0
ARC
  5
1228
  8
0
 10
90.065842617905943
 20
69.344761517832481
 30
0.0
 40
0.5
 50
90.0
 51
179.99999999999801
1001
GENIUS_GENODEF_13
1002
{
1000
HIER
1070
     0
1002
}
1002
{
1000
MANEDIT
1070
     0
1002
}
1002
{
1000
NOSEL
1070
     0
1002
}
1002
{
1000
BEHIND
1070
     0
1002
}
1002
{
1000
REACTOR
1002
}
1001
GENIUS_GENOBJ-N-FIL_13
1002
{
1000
OWNER
1000
GEN
1002
}
  0
LINE
  5
1229
  8
0
 10
93.995187201083624
 20
69.844761517832481
 30
0.0
 11
90.065842617905943
 21
69.844761517832481
 31
0.0
  0
LINE
  5
122A
  8
0
 10
89.565842617905929
 20
69.344761517832481
 30
0.0
 11
89.56584261790583
 21
66.043838682049696
 31
0.0
  0
LINE
  5
122B
  8
0
 10
81.665842617905852
 20
69.342320498430482
 30
0.0
 11
81.665842617905966
 21
66.043838682049582
 31
0.0
  0
ARC
  5
122C
  8
0
 10
77.318685645614593
 20
71.042320498430414
 30
0.0
 40
1.199999999999972
 50
135.00000000000031
 51
270.0
  0
LINE
  5
122E
  8
0
 10
207.65654036269891
 20
57.043838682049703
 30
0.0
 11
207.65654036269891
 21
74.842320498430354
 31
0.0
  0
LINE
  5
1232
  8
0
 10
69.615842617905898
 20
64.043838682049582
 30
0.0
 11
69.615842617905898
 21
62.043838682049582
 31
0.0
  0
ARC
  5
1233
  8
0
 10
70.615842617905884
 20
64.043838682049582
 30
0.0
 40
1.0
 50
90.0
 51
180.0
1001
GENIUS_GENODEF_13
1002
{
1000
HIER
1070
     0
1002
}
1002
{
1000
MANEDIT
1070
     0
1002
}
1002
{
1000
NOSEL
1070
     0
1002
}
1002
{
1000
BEHIND
1070
     0
1002
}
1002
{
1000
REACTOR
1002
}
1001
GENIUS_GENOBJ-N-FIL_13
1002
{
1000
OWNER
1000
GEN
1002
}
  0
ARC
  5
1234
  8
0
 10
70.615842617905884
 20
62.043838682049582
 30
0.0
 40
1.0
 50
180.0
 51
270.0
1001
GENIUS_GENODEF_13
1002
{
1000
HIER
1070
     0
1002
}
1002
{
1000
MANEDIT
1070
     0
1002
}
1002
{
1000
NOSEL
1070
     0
1002
}
1002
{
1000
BEHIND
1070
     0
1002
}
1002
{
1000
REACTOR
1002
}
1001
GENIUS_GENOBJ-N-FIL_13
1002
{
1000
OWNER
1000
GEN
1002
}
  0
LINE
  5
1235
  8
0
 10
69.615842617906139
 20
178.4233561691253
 30
0.0
 11
101.6158426179061
 21
178.4233561691253
 31
0.0
  0
LINE
  5
1237
  8
0
 10
127.65654036269891
 20
74.842320498430382
 30
0.0
 11
127.65654036269881
 21
57.043838682049717
 31
0.0
  0
LINE
  5
124B
  8
1
 10
85.615842617905983
 20
39.743838682049898
 30
0.0
 11
85.615842617906026
 21
79.842320498430354
 31
0.0
1001
GENIUS_GENODEF_13
1002
{
1000
HIER
1070
     0
1002
}
1002
{
1000
MANEDIT
1070
     0
1002
}
1002
{
1000
NOSEL
1070
     0
1002
}
1002
{
1000
BEHIND
1070
     0
1002
}
1002
{
1000
REACTOR
1002
}
1001
GENIUS_GENOBJ-N-CEN_13
1002
{
1000
OWNER
1000
GEN
1002
}
  0
LINE
  5
12E6
  8
1
 10
193.65654036269891
 20
52.04383868204971
 30
0.0
 11
193.65654036269891
 21
79.842320498430382
 31
0.0
1001
GENIUS_GENODEF_13
1002
{
1000
HIER
1070
     0
1002
}
1002
{
1000
MANEDIT
1070
     0
1002
}
1002
{
1000
NOSEL
1070
     0
1002
}
1002
{
1000
BEHIND
1070
     0
1002
}
1002
{
1000
REACTOR
1002
}
1001
GENIUS_GENOBJ-N-CEN_13
1002
{
1000
OWNER
1000
GEN
1002
}
  0
LINE
  5
12E7
  8
1
 10
141.65654036269891
 20
40.743838682049699
 30
0.0
 11
141.65654036269891
 21
79.842320498430382
 31
0.0
1001
GENIUS_GENODEF_13
1002
{
1000
HIER
1070
     0
1002
}
1002
{
1000
MANEDIT
1070
     0
1002
}
1002
{
1000
NOSEL
1070
     0
1002
}
1002
{
1000
BEHIND
1070
     0
1002
}
1002
{
1000
REACTOR
1002
}
1001
GENIUS_GENOBJ-N-CEN_13
1002
{
1000
OWNER
1000
GEN
1002
}
  0
LINE
  5
1369
  8
1
 10
94.365842617906026
 20
112.4233561691253
 30
0.0
 11
76.865842617906026
 21
112.4233561691253
 31
0.0
  0
LINE
  5
136C
  8
0
 10
95.118685645614619
 20
98.423356169125327
 30
0.0
 11
95.118685645614619
 21
178.4233561691253
 31
0.0
  0
LINE
  5
136D
  8
0
 10
91.784211790454464
 20
98.423356169125327
 30
0.0
 11
91.784211790454449
 21
178.4233561691253
 31
0.0
  0
LINE
  5
136E
  8
0
 10
79.453159500774987
 20
98.423356169125327
 30
0.0
 11
79.453159500774987
 21
178.4233561691253
 31
0.0
  0
LINE
  5
136F
  8
0
 10
76.118685645614605
 20
98.423356169125327
 30
0.0
 11
76.118685645614605
 21
178.4233561691253
 31
0.0
  0
LINE
  5
1372
  8
2
 10
137.90654036269879
 20
72.642320498429584
 30
0.0
 11
137.90654036269879
 21
72.242320498430416
 31
0.0
  0
ARC
  5
1373
  8
2
 10
140.3903756130083
 20
72.358485248120957
 30
0.0
 40
2.5
 50
96.519081409877344
 51
173.48091859023231
  0
ARC
  5
1374
  8
2
 10
142.92270511238939
 20
72.358485248120957
 30
0.0
 40
2.5
 50
6.5190814097676819
 51
83.480918590122684
  0
LINE
  5
1375
  8
2
 10
140.10654036269801
 20
74.842320498430411
 30
0.0
 11
143.20654036270281
 21
74.842320498430411
 31
0.0
  0
LINE
  5
1376
  8
2
 10
137.90654036269851
 20
72.642320498430422
 30
0.0
 11
145.4065403626995
 21
72.642320498430422
 31
0.0
  0
LINE
  5
1377
  8
2
 10
145.40654036269879
 20
72.642320498429584
 30
0.0
 11
145.40654036269879
 21
72.242320498430416
 31
0.0
  0
LINE
  5
1378
  8
0
 10
139.65654036269879
 20
57.043838682049717
 30
0.0
 11
139.65654036269879
 21
53.04383868204971
 31
0.0
  0
LINE
  5
1379
  8
2
 10
139.65654036269879
 20
48.042320498430399
 30
0.0
 11
140.4565403626988
 21
47.242320498430409
 31
0.0
  0
LINE
  5
137A
  8
3
 10
140.0355403627002
 20
57.043838682049717
 30
0.0
 11
140.0355403627002
 21
53.04383868204971
 31
0.0
  0
LINE
  5
137B
  8
2
 10
140.0355403627002
 20
70.842320498430709
 30
0.0
 11
139.65654036269879
 21
71.498767754501699
 31
0.0
  0
LINE
  5
137C
  8
2
 10
143.27754036269741
 20
70.842320498430709
 30
0.0
 11
143.65654036269879
 21
71.498767754501699
 31
0.0
  0
LINE
  5
137D
  8
2
 10
143.27754036269741
 20
70.842320498430709
 30
0.0
 11
143.27754036269741
 21
57.043838682049739
 31
0.0
  0
LINE
  5
137E
  8
2
 10
143.65654036269879
 20
70.842320498430709
 30
0.0
 11
139.65654036269879
 21
70.842320498430723
 31
0.0
  0
LINE
  5
137F
  8
2
 10
139.65654036269891
 20
48.042320498430371
 30
0.0
 11
143.65654036269879
 21
48.042320498430449
 31
0.0
  0
LINE
  5
1380
  8
2
 10
143.65654036269879
 20
48.042320498430399
 30
0.0
 11
142.85654036269881
 21
47.242320498430409
 31
0.0
  0
LINE
  5
1381
  8
2
 10
142.85654036269881
 20
47.242320498430409
 30
0.0
 11
140.4565403626988
 21
47.242320498430409
 31
0.0
  0
LINE
  5
1382
  8
2
 10
143.65654036269879
 20
72.242320498430416
 30
0.0
 11
143.65654036269879
 21
57.043838682049717
 31
0.0
  0
LINE
  5
1383
  8
2
 10
137.8930759211552
 20
72.242320498430416
 30
0.0
 11
145.40654036269879
 21
72.242320498430416
 31
0.0
  0
LINE
  5
13A3
  8
2
 10
142.8112409001393
 20
72.842320498430411
 30
0.0
 11
140.5018398252613
 21
72.842320498430524
 31
0.0
  0
LINE
  5
13A4
  8
2
 10
140.5018398252613
 20
74.842320498430411
 30
0.0
 11
140.5018398252613
 21
72.842320498430524
 31
0.0
  0
LINE
  5
13A5
  8
2
 10
141.07919009398111
 20
74.842320498430411
 30
0.0
 11
141.07919009398111
 21
72.842320498430468
 31
0.0
  0
LINE
  5
13A6
  8
2
 10
142.23389063142
 20
74.842320498430354
 30
0.0
 11
142.23389063142
 21
72.842320498430411
 31
0.0
  0
LINE
  5
13A7
  8
2
 10
142.8112409001393
 20
74.842320498430354
 30
0.0
 11
142.8112409001393
 21
72.842320498430411
 31
0.0
  0
LINE
  5
13A8
  8
2
 10
140.50183982526141
 20
72.842320498430524
 30
0.0
 11
141.6565403627005
 21
72.175653832306637
 31
0.0
  0
LINE
  5
13A9
  8
2
 10
142.8112409001393
 20
72.842320498430411
 30
0.0
 11
141.6565403627005
 21
72.175653832306637
 31
0.0
  0
LINE
  5
1419
  8
0
 10
135.15654036269891
 20
53.04383868204971
 30
0.0
 11
135.15654036269891
 21
45.743838682049699
 31
0.0
  0
LINE
  5
141C
  8
0
 10
158.15654036269891
 20
45.743838682049699
 30
0.0
 11
158.15654036269891
 21
53.04383868204971
 31
0.0
  0
LINE
  5
141D
  8
0
 10
140.03554036269929
 20
45.743838682049699
 30
0.0
 11
135.15654036269891
 21
45.743838682049699
 31
0.0
  0
LINE
  5
141E
  8
0
 10
149.60654036269941
 20
45.743838682049699
 30
0.0
 11
143.2775403626988
 21
45.74383868204972
 31
0.0
  0
LINE
  5
141F
  8
0
 10
158.15654036269891
 20
45.743838682049699
 30
0.0
 11
153.70654036269909
 21
45.743838682049699
 31
0.0
  0
ARC
  5
1420
  8
0
 10
151.65654036269811
 20
46.743838682049287
 30
0.0
 40
1.9999999999994309
 50
205.60799313384879
 51
334.39200686618119
  0
ARC
  5
1421
  8
0
 10
151.6565403626993
 20
42.309085755147947
 30
0.0
 40
4.0000034586058391
 50
59.16953213623038
 51
120.8304678637776
  0
ARC
  5
1422
  8
0
 10
141.65654036269899
 20
42.08700486923987
 30
0.0
 40
4.0000093168027373
 50
66.093264783308712
 51
113.9067352166949
  0
LINE
  5
1423
  8
0
 10
158.15654036269891
 20
53.04383868204971
 30
0.0
 11
135.15654036269891
 21
53.04383868204971
 31
0.0
  0
LINE
  5
1425
  8
2
 10
143.65654036269879
 20
53.04383868204971
 30
0.0
 11
143.65654036269879
 21
48.042320498430399
 31
0.0
  0
LINE
  5
1426
  8
2
 10
143.27754036269741
 20
53.04383868204971
 30
0.0
 11
143.27754036269741
 21
47.663320498429037
 31
0.0
  0
LINE
  5
1427
  8
2
 10
139.65654036269891
 20
72.242320498430416
 30
0.0
 11
139.65654036269891
 21
57.043838682049717
 31
0.0
  0
LINE
  5
1428
  8
2
 10
140.03554036270029
 20
70.842320498430709
 30
0.0
 11
140.03554036270029
 21
57.043838682049739
 31
0.0
  0
LINE
  5
1429
  8
2
 10
140.03554036270029
 20
53.04383868204971
 30
0.0
 11
140.03554036270029
 21
47.663320498429037
 31
0.0
  0
LINE
  5
142A
  8
2
 10
139.65654036269891
 20
53.04383868204971
 30
0.0
 11
139.65654036269891
 21
48.042320498430399
 31
0.0
  0
LINE
  5
142B
  8
0
 10
143.65654036269891
 20
57.043838682049717
 30
0.0
 11
143.65654036269891
 21
53.04383868204971
 31
0.0
  0
LINE
  5
142C
  8
3
 10
143.27754036269749
 20
57.043838682049717
 30
0.0
 11
143.27754036269749
 21
53.04383868204971
 31
0.0
  0
LINE
  5
142E
  8
2
 10
191.65654036269891
 20
72.242320498430402
 30
0.0
 11
191.65654036269891
 21
57.04383868204971
 31
0.0
  0
LINE
  5
142F
  8
2
 10
195.65654036269879
 20
72.242320498430402
 30
0.0
 11
195.65654036269879
 21
57.04383868204971
 31
0.0
  0
LINE
  5
1430
  8
2
 10
194.85654036269881
 20
47.242320498430381
 30
0.0
 11
192.4565403626988
 21
47.242320498430381
 31
0.0
  0
LINE
  5
1431
  8
2
 10
191.65654036269891
 20
48.042320498430342
 30
0.0
 11
195.65654036269879
 21
48.042320498430428
 31
0.0
  0
LINE
  5
1432
  8
2
 10
195.65654036269879
 20
70.842320498430695
 30
0.0
 11
191.65654036269879
 21
70.842320498430709
 31
0.0
  0
ARC
  5
1433
  8
0
 10
193.65654036269899
 20
42.08700486923987
 30
0.0
 40
4.0000093168027373
 50
66.093264783308712
 51
113.9067352166949
  0
LINE
  5
1434
  8
0
 10
210.15654036269891
 20
53.04383868204971
 30
0.0
 11
187.15654036269891
 21
53.04383868204971
 31
0.0
  0
LINE
  5
1435
  8
0
 10
191.65654036269879
 20
57.04383868204971
 30
0.0
 11
191.65654036269891
 21
53.04383868204971
 31
0.0
  0
LINE
  5
1436
  8
3
 10
192.0355403627002
 20
57.04383868204971
 30
0.0
 11
192.0355403627002
 21
53.04383868204971
 31
0.0
  0
LINE
  5
1437
  8
0
 10
187.15654036269891
 20
53.04383868204971
 30
0.0
 11
187.15654036269891
 21
45.743838682049699
 31
0.0
  0
LINE
  5
1438
  8
0
 10
192.03554036269929
 20
45.743838682049699
 30
0.0
 11
187.15654036269891
 21
45.743838682049699
 31
0.0
  0
LINE
  5
1439
  8
2
 10
191.65654036269891
 20
53.043838682049682
 30
0.0
 11
191.65654036269891
 21
48.042320498430399
 31
0.0
  0
LINE
  5
143A
  8
2
 10
192.03554036270029
 20
53.043838682049682
 30
0.0
 11
192.03554036270029
 21
47.663320498429009
 31
0.0
  0
LINE
  5
143B
  8
2
 10
191.65654036269879
 20
48.042320498430399
 30
0.0
 11
192.4565403626988
 21
47.242320498430381
 31
0.0
  0
LINE
  5
143C
  8
2
 10
192.03554036270029
 20
70.842320498430695
 30
0.0
 11
192.03554036270029
 21
57.04383868204971
 31
0.0
  0
LINE
  5
143D
  8
2
 10
192.0355403627002
 20
70.842320498430695
 30
0.0
 11
191.65654036269879
 21
71.498767754501685
 31
0.0
  0
LINE
  5
143E
  8
3
 10
195.27754036269749
 20
57.04383868204971
 30
0.0
 11
195.27754036269749
 21
53.04383868204971
 31
0.0
  0
LINE
  5
143F
  8
0
 10
195.65654036269891
 20
57.04383868204971
 30
0.0
 11
195.65654036269891
 21
53.04383868204971
 31
0.0
  0
ARC
  5
1440
  8
0
 10
203.6565403626993
 20
42.309085755147947
 30
0.0
 40
4.0000034586058391
 50
59.16953213623038
 51
120.8304678637776
  0
LINE
  5
1441
  8
0
 10
201.60654036269941
 20
45.743838682049699
 30
0.0
 11
195.2775403626988
 21
45.743838682049699
 31
0.0
  0
ARC
  5
1442
  8
0
 10
203.65654036269819
 20
46.743838682049287
 30
0.0
 40
1.9999999999994309
 50
205.60799313384879
 51
334.39200686618119
  0
LINE
  5
1443
  8
2
 10
195.27754036269741
 20
53.043838682049682
 30
0.0
 11
195.27754036269741
 21
47.663320498429009
 31
0.0
  0
LINE
  5
1444
  8
2
 10
195.65654036269879
 20
53.043838682049682
 30
0.0
 11
195.65654036269879
 21
48.042320498430399
 31
0.0
  0
LINE
  5
1445
  8
2
 10
195.65654036269879
 20
48.042320498430399
 30
0.0
 11
194.85654036269881
 21
47.242320498430381
 31
0.0
  0
LINE
  5
1446
  8
0
 10
210.15654036269891
 20
45.743838682049699
 30
0.0
 11
210.15654036269891
 21
53.04383868204971
 31
0.0
  0
LINE
  5
1447
  8
0
 10
210.15654036269891
 20
45.743838682049699
 30
0.0
 11
205.70654036269909
 21
45.743838682049699
 31
0.0
  0
LINE
  5
1448
  8
2
 10
195.27754036269741
 20
70.842320498430695
 30
0.0
 11
195.27754036269741
 21
57.04383868204971
 31
0.0
  0
LINE
  5
1449
  8
2
 10
195.27754036269741
 20
70.842320498430695
 30
0.0
 11
195.65654036269879
 21
71.498767754501685
 31
0.0
  0
LINE
  5
144A
  8
2
 10
194.8112409001393
 20
72.842320498430396
 30
0.0
 11
193.6565403627005
 21
72.175653832306622
 31
0.0
  0
LINE
  5
144B
  8
2
 10
194.8112409001393
 20
72.842320498430396
 30
0.0
 11
192.5018398252613
 21
72.84232049843051
 31
0.0
  0
LINE
  5
144C
  8
2
 10
189.8930759211552
 20
72.242320498430402
 30
0.0
 11
197.40654036269879
 21
72.242320498430402
 31
0.0
  0
LINE
  5
144D
  8
2
 10
189.90654036269851
 20
72.642320498430408
 30
0.0
 11
197.4065403626995
 21
72.642320498430408
 31
0.0
  0
LINE
  5
144E
  8
2
 10
192.1065403626981
 20
74.842320498430396
 30
0.0
 11
195.20654036270281
 21
74.842320498430396
 31
0.0
  0
ARC
  5
144F
  8
2
 10
192.3903756130083
 20
72.358485248120942
 30
0.0
 40
2.5
 50
96.519081409877344
 51
173.48091859023231
  0
LINE
  5
1450
  8
2
 10
189.90654036269879
 20
72.642320498429584
 30
0.0
 11
189.90654036269879
 21
72.242320498430402
 31
0.0
  0
LINE
  5
1451
  8
2
 10
192.50183982526141
 20
72.84232049843051
 30
0.0
 11
193.6565403627005
 21
72.175653832306622
 31
0.0
  0
LINE
  5
1452
  8
2
 10
194.23389063142
 20
74.84232049843034
 30
0.0
 11
194.23389063142
 21
72.842320498430396
 31
0.0
  0
LINE
  5
1453
  8
2
 10
193.07919009398111
 20
74.842320498430396
 30
0.0
 11
193.07919009398111
 21
72.842320498430453
 31
0.0
  0
LINE
  5
1454
  8
2
 10
192.5018398252613
 20
74.842320498430396
 30
0.0
 11
192.5018398252613
 21
72.84232049843051
 31
0.0
  0
ARC
  5
1455
  8
2
 10
194.92270511238939
 20
72.358485248120942
 30
0.0
 40
2.5
 50
6.5190814097676819
 51
83.480918590122684
  0
LINE
  5
1456
  8
2
 10
194.8112409001393
 20
74.84232049843034
 30
0.0
 11
194.8112409001393
 21
72.842320498430396
 31
0.0
  0
LINE
  5
1457
  8
2
 10
197.40654036269879
 20
72.642320498429584
 30
0.0
 11
197.40654036269879
 21
72.242320498430402
 31
0.0
  0
LINE
  5
1459
  8
2
 10
83.615842617906054
 20
72.242320498430473
 30
0.0
 11
83.615842617906054
 21
60.356088581969232
 31
0.0
  0
LINE
  5
145A
  8
2
 10
87.615842617905997
 20
72.242320498430473
 30
0.0
 11
87.615842617905997
 21
57.043838682049781
 31
0.0
  0
LINE
  5
145B
  8
2
 10
86.815842617905986
 20
47.242320498430473
 30
0.0
 11
84.415842617905994
 21
47.242320498430473
 31
0.0
  0
LINE
  5
145C
  8
2
 10
83.615842617906054
 20
48.042320498430428
 30
0.0
 11
87.615842617905997
 21
48.042320498430513
 31
0.0
  0
LINE
  5
145D
  8
2
 10
87.615842617905997
 20
70.842320498430766
 30
0.0
 11
83.615842617905997
 21
70.84232049843078
 31
0.0
  0
LINE
  5
145E
  8
0
 10
83.615842617905983
 20
59.731588782129698
 30
0.0
 11
83.615842617906026
 21
53.04383868204976
 31
0.0
  0
LINE
  5
145F
  8
3
 10
83.994842617907352
 20
57.043838682049781
 30
0.0
 11
83.994842617907352
 21
53.04383868204976
 31
0.0
  0
LINE
  5
1460
  8
2
 10
83.615842617906097
 20
53.04383868204976
 30
0.0
 11
83.615842617906054
 21
48.042320498430449
 31
0.0
  0
LINE
  5
1461
  8
2
 10
83.994842617907437
 20
53.04383868204976
 30
0.0
 11
83.994842617907437
 21
47.663320498429101
 31
0.0
  0
LINE
  5
1462
  8
2
 10
83.615842617905997
 20
48.042320498430449
 30
0.0
 11
84.415842617905994
 21
47.242320498430473
 31
0.0
  0
LINE
  5
1463
  8
2
 10
83.994842617907437
 20
70.842320498430766
 30
0.0
 11
83.994842617907437
 21
57.043838682049788
 31
0.0
  0
LINE
  5
1464
  8
2
 10
83.994842617907366
 20
70.842320498430766
 30
0.0
 11
83.615842617905997
 21
71.498767754501756
 31
0.0
  0
LINE
  5
1465
  8
3
 10
87.236842617904699
 20
57.043838682049781
 30
0.0
 11
87.236842617904699
 21
53.04383868204976
 31
0.0
  0
LINE
  5
1466
  8
0
 10
87.615842617906054
 20
57.043838682049781
 30
0.0
 11
87.615842617906026
 21
53.04383868204976
 31
0.0
  0
LINE
  5
1467
  8
2
 10
87.236842617904614
 20
53.04383868204976
 30
0.0
 11
87.236842617904614
 21
47.663320498429101
 31
0.0
  0
LINE
  5
1468
  8
2
 10
87.615842617905969
 20
53.04383868204976
 30
0.0
 11
87.615842617905997
 21
48.042320498430449
 31
0.0
  0
LINE
  5
1469
  8
2
 10
87.615842617905997
 20
48.042320498430449
 30
0.0
 11
86.815842617905986
 21
47.242320498430473
 31
0.0
  0
LINE
  5
146A
  8
2
 10
87.236842617904614
 20
70.842320498430766
 30
0.0
 11
87.236842617904614
 21
57.043838682049788
 31
0.0
  0
LINE
  5
146B
  8
2
 10
87.236842617904614
 20
70.842320498430766
 30
0.0
 11
87.615842617905997
 21
71.498767754501756
 31
0.0
  0
LINE
  5
146C
  8
2
 10
86.770543155346502
 20
72.842320498430468
 30
0.0
 11
85.615842617907603
 21
72.175653832306693
 31
0.0
  0
LINE
  5
146D
  8
2
 10
86.770543155346502
 20
72.842320498430468
 30
0.0
 11
84.461142080468505
 21
72.842320498430581
 31
0.0
  0
LINE
  5
146E
  8
2
 10
81.852378176362393
 20
72.242320498430473
 30
0.0
 11
89.365842617905983
 21
72.242320498430473
 31
0.0
  0
LINE
  5
146F
  8
2
 10
81.865842617905713
 20
72.642320498430479
 30
0.0
 11
89.365842617906694
 21
72.642320498430479
 31
0.0
  0
LINE
  5
1470
  8
2
 10
84.065842617905219
 20
74.842320498430468
 30
0.0
 11
87.165842617909973
 21
74.842320498430468
 31
0.0
  0
ARC
  5
1471
  8
2
 10
84.349677868215451
 20
72.358485248121013
 30
0.0
 40
2.5
 50
96.519081409877344
 51
173.48091859023231
  0
LINE
  5
1472
  8
2
 10
81.865842617905983
 20
72.642320498429655
 30
0.0
 11
81.865842617905983
 21
72.242320498430473
 31
0.0
  0
LINE
  5
1473
  8
2
 10
84.461142080468548
 20
72.842320498430581
 30
0.0
 11
85.615842617907603
 21
72.175653832306693
 31
0.0
  0
LINE
  5
1474
  8
2
 10
86.193192886627116
 20
74.842320498430411
 30
0.0
 11
86.193192886627116
 21
72.842320498430468
 31
0.0
  0
LINE
  5
1475
  8
2
 10
85.038492349188289
 20
74.842320498430468
 30
0.0
 11
85.038492349188289
 21
72.842320498430524
 31
0.0
  0
LINE
  5
1476
  8
2
 10
84.461142080468505
 20
74.842320498430468
 30
0.0
 11
84.461142080468505
 21
72.842320498430581
 31
0.0
  0
ARC
  5
1477
  8
2
 10
86.882007367596543
 20
72.358485248121013
 30
0.0
 40
2.5
 50
6.5190814097676819
 51
83.480918590122684
  0
LINE
  5
1478
  8
2
 10
86.770543155346445
 20
74.842320498430411
 30
0.0
 11
86.770543155346502
 21
72.842320498430468
 31
0.0
  0
LINE
  5
1479
  8
2
 10
89.365842617905983
 20
72.642320498429655
 30
0.0
 11
89.365842617905983
 21
72.242320498430473
 31
0.0
  0
ARC
  5
14AF
  8
0
 10
85.615842234904306
 20
46.743838682049287
 30
0.0
 40
1.9999999999994309
 50
194.47749397154709
 51
345.52246960077861
  0
LINE
  5
14B0
  8
0
 10
78.915841281241256
 20
53.04383868204971
 30
0.0
 11
92.315843188567314
 21
53.04383868204971
 31
0.0
  0
ARC
  5
14B1
  8
0
 10
77.647837719583123
 20
58.716624695676593
 30
0.0
 40
16.0
 50
311.60568870621353
 51
338.17979005528002
  0
ARC
  5
14B2
  8
0
 10
85.615843188578566
 20
49.74383868206624
 30
0.0
 40
4.0000000000006821
 50
228.39431359554919
 51
311.60569100797642
  0
ARC
  5
14B3
  8
0
 10
93.583848657574066
 20
58.716624695676593
 30
0.0
 40
16.0
 50
201.82020994471989
 51
228.3943112937863
  0
ARC
  5
14B4
  8
0
 10
78.915843188589875
 20
52.843838682049721
 30
0.0
 40
0.2
 50
90.000546415133599
 51
201.8202429859158
  0
ARC
  5
14B5
  8
0
 10
92.315843188567314
 20
52.843838682049721
 30
0.0
 40
0.2
 50
338.1797570140842
 51
90.0
  0
CIRCLE
  5
14D6
  8
0
 10
85.615842617906026
 20
112.4233561691253
 30
0.0
 40
1.55000000000399
  0
CIRCLE
  5
14D7
  8
0
 10
85.615842617906026
 20
112.4233561691253
 30
0.0
 40
3.75
  0
LINE
  5
14D8
  8
0
 10
84.365842617905884
 20
113.14504400561221
 30
0.0
 11
84.365842617906168
 21
111.70166833263841
 31
0.0
  0
LINE
  5
14D9
  8
0
 10
85.615842617906026
 20
113.8667318420994
 30
0.0
 11
84.365842617905884
 21
113.14504400561221
 31
0.0
  0
LINE
  5
14DA
  8
0
 10
86.865842617906026
 20
113.1450440056126
 30
0.0
 11
85.615842617906026
 21
113.8667318420994
 31
0.0
  0
LINE
  5
14DB
  8
0
 10
86.865842617906026
 20
111.70166833263841
 30
0.0
 11
86.865842617906026
 21
113.1450440056126
 31
0.0
  0
LINE
  5
14DC
  8
0
 10
85.615842617906168
 20
110.9799804961513
 30
0.0
 11
86.865842617906026
 21
111.70166833263841
 31
0.0
  0
LINE
  5
14DD
  8
0
 10
84.365842617906168
 20
111.70166833263841
 30
0.0
 11
85.615842617906168
 21
110.9799804961513
 31
0.0
  0
LINE
  5
14DF
  8
1
 10
94.365842617906011
 20
164.4233561691253
 30
0.0
 11
76.865842617906011
 21
164.4233561691253
 31
0.0
  0
CIRCLE
  5
14E0
  8
0
 10
85.615842617906011
 20
164.4233561691253
 30
0.0
 40
3.75
  0
LINE
  5
14E1
  8
0
 10
86.865842617906011
 20
163.70166833263841
 30
0.0
 11
86.865842617906011
 21
165.1450440056127
 31
0.0
  0
LINE
  5
14E2
  8
0
 10
84.365842617905869
 20
165.14504400561219
 30
0.0
 11
84.365842617906154
 21
163.70166833263841
 31
0.0
  0
CIRCLE
  5
14E3
  8
0
 10
85.615842617906011
 20
164.4233561691253
 30
0.0
 40
1.55000000000399
  0
LINE
  5
14E4
  8
0
 10
84.365842617906154
 20
163.70166833263841
 30
0.0
 11
85.615842617906154
 21
162.97998049615131
 31
0.0
  0
LINE
  5
14E5
  8
0
 10
85.615842617906154
 20
162.97998049615131
 30
0.0
 11
86.865842617906011
 21
163.70166833263841
 31
0.0
  0
LINE
  5
14E6
  8
0
 10
85.615842617906011
 20
165.8667318420994
 30
0.0
 11
84.365842617905869
 21
165.14504400561219
 31
0.0
  0
LINE
  5
14E7
  8
0
 10
86.865842617906011
 20
165.1450440056127
 30
0.0
 11
85.615842617906011
 21
165.8667318420994
 31
0.0
  0
TEXT
  5
1594
  8
0
 62
     3
 10
0.0
 20
0.0
 30
0.0
 40
10.0
  1
SGS8/8F
  7
STANDARD1
  0
ENDSEC
  0
EOF
