  0
SECTION
  2
HEADER
  9
$ACADVER
  1
AC1009
  9
$INSBASE
 10
0.0
 20
0.0
 30
0.0
  9
$EXTMIN
 10
0.0
 20
-2.960436562073669
 30
0.0
  9
$EXTMAX
 10
331.50232524998859
 20
261.86497774645437
 30
0.0
  9
$LIMMIN
 10
0.0
 20
0.0
  9
$LIMMAX
 10
375.0
 20
270.0
  9
$ORTHOMODE
 70
     1
  9
$REGENMODE
 70
     1
  9
$FILLMODE
 70
     1
  9
$QTEXTMODE
 70
     0
  9
$MIRRTEXT
 70
     0
  9
$DRAGMODE
 70
     2
  9
$LTSCALE
 40
10.0
  9
$OSMODE
 70
    55
  9
$ATTMODE
 70
     1
  9
$TEXTSIZE
 40
0.2
  9
$TRACEWID
 40
0.05
  9
$TEXTSTYLE
  7
STANDARD
  9
$CLAYER
  8
0
  9
$CELTYPE
  6
BYLAYER
  9
$CECOLOR
 62
   256
  9
$DIMSCALE
 40
1.0
  9
$DIMASZ
 40
3.0
  9
$DIMEXO
 40
2.0
  9
$DIMDLI
 40
0.38
  9
$DIMRND
 40
0.0
  9
$DIMDLE
 40
0.0
  9
$DIMEXE
 40
2.0
  9
$DIMTP
 40
0.0
  9
$DIMTM
 40
0.0
  9
$DIMTXT
 40
3.2000000000000002
  9
$DIMCEN
 40
0.0
  9
$DIMTSZ
 40
0.0
  9
$DIMTOL
 70
     0
  9
$DIMLIM
 70
     0
  9
$DIMTIH
 70
     0
  9
$DIMTOH
 70
     0
  9
$DIMSE1
 70
     0
  9
$DIMSE2
 70
     0
  9
$DIMTAD
 70
     1
  9
$DIMZIN
 70
     0
  9
$DIMBLK
  1

  9
$DIMASO
 70
     1
  9
$DIMSHO
 70
     0
  9
$DIMPOST
  1

  9
$DIMAPOST
  1

  9
$DIMALT
 70
     0
  9
$DIMALTD
 70
     2
  9
$DIMALTF
 40
25.399999999999999
  9
$DIMLFAC
 40
1.0
  9
$DIMTOFL
 70
     0
  9
$DIMTVP
 40
1.6000000000000001
  9
$DIMTIX
 70
     1
  9
$DIMSOXD
 70
     0
  9
$DIMSAH
 70
     0
  9
$DIMBLK1
  1

  9
$DIMBLK2
  1

  9
$DIMSTYLE
  2
STANDARD
  9
$DIMCLRD
 70
     0
  9
$DIMCLRE
 70
     0
  9
$DIMCLRT
 70
     0
  9
$DIMTFAC
 40
1.0
  9
$DIMGAP
 40
0.09
  9
$LUNITS
 70
     2
  9
$LUPREC
 70
     1
  9
$SKETCHINC
 40
0.1
  9
$FILLETRAD
 40
3.0
  9
$AUNITS
 70
     0
  9
$AUPREC
 70
     0
  9
$MENU
  1
E:\r13\win\SUPPORT\ACAD
  9
$ELEVATION
 40
0.0
  9
$PELEVATION
 40
0.0
  9
$THICKNESS
 40
0.0
  9
$LIMCHECK
 70
     0
  9
$BLIPMODE
 70
     0
  9
$CHAMFERA
 40
0.0
  9
$CHAMFERB
 40
0.0
  9
$SKPOLY
 70
     0
  9
$TDCREATE
 40
2449840.602569445
  9
$TDUPDATE
 40
2456598.498179954
  9
$TDINDWG
 40
0.0001985301
  9
$TDUSRTIMER
 40
0.0001985301
  9
$USRTIMER
 70
     1
  9
$ANGBASE
 50
0.0
  9
$ANGDIR
 70
     0
  9
$PDMODE
 70
     0
  9
$PDSIZE
 40
0.0
  9
$PLINEWID
 40
0.0
  9
$COORDS
 70
     1
  9
$SPLFRAME
 70
     0
  9
$SPLINETYPE
 70
     6
  9
$SPLINESEGS
 70
     8
  9
$ATTDIA
 70
     0
  9
$ATTREQ
 70
     1
  9
$HANDLING
 70
     1
  9
$HANDSEED
  5
2C1
  9
$SURFTAB1
 70
     6
  9
$SURFTAB2
 70
     6
  9
$SURFTYPE
 70
     6
  9
$SURFU
 70
     6
  9
$SURFV
 70
     6
  9
$UCSNAME
  2

  9
$UCSORG
 10
0.0
 20
0.0
 30
0.0
  9
$UCSXDIR
 10
1.0
 20
0.0
 30
0.0
  9
$UCSYDIR
 10
0.0
 20
1.0
 30
0.0
  9
$PUCSNAME
  2

  9
$PUCSORG
 10
0.0
 20
0.0
 30
0.0
  9
$PUCSXDIR
 10
1.0
 20
0.0
 30
0.0
  9
$PUCSYDIR
 10
0.0
 20
1.0
 30
0.0
  9
$USERI1
 70
     0
  9
$USERI2
 70
     1
  9
$USERI3
 70
     1
  9
$USERI4
 70
     0
  9
$USERI5
 70
     0
  9
$USERR1
 40
0.0
  9
$USERR2
 40
0.0
  9
$USERR3
 40
0.0
  9
$USERR4
 40
0.0
  9
$USERR5
 40
0.0
  9
$WORLDVIEW
 70
     1
  9
$SHADEDGE
 70
     3
  9
$SHADEDIF
 70
    70
  9
$TILEMODE
 70
     1
  9
$MAXACTVP
 70
    16
  9
$PLIMCHECK
 70
     0
  9
$PEXTMIN
 10
1.0000000000000000E+020
 20
1.0000000000000000E+020
 30
1.0000000000000000E+020
  9
$PEXTMAX
 10
-1.0000000000000000E+020
 20
-1.0000000000000000E+020
 30
-1.0000000000000000E+020
  9
$PLIMMIN
 10
0.0
 20
0.0
  9
$PLIMMAX
 10
12.0
 20
9.0
  9
$UNITMODE
 70
     0
  9
$VISRETAIN
 70
     0
  9
$PLINEGEN
 70
     0
  9
$PSLTSCALE
 70
     0
  0
ENDSEC
  0
SECTION
  2
TABLES
  0
TABLE
  2
VPORT
 70
     1
  0
VPORT
  2
*ACTIVE
 70
     0
 10
0.0
 20
0.0
 11
1.0
 21
1.0
 12
187.49427839065231
 22
174.91677254346851
 13
0.0
 23
0.0
 14
10.0
 24
10.0
 15
10.0
 25
10.0
 16
0.0
 26
0.0
 36
1.0
 17
0.0
 27
0.0
 37
0.0
 40
358.92027899574339
 41
1.7807262569832401
 42
50.0
 43
0.0
 44
0.0
 50
0.0
 51
0.0
 71
     0
 72
   500
 73
     1
 74
     0
 75
     0
 76
     0
 77
     0
 78
     1
  0
ENDTAB
  0
TABLE
  2
LTYPE
 70
     4
  0
LTYPE
  2
CONTINUOUS
 70
     0
  3
Solid Line
 72
    65
 73
     0
 40
0.0
  0
LTYPE
  2
CENTER
 70
     0
  3
____ _ ____ _ ____ _ ____ _ ____ _ ____ _ ____
 72
    65
 73
     4
 40
2.0
 49
1.25
 49
-0.25
 49
0.25
 49
-0.25
  0
LTYPE
  2
HIDDEN
 70
     0
  3
_ _ _ _ _ _ _ _ _ _ _ _ _ _ _ _ _ _ _ _ _ _ _
 72
    65
 73
     2
 40
0.375
 49
0.25
 49
-0.125
  0
LTYPE
  2
PHANTOM2
 70
     0
  3
___ _ _ ___ _ _ ___ _ _ ___ _ _
 72
    65
 73
     6
 40
1.25
 49
0.625
 49
-0.125
 49
0.125
 49
-0.125
 49
0.125
 49
-0.125
  0
ENDTAB
  0
TABLE
  2
LAYER
 70
     3
  0
LAYER
  2
0
 70
     0
 62
     7
  6
CONTINUOUS
  0
LAYER
  2
1
 70
     0
 62
     1
  6
CENTER
  0
LAYER
  2
2
 70
     0
 62
     2
  6
HIDDEN
  0
ENDTAB
  0
TABLE
  2
STYLE
 70
     2
  0
STYLE
  2
STANDARD
 70
     0
 40
0.0
 41
1.0
 50
0.0
 71
     0
 42
0.2
  3
TXT
  4
BIGFONT
  0
STYLE
  2
STANDARD1
 70
     0
 40
0.0
 41
1.0
 50
0.0
 71
     0
 42
3.0
  3
txt
  4

  0
ENDTAB
  0
TABLE
  2
VIEW
 70
     1
  0
VIEW
  2
ALL
 70
     0
 40
270.0
 10
213.25689075630251
 20
135.0
 41
0.0
 11
0.0
 21
0.0
 31
1.0
 12
0.0
 22
0.0
 32
0.0
 42
50.0
 43
0.0
 44
0.0
 50
0.0
 71
     0
  0
ENDTAB
  0
TABLE
  2
UCS
 70
     0
  0
ENDTAB
  0
TABLE
  2
APPID
 70
     3
  0
APPID
  2
ACAD
 70
     0
  0
APPID
  2
ACAD_MLEADERVER
 70
     0
  0
APPID
  2
ACAD_NAV_VCDISPLAY
 70
     0
  0
ENDTAB
  0
TABLE
  2
DIMSTYLE
 70
     1
  0
DIMSTYLE
  2
STANDARD
 70
     0
  3

  4

  5

  6

  7

 40
1.0
 41
0.18
 42
0.0625
 43
0.38
 44
0.18
 45
0.0
 46
0.0
 47
0.0
 48
0.0
140
0.18
141
0.09
142
0.0
143
25.399999999999999
144
1.0
145
0.0
146
1.0
147
0.09
 71
     0
 72
     0
 73
     1
 74
     1
 75
     0
 76
     0
 77
     0
 78
     0
170
     0
171
     2
172
     0
173
     0
174
     0
175
     0
176
     0
177
     0
178
     0
  0
ENDTAB
  0
ENDSEC
  0
SECTION
  2
BLOCKS
  0
BLOCK
  8
0
  2
$MODEL_SPACE
 70
     0
 10
0.0
 20
0.0
 30
0.0
  3
$MODEL_SPACE
  1

  0
ENDBLK
  5
116
  8
0
  0
BLOCK
 67
     1
  8
0
  2
$PAPER_SPACE
 70
     0
 10
0.0
 20
0.0
 30
0.0
  3
$PAPER_SPACE
  1

  0
ENDBLK
  5
114
 67
     1
  8
0
  0
ENDSEC
  0
SECTION
  2
ENTITIES
  0
ARC
  5
35
  8
0
 10
252.50289768185439
 20
160.734254666525
 30
0.0
 40
11.0
 50
249.87999952738511
 51
156.83111001907591
  0
ARC
  5
36
  8
0
 10
189.50289768185451
 20
237.86497774645471
 30
0.0
 40
19.0
 50
10.08781051052407
 51
169.9121838956859
  0
ARC
  5
37
  8
0
 10
210.1782471169528
 20
241.5432824832302
 30
0.0
 40
2.0
 50
190.08781610431399
 51
270.0
  0
ARC
  5
38
  8
0
 10
210.17824711695269
 20
234.18667300967931
 30
0.0
 40
2.0
 50
89.999999999999986
 51
169.9121838956863
  0
ARC
  5
39
  8
0
 10
168.82754824675629
 20
234.18667300967931
 30
0.0
 40
2.0
 50
10.087816104313619
 51
89.999999999999986
  0
ARC
  5
3A
  8
0
 10
168.82754824675621
 20
241.5432824832302
 30
0.0
 40
2.0
 50
270.0
 51
349.91218389568581
  0
ARC
  5
3B
  8
0
 10
126.50289768185451
 20
160.73425466652509
 30
0.0
 40
11.0
 50
23.16888942368309
 51
290.12000042162731
  0
ARC
  5
3C
  8
0
 10
221.50289768185439
 20
125.24541752773951
 30
0.0
 40
13.0
 50
115.6816780313074
 51
179.99999999999989
  0
ARC
  5
3D
  8
0
 10
229.2421406322446
 20
141.67121382011129
 30
0.0
 40
22.320728217086408
 50
163.9594862562916
 51
201.69772733557701
  0
LINE
  5
3E
  8
1
 10
236.50289768185439
 20
160.73425466652509
 30
0.0
 11
268.50289768185428
 21
160.734254666525
 31
0.0
  0
LINE
  5
3F
  8
0
 10
208.50289768185439
 20
125.24541752773951
 30
0.0
 11
208.50289768185451
 21
106.734254666525
 31
0.0
  0
ARC
  5
40
  8
0
 10
252.50289768185439
 20
160.734254666525
 30
0.0
 40
11.0
 50
167.26293912057909
 51
239.44821077010539
  0
LINE
  5
41
  8
0
 10
243.27753067968209
 20
150.14122650480559
 30
0.0
 11
215.86907575825259
 21
136.96122098004889
 31
0.0
  0
ARC
  5
42
  8
0
 10
246.31112710008301
 20
143.832716953562
 30
0.0
 40
7.0
 50
69.880013719198459
 51
115.6816780313012
  0
ARC
  5
43
  8
0
 10
235.95461308352461
 20
167.8162230971715
 30
0.0
 40
7.0
 50
291.02945168726399
 51
336.83111599937308
  0
LINE
  5
44
  8
0
 10
208.4286286640519
 20
149.73425466652509
 30
0.0
 11
238.4665476101016
 21
161.28245045541311
 31
0.0
  0
LINE
  5
45
  8
0
 10
207.50289768185451
 20
105.734254666525
 30
0.0
 11
208.50289768185451
 21
106.734254666525
 31
0.0
  0
LINE
  5
46
  8
1
 10
252.50289768185439
 20
176.73425466652469
 30
0.0
 11
252.50289768185439
 21
144.7342546665256
 31
0.0
  0
CIRCLE
  5
47
  8
2
 10
189.50289768185451
 20
237.86497774645471
 30
0.0
 40
2.5
  0
LINE
  5
48
  8
1
 10
252.50289768185459
 20
253.8649777464542
 30
0.0
 11
252.50289768185459
 21
221.86497774645511
 31
0.0
  0
CIRCLE
  5
49
  8
0
 10
252.50289768185459
 20
237.86497774645471
 30
0.0
 40
11.0
  0
LINE
  5
4A
  8
0
 10
216.64555605496699
 20
245.00469274653241
 30
0.0
 11
239.85515476684259
 21
243.97776307804449
 31
0.0
  0
LINE
  5
4B
  8
0
 10
239.85515328376169
 20
231.75219148875721
 30
0.0
 11
216.6455405328507
 21
230.72525336421319
 31
0.0
  0
ARC
  5
4C
  8
0
 10
217.52960919577649
 20
264.98514444423489
 30
0.0
 40
20.0
 50
224.0582147961249
 51
267.4665488433684
  0
ARC
  5
4D
  8
0
 10
217.5296004052974
 20
210.7448019643592
 30
0.0
 40
20.0
 50
92.533470460219547
 51
135.9417666325559
  0
ARC
  5
4E
  8
0
 10
240.164574239118
 20
224.75903349880829
 30
0.0
 40
7.0
 50
46.728015793303392
 51
92.533470460219547
  0
ARC
  5
4F
  8
0
 10
240.16457336612601
 20
250.97092117224039
 30
0.0
 40
7.0
 50
267.4665488433684
 51
313.27198802319123
  0
LINE
  5
50
  8
1
 10
189.50289768185451
 20
154.73425466652509
 30
0.0
 11
189.50289768185451
 21
100.734254666525
 31
0.0
  0
LINE
  5
51
  8
1
 10
126.50289768185451
 20
176.73425466652469
 30
0.0
 11
126.50289768185451
 21
144.7342546665256
 31
0.0
  0
ARC
  5
52
  8
0
 10
138.84122199758309
 20
250.97092117224039
 30
0.0
 40
7.0
 50
226.7280119768086
 51
272.5334511566316
  0
ARC
  5
53
  8
0
 10
138.84122112459099
 20
224.75903349880829
 30
0.0
 40
7.0
 50
87.466529539780396
 51
133.27198420669649
  0
ARC
  5
54
  8
0
 10
161.47619495841161
 20
210.7448019643592
 30
0.0
 40
20.0
 50
44.058233367444103
 51
87.466529539780396
  0
ARC
  5
55
  8
0
 10
161.4761861679325
 20
264.98514444423489
 30
0.0
 40
20.0
 50
272.5334511566316
 51
315.94178520387499
  0
LINE
  5
56
  8
0
 10
139.1506420799474
 20
231.75219148875721
 30
0.0
 11
162.36025483085839
 21
230.72525336421319
 31
0.0
  0
LINE
  5
57
  8
0
 10
162.360239308742
 20
245.00469274653241
 30
0.0
 11
139.1506405968664
 21
243.97776307804449
 31
0.0
  0
LINE
  5
58
  8
0
 10
208.50289768185451
 20
106.7342546665249
 30
0.0
 11
170.50289768185451
 21
106.7342546665249
 31
0.0
  0
LINE
  5
59
  8
0
 10
171.50289768185451
 20
105.734254666525
 30
0.0
 11
170.50289768185451
 21
106.734254666525
 31
0.0
  0
LINE
  5
5A
  8
2
 10
187.00289768185451
 20
115.7342546665251
 30
0.0
 11
189.50289768185451
 21
117.1776303394991
 31
0.0
  0
LINE
  5
5B
  8
0
 10
170.57716669965711
 20
149.73425466652509
 30
0.0
 11
140.5392477536073
 21
161.28245045541311
 31
0.0
  0
ARC
  5
5C
  8
0
 10
157.50289768185451
 20
125.2454175277396
 30
0.0
 40
13.0
 50
360.0
 51
64.318321968692644
  0
ARC
  5
5D
  8
0
 10
143.05118228018441
 20
167.8162230971715
 30
0.0
 40
7.0
 50
203.1688840006268
 51
248.97054831273601
  0
ARC
  5
5E
  8
0
 10
132.69466826362591
 20
143.83271695356211
 30
0.0
 40
7.0
 50
64.318321968698754
 51
110.1199862808015
  0
LINE
  5
5F
  8
0
 10
135.72826468402681
 20
150.14122650480559
 30
0.0
 11
163.13672355497539
 21
136.9612190808291
 31
0.0
  0
ARC
  5
60
  8
0
 10
189.50289768185451
 20
237.86497774645471
 30
0.0
 40
19.0
 50
190.08781610431419
 51
349.91218973071028
  0
CIRCLE
  5
61
  8
0
 10
126.50289768185451
 20
237.86497774645471
 30
0.0
 40
11.0
  0
LINE
  5
62
  8
0
 10
170.50289768185459
 20
125.2454175277396
 30
0.0
 11
170.50289768185451
 21
106.734254666525
 31
0.0
  0
LINE
  5
63
  8
2
 10
187.00289768185451
 20
115.7342546665251
 30
0.0
 11
187.00289768185451
 21
106.234254666525
 31
0.0
  0
LINE
  5
64
  8
2
 10
189.50289768185451
 20
115.7342546665251
 30
0.0
 11
187.00289768185451
 21
115.7342546665251
 31
0.0
  0
LINE
  5
65
  8
0
 10
208.42862866405179
 20
149.73425466652509
 30
0.0
 11
170.57716669965711
 21
149.73425466652509
 31
0.0
  0
LINE
  5
66
  8
0
 10
207.50289768185451
 20
105.7342546665251
 30
0.0
 11
171.50289768185451
 21
105.734254666525
 31
0.0
  0
LINE
  5
67
  8
1
 10
126.50289768185451
 20
253.86497774645429
 30
0.0
 11
126.50289768185451
 21
221.8649777464552
 31
0.0
  0
LINE
  5
68
  8
1
 10
142.50289768185439
 20
160.73425466652509
 30
0.0
 11
110.50289768185461
 21
160.73425466652509
 31
0.0
  0
LINE
  5
69
  8
1
 10
189.50289768185459
 20
261.86497774645437
 30
0.0
 11
189.50289768185451
 21
213.86497774645539
 31
0.0
  0
LINE
  5
6A
  8
1
 10
268.50289768185439
 20
237.86497774645471
 30
0.0
 11
110.5028976818551
 21
237.86497774645471
 31
0.0
  0
LINE
  5
6B
  8
2
 10
189.50289768185451
 20
106.234254666525
 30
0.0
 11
187.00289768185451
 21
106.2342546665251
 31
0.0
  0
LINE
  5
6C
  8
2
 10
187.00289768185451
 20
106.234254666525
 30
0.0
 11
186.50289768185451
 21
105.7342546665251
 31
0.0
  0
LINE
  5
6D
  8
1
 10
268.50289768185439
 20
37.864977746454741
 30
0.0
 11
110.5028976818551
 21
37.86497774645477
 31
0.0
  0
LINE
  5
6E
  8
1
 10
189.50289768185459
 20
61.864977746454429
 30
0.0
 11
189.50289768185451
 21
13.8649777464555
 31
0.0
  0
LINE
  5
6F
  8
1
 10
126.50289768185451
 20
53.864977746454308
 30
0.0
 11
126.50289768185451
 21
21.864977746455221
 31
0.0
  0
CIRCLE
  5
70
  8
0
 10
126.50289768185451
 20
37.86497774645477
 30
0.0
 40
11.0
  0
LINE
  5
71
  8
0
 10
162.360239308742
 20
45.004692746532427
 30
0.0
 11
139.1506405968664
 21
43.977763078044511
 31
0.0
  0
LINE
  5
72
  8
0
 10
139.1506420799474
 20
31.752191488757258
 30
0.0
 11
162.36025483085839
 21
30.725253364213241
 31
0.0
  0
ARC
  5
73
  8
0
 10
161.4761861679325
 20
64.985144444235004
 30
0.0
 40
20.0
 50
272.5334511566316
 51
315.94178520387499
  0
ARC
  5
74
  8
0
 10
161.47619495841161
 20
10.744801964359221
 30
0.0
 40
20.0
 50
44.058233367444103
 51
87.466529539780396
  0
ARC
  5
75
  8
0
 10
138.84122112459099
 20
24.759033498808321
 30
0.0
 40
7.0
 50
87.466529539780396
 51
133.27198420669649
  0
ARC
  5
76
  8
0
 10
138.84122199758309
 20
50.970921172240409
 30
0.0
 40
7.0
 50
226.7280119768086
 51
272.5334511566316
  0
ARC
  5
77
  8
0
 10
240.16457336612601
 20
50.970921172240409
 30
0.0
 40
7.0
 50
267.4665488433684
 51
313.27198802319123
  0
ARC
  5
78
  8
0
 10
240.164574239118
 20
24.759033498808321
 30
0.0
 40
7.0
 50
46.728015793303392
 51
92.533470460219547
  0
ARC
  5
79
  8
0
 10
217.5296004052974
 20
10.744801964359221
 30
0.0
 40
20.0
 50
92.533470460219547
 51
135.9417666325559
  0
ARC
  5
7A
  8
0
 10
217.52960919577649
 20
64.985144444235004
 30
0.0
 40
20.0
 50
224.0582147961249
 51
267.4665488433684
  0
LINE
  5
7B
  8
0
 10
239.85515328376169
 20
31.752191488757258
 30
0.0
 11
216.6455405328507
 21
30.725253364213241
 31
0.0
  0
LINE
  5
7C
  8
0
 10
216.64555605496699
 20
45.004692746532427
 30
0.0
 11
239.85515476684259
 21
43.977763078044511
 31
0.0
  0
CIRCLE
  5
7D
  8
0
 10
252.50289768185459
 20
37.864977746454741
 30
0.0
 40
11.0
  0
LINE
  5
7E
  8
1
 10
252.50289768185459
 20
53.864977746454286
 30
0.0
 11
252.50289768185459
 21
21.864977746455189
 31
0.0
  0
CIRCLE
  5
7F
  8
0
 10
189.50289768185451
 20
37.86497774645477
 30
0.0
 40
2.5
  0
CIRCLE
  5
80
  8
0
 10
189.50289768185451
 20
37.864977746454748
 30
0.0
 40
19.0
  0
CIRCLE
  5
81
  8
0
 10
189.50289768185451
 20
37.864977746454748
 30
0.0
 40
18.000000000000021
  0
LINE
  5
82
  8
2
 10
192.00289768185459
 20
106.234254666525
 30
0.0
 11
192.50289768185459
 21
105.7342546665251
 31
0.0
  0
LINE
  5
83
  8
2
 10
189.50289768185451
 20
106.234254666525
 30
0.0
 11
192.00289768185459
 21
106.2342546665251
 31
0.0
  0
LINE
  5
84
  8
2
 10
189.50289768185451
 20
115.7342546665251
 30
0.0
 11
192.00289768185451
 21
115.7342546665251
 31
0.0
  0
LINE
  5
85
  8
2
 10
192.00289768185451
 20
115.7342546665251
 30
0.0
 11
192.00289768185459
 21
106.234254666525
 31
0.0
  0
LINE
  5
86
  8
2
 10
192.00289768185451
 20
115.7342546665251
 30
0.0
 11
189.50289768185451
 21
117.1776303394991
 31
0.0
  0
ARC
  5
87
  8
0
 10
149.7636547314645
 20
141.67121382011129
 30
0.0
 40
22.320728217086408
 50
338.3022726644229
 51
16.04051374370837
  0
ARC
  5
88
  8
0
 10
126.50289768185471
 20
160.734254666525
 30
0.0
 40
11.0
 50
300.55178922989472
 51
12.73706087942087
  0
LINE
  5
92
  8
1
 10
82.503470113720454
 20
160.73425466652509
 30
0.0
 11
50.503470113720638
 21
160.73425466652509
 31
0.0
  0
LINE
  5
93
  8
2
 10
69.00347011372051
 20
115.7342546665251
 30
0.0
 11
66.50347011372051
 21
117.1776303394991
 31
0.0
  0
LINE
  5
94
  8
2
 10
69.00347011372051
 20
115.7342546665251
 30
0.0
 11
69.003470113720539
 21
106.234254666525
 31
0.0
  0
LINE
  5
95
  8
2
 10
66.50347011372051
 20
115.7342546665251
 30
0.0
 11
69.00347011372051
 21
115.7342546665251
 31
0.0
  0
LINE
  5
96
  8
2
 10
66.50347011372051
 20
106.234254666525
 30
0.0
 11
69.003470113720539
 21
106.2342546665251
 31
0.0
  0
LINE
  5
97
  8
2
 10
69.003470113720539
 20
106.234254666525
 30
0.0
 11
69.503470113720539
 21
105.7342546665251
 31
0.0
  0
LINE
  5
98
  8
2
 10
64.003470113720468
 20
106.234254666525
 30
0.0
 11
63.503470113720468
 21
105.7342546665251
 31
0.0
  0
LINE
  5
99
  8
2
 10
66.50347011372051
 20
106.234254666525
 30
0.0
 11
64.003470113720468
 21
106.2342546665251
 31
0.0
  0
LINE
  5
9A
  8
0
 10
84.503470113720482
 20
105.7342546665251
 30
0.0
 11
48.503470113720468
 21
105.734254666525
 31
0.0
  0
LINE
  5
9B
  8
2
 10
66.50347011372051
 20
115.7342546665251
 30
0.0
 11
64.00347011372051
 21
115.7342546665251
 31
0.0
  0
LINE
  5
9C
  8
2
 10
64.00347011372051
 20
115.7342546665251
 30
0.0
 11
64.003470113720468
 21
106.234254666525
 31
0.0
  0
LINE
  5
9D
  8
0
 10
47.503470113720539
 20
146.73425466652509
 30
0.0
 11
47.503470113720468
 21
106.734254666525
 31
0.0
  0
LINE
  5
9E
  8
2
 10
64.00347011372051
 20
115.7342546665251
 30
0.0
 11
66.50347011372051
 21
117.1776303394991
 31
0.0
  0
LINE
  5
9F
  8
0
 10
48.503470113720468
 20
105.734254666525
 30
0.0
 11
47.503470113720468
 21
106.734254666525
 31
0.0
  0
LINE
  5
A0
  8
0
 10
85.503470113720482
 20
106.7342546665249
 30
0.0
 11
47.503470113720468
 21
106.7342546665249
 31
0.0
  0
LINE
  5
A1
  8
1
 10
66.503470113720468
 20
176.73425466652469
 30
0.0
 11
66.503470113720468
 21
100.734254666525
 31
0.0
  0
LINE
  5
A2
  8
0
 10
84.503470113720425
 20
105.734254666525
 30
0.0
 11
85.503470113720454
 21
106.734254666525
 31
0.0
  0
LINE
  5
A3
  8
0
 10
85.503470113720368
 20
146.73425466652509
 30
0.0
 11
85.503470113720454
 21
106.734254666525
 31
0.0
  0
LINE
  5
A4
  8
0
 10
82.503470113720383
 20
149.73425466652509
 30
0.0
 11
73.125820634208551
 21
149.73425466652509
 31
0.0
  0
ARC
  5
A5
  8
0
 10
50.503470113720532
 20
146.73425466652509
 30
0.0
 40
3.0
 50
90.0
 51
179.9999999999998
  0
ARC
  5
A6
  8
0
 10
82.503470113720383
 20
146.73425466652509
 30
0.0
 40
3.0
 50
0.0000000000001018
 51
89.999999999999943
  0
CIRCLE
  5
A7
  8
0
 10
66.503470113720468
 20
160.73425466652509
 30
0.0
 40
10.99999999999997
  0
LINE
  5
A8
  8
0
 10
72.948036809993283
 20
151.8197967414861
 30
0.0
 11
73.573771713128963
 21
144.479441261895
 31
0.0
  0
POLYLINE
  5
A9
  8
0
 66
     1
 10
0.0
 20
0.0
 30
0.0
  0
VERTEX
  5
AA
  8
0
 10
66.503470113720468
 20
133.41901956732499
 30
0.0
 42
0.1071615316110117
  0
VERTEX
  5
AB
  8
0
 10
69.364726758682934
 20
134.03937678648899
 30
0.0
 42
0.1016699018156351
  0
VERTEX
  5
AC
  8
0
 10
71.855988495538242
 20
135.85449554072031
 30
0.0
 42
0.0947590644031299
 70
     2
 50
47.68747918547966
  0
VERTEX
  5
AD
  8
0
 10
73.63690856526587
 20
138.7622580899654
 30
0.0
 42
0.1078486088935048
 50
47.68747918547966
  0
VERTEX
  5
AE
  8
0
 10
74.073074202138244
 20
141.734254666525
 30
0.0
 42
0.0903912236165611
  0
SEQEND
  5
AF
  8
0
  0
POLYLINE
  5
B0
  8
0
 66
     1
 10
0.0
 20
0.0
 30
0.0
  0
VERTEX
  5
B1
  8
0
 10
58.933866025302521
 20
141.734254666525
 30
0.0
 42
0.0903912236165585
  0
VERTEX
  5
B2
  8
0
 10
59.520295549052037
 20
138.51691765599989
 30
0.0
 42
0.0947590644031282
  0
VERTEX
  5
B3
  8
0
 10
61.150951731902722
 20
135.85449554072031
 30
0.0
 42
0.1016699018156367
 70
     2
 50
312.31252081452033
  0
VERTEX
  5
B4
  8
0
 10
63.642213468757973
 20
134.03937678648899
 30
0.0
 42
0.1071615316110184
 50
312.31252081452033
  0
VERTEX
  5
B5
  8
0
 10
66.503470113720468
 20
133.41901956732499
 30
0.0
 42
0.1071615316110117
  0
SEQEND
  5
B6
  8
0
  0
ARC
  5
B7
  8
0
 10
76.562930479206969
 20
144.734254666525
 30
0.0
 40
3.0
 50
184.8724482259922
 51
269.99999999999989
  0
ARC
  5
B8
  8
0
 10
56.444009748233988
 20
144.734254666525
 30
0.0
 40
3.0
 50
270.00000000000011
 51
355.12755177400771
  0
LINE
  5
B9
  8
0
 10
60.058903417447652
 20
151.8197967414861
 30
0.0
 11
59.43316851431198
 21
144.479441261895
 31
0.0
  0
LINE
  5
BA
  8
0
 10
59.881119593232413
 20
149.73425466652509
 30
0.0
 11
50.503470113720532
 21
149.73425466652509
 31
0.0
  0
LINE
  5
BB
  8
0
 10
319.12467577047659
 20
149.73425466652509
 30
0.0
 11
328.5023252499887
 21
149.73425466652509
 31
0.0
  0
LINE
  5
BC
  8
0
 10
318.94689194626142
 20
151.8197967414861
 30
0.0
 11
319.57262684939712
 21
144.479441261895
 31
0.0
  0
ARC
  5
BD
  8
0
 10
322.56178561547512
 20
144.734254666525
 30
0.0
 40
3.0
 50
184.8724482259922
 51
269.99999999999989
  0
ARC
  5
BE
  8
0
 10
302.44286488450223
 20
144.734254666525
 30
0.0
 40
3.0
 50
270.00000000000011
 51
355.12755177400771
  0
POLYLINE
  5
BF
  8
0
 66
     1
 10
0.0
 20
0.0
 30
0.0
  0
VERTEX
  5
C0
  8
0
 10
320.07192933840662
 20
141.734254666525
 30
0.0
 42
-0.0903912236165585
  0
VERTEX
  5
C1
  8
0
 10
319.48549981465709
 20
138.51691765599989
 30
0.0
 42
-0.0947590644031282
  0
VERTEX
  5
C2
  8
0
 10
317.85484363180632
 20
135.85449554072031
 30
0.0
 42
-0.1016699018156367
 70
     2
 50
227.6874791854797
  0
VERTEX
  5
C3
  8
0
 10
315.36358189495121
 20
134.03937678648899
 30
0.0
 42
-0.1071615316110184
  0
VERTEX
  5
C4
  8
0
 10
312.50232524998859
 20
133.41901956732499
 30
0.0
 42
-0.1071615316110117
  0
SEQEND
  5
C5
  8
0
  0
POLYLINE
  5
C6
  8
0
 66
     1
 10
0.0
 20
0.0
 30
0.0
  0
VERTEX
  5
C7
  8
0
 10
312.50232524998859
 20
133.41901956732499
 30
0.0
 42
-0.1071615316110117
  0
VERTEX
  5
C8
  8
0
 10
309.64106860502619
 20
134.03937678648899
 30
0.0
 42
-0.1016699018156351
  0
VERTEX
  5
C9
  8
0
 10
307.14980686817091
 20
135.85449554072031
 30
0.0
 42
-0.0947590644031299
 70
     2
 50
132.3125208145203
  0
VERTEX
  5
CA
  8
0
 10
305.36888679844321
 20
138.7622580899654
 30
0.0
 42
-0.1078486088935048
  0
VERTEX
  5
CB
  8
0
 10
304.93272116157078
 20
141.734254666525
 30
0.0
 42
-0.0903912236165611
  0
SEQEND
  5
CC
  8
0
  0
LINE
  5
CD
  8
0
 10
306.05775855371581
 20
151.8197967414861
 30
0.0
 11
305.43202365058022
 21
144.479441261895
 31
0.0
  0
CIRCLE
  5
CE
  8
0
 10
312.50232524998859
 20
160.73425466652509
 30
0.0
 40
10.99999999999997
  0
ARC
  5
CF
  8
0
 10
296.50232524998859
 20
146.73425466652509
 30
0.0
 40
3.0
 50
90.000000000000057
 51
179.99999999999989
  0
ARC
  5
D0
  8
0
 10
328.5023252499887
 20
146.73425466652509
 30
0.0
 40
3.0
 50
0.0000000000001781
 51
90.000000000000057
  0
LINE
  5
D1
  8
0
 10
296.50232524998859
 20
149.73425466652509
 30
0.0
 11
305.87997472950047
 21
149.73425466652509
 31
0.0
  0
LINE
  5
D2
  8
0
 10
293.50232524998859
 20
146.73425466652509
 30
0.0
 11
293.50232524998859
 21
106.734254666525
 31
0.0
  0
LINE
  5
D3
  8
0
 10
294.50232524998859
 20
105.734254666525
 30
0.0
 11
293.50232524998859
 21
106.734254666525
 31
0.0
  0
LINE
  5
D4
  8
1
 10
312.50232524998859
 20
176.73425466652469
 30
0.0
 11
312.50232524998859
 21
100.734254666525
 31
0.0
  0
LINE
  5
D5
  8
0
 10
293.50232524998859
 20
106.7342546665249
 30
0.0
 11
331.50232524998859
 21
106.7342546665249
 31
0.0
  0
LINE
  5
D6
  8
0
 10
330.5023252499887
 20
105.734254666525
 30
0.0
 11
331.50232524998859
 21
106.734254666525
 31
0.0
  0
LINE
  5
D7
  8
2
 10
315.00232524998859
 20
115.7342546665251
 30
0.0
 11
312.50232524998859
 21
117.1776303394991
 31
0.0
  0
LINE
  5
D8
  8
0
 10
331.50232524998847
 20
146.73425466652509
 30
0.0
 11
331.50232524998859
 21
106.734254666525
 31
0.0
  0
LINE
  5
D9
  8
2
 10
315.00232524998859
 20
115.7342546665251
 30
0.0
 11
315.00232524998859
 21
106.234254666525
 31
0.0
  0
LINE
  5
DA
  8
2
 10
312.50232524998859
 20
115.7342546665251
 30
0.0
 11
315.00232524998859
 21
115.7342546665251
 31
0.0
  0
LINE
  5
DB
  8
0
 10
294.50232524998859
 20
105.7342546665251
 30
0.0
 11
330.5023252499887
 21
105.734254666525
 31
0.0
  0
LINE
  5
DC
  8
2
 10
312.50232524998859
 20
106.234254666525
 30
0.0
 11
315.00232524998859
 21
106.2342546665251
 31
0.0
  0
LINE
  5
DD
  8
2
 10
315.00232524998859
 20
106.234254666525
 30
0.0
 11
315.5023252499887
 21
105.7342546665251
 31
0.0
  0
LINE
  5
DE
  8
2
 10
310.00232524998859
 20
106.234254666525
 30
0.0
 11
309.50232524998847
 21
105.7342546665251
 31
0.0
  0
LINE
  5
DF
  8
2
 10
312.50232524998859
 20
106.234254666525
 30
0.0
 11
310.00232524998859
 21
106.2342546665251
 31
0.0
  0
LINE
  5
E0
  8
2
 10
312.50232524998859
 20
115.7342546665251
 30
0.0
 11
310.00232524998859
 21
115.7342546665251
 31
0.0
  0
LINE
  5
E1
  8
2
 10
310.00232524998859
 20
115.7342546665251
 30
0.0
 11
310.00232524998859
 21
106.234254666525
 31
0.0
  0
LINE
  5
E2
  8
2
 10
310.00232524998859
 20
115.7342546665251
 30
0.0
 11
312.50232524998859
 21
117.1776303394991
 31
0.0
  0
LINE
  5
E3
  8
1
 10
296.50232524998859
 20
160.73425466652509
 30
0.0
 11
328.5023252499883
 21
160.73425466652509
 31
0.0
  0
TEXT
  5
22C
  8
0
 62
     3
 10
0.0
 20
0.0
 30
0.0
 40
10.0
  1
SH63C
  7
STANDARD1
  0
ENDSEC
  0
EOF
