  0
SECTION
  2
HEADER
  9
$ACADVER
  1
AC1009
  9
$INSBASE
 10
0.0
 20
0.0
 30
0.0
  9
$EXTMIN
 10
0.0
 20
-2.960436562073669
 30
0.0
  9
$EXTMAX
 10
241.66533407365981
 20
136.512513586735
 30
0.0
  9
$LIMMIN
 10
0.0
 20
0.0
  9
$LIMMAX
 10
385.0
 20
270.0
  9
$ORTHOMODE
 70
     1
  9
$REGENMODE
 70
     1
  9
$FILLMODE
 70
     1
  9
$QTEXTMODE
 70
     0
  9
$MIRRTEXT
 70
     0
  9
$DRAGMODE
 70
     2
  9
$LTSCALE
 40
10.0
  9
$OSMODE
 70
    37
  9
$ATTMODE
 70
     1
  9
$TEXTSIZE
 40
4.0
  9
$TRACEWID
 40
0.05
  9
$TEXTSTYLE
  7
STANDARD
  9
$CLAYER
  8
0
  9
$CELTYPE
  6
BYLAYER
  9
$CECOLOR
 62
   256
  9
$DIMSCALE
 40
1.0
  9
$DIMASZ
 40
3.0
  9
$DIMEXO
 40
1.0
  9
$DIMDLI
 40
6.0
  9
$DIMRND
 40
0.0
  9
$DIMDLE
 40
0.0
  9
$DIMEXE
 40
1.0
  9
$DIMTP
 40
495.0
  9
$DIMTM
 40
0.0
  9
$DIMTXT
 40
3.0
  9
$DIMCEN
 40
0.0
  9
$DIMTSZ
 40
0.0
  9
$DIMTOL
 70
     0
  9
$DIMLIM
 70
     0
  9
$DIMTIH
 70
     0
  9
$DIMTOH
 70
     0
  9
$DIMSE1
 70
     0
  9
$DIMSE2
 70
     0
  9
$DIMTAD
 70
     1
  9
$DIMZIN
 70
     0
  9
$DIMBLK
  1

  9
$DIMASO
 70
     0
  9
$DIMSHO
 70
     0
  9
$DIMPOST
  1

  9
$DIMAPOST
  1

  9
$DIMALT
 70
     0
  9
$DIMALTD
 70
     2
  9
$DIMALTF
 40
25.399999999999999
  9
$DIMLFAC
 40
1.0
  9
$DIMTOFL
 70
     1
  9
$DIMTVP
 40
0.0
  9
$DIMTIX
 70
     1
  9
$DIMSOXD
 70
     0
  9
$DIMSAH
 70
     0
  9
$DIMBLK1
  1

  9
$DIMBLK2
  1

  9
$DIMSTYLE
  2
STANDARD
  9
$DIMCLRD
 70
     0
  9
$DIMCLRE
 70
     0
  9
$DIMCLRT
 70
     0
  9
$DIMTFAC
 40
1.0
  9
$DIMGAP
 40
0.09
  9
$LUNITS
 70
     2
  9
$LUPREC
 70
     1
  9
$SKETCHINC
 40
0.1
  9
$FILLETRAD
 40
0.8
  9
$AUNITS
 70
     0
  9
$AUPREC
 70
     0
  9
$MENU
  1
E:\r13\win\SUPPORT\ACAD
  9
$ELEVATION
 40
0.0
  9
$PELEVATION
 40
0.0
  9
$THICKNESS
 40
0.0
  9
$LIMCHECK
 70
     0
  9
$BLIPMODE
 70
     0
  9
$CHAMFERA
 40
0.5
  9
$CHAMFERB
 40
0.5
  9
$SKPOLY
 70
     0
  9
$TDCREATE
 40
2449920.4263670142
  9
$TDUPDATE
 40
2459690.5085857981
  9
$TDINDWG
 40
0.0494680208
  9
$TDUSRTIMER
 40
0.0494680208
  9
$USRTIMER
 70
     1
  9
$ANGBASE
 50
0.0
  9
$ANGDIR
 70
     0
  9
$PDMODE
 70
     0
  9
$PDSIZE
 40
0.0
  9
$PLINEWID
 40
0.0
  9
$COORDS
 70
     1
  9
$SPLFRAME
 70
     0
  9
$SPLINETYPE
 70
     6
  9
$SPLINESEGS
 70
     8
  9
$ATTDIA
 70
     0
  9
$ATTREQ
 70
     1
  9
$HANDLING
 70
     1
  9
$HANDSEED
  5
464
  9
$SURFTAB1
 70
     6
  9
$SURFTAB2
 70
     6
  9
$SURFTYPE
 70
     6
  9
$SURFU
 70
     6
  9
$SURFV
 70
     6
  9
$UCSNAME
  2

  9
$UCSORG
 10
0.0
 20
0.0
 30
0.0
  9
$UCSXDIR
 10
1.0
 20
0.0
 30
0.0
  9
$UCSYDIR
 10
0.0
 20
1.0
 30
0.0
  9
$PUCSNAME
  2

  9
$PUCSORG
 10
0.0
 20
0.0
 30
0.0
  9
$PUCSXDIR
 10
1.0
 20
0.0
 30
0.0
  9
$PUCSYDIR
 10
0.0
 20
1.0
 30
0.0
  9
$USERI1
 70
     3
  9
$USERI2
 70
     1
  9
$USERI3
 70
     0
  9
$USERI4
 70
     0
  9
$USERI5
 70
     0
  9
$USERR1
 40
1.0
  9
$USERR2
 40
3.0
  9
$USERR3
 40
3.0
  9
$USERR4
 40
3.0
  9
$USERR5
 40
10.0
  9
$WORLDVIEW
 70
     1
  9
$SHADEDGE
 70
     3
  9
$SHADEDIF
 70
    70
  9
$TILEMODE
 70
     1
  9
$MAXACTVP
 70
    16
  9
$PLIMCHECK
 70
     0
  9
$PEXTMIN
 10
1.0000000000000000E+020
 20
1.0000000000000000E+020
 30
1.0000000000000000E+020
  9
$PEXTMAX
 10
-1.0000000000000000E+020
 20
-1.0000000000000000E+020
 30
-1.0000000000000000E+020
  9
$PLIMMIN
 10
0.0
 20
0.0
  9
$PLIMMAX
 10
12.0
 20
9.0
  9
$UNITMODE
 70
     0
  9
$VISRETAIN
 70
     0
  9
$PLINEGEN
 70
     0
  9
$PSLTSCALE
 70
     0
  0
ENDSEC
  0
SECTION
  2
TABLES
  0
TABLE
  2
VPORT
 70
     1
  0
VPORT
  2
*ACTIVE
 70
     0
 10
0.0
 20
0.0
 11
1.0
 21
1.0
 12
241.48802017654481
 22
100.0
 13
0.0
 23
0.0
 14
10.0
 24
10.0
 15
10.0
 25
10.0
 16
0.0
 26
0.0
 36
1.0
 17
0.0
 27
0.0
 37
0.0
 40
200.0
 41
2.4148802017654472
 42
50.0
 43
0.0
 44
0.0
 50
0.0
 51
0.0
 71
     0
 72
   100
 73
     1
 74
     0
 75
     0
 76
     0
 77
     0
 78
     0
  0
ENDTAB
  0
TABLE
  2
LTYPE
 70
     4
  0
LTYPE
  2
CONTINUOUS
 70
     0
  3
Solid Line
 72
    65
 73
     0
 40
0.0
  0
LTYPE
  2
CENTER
 70
     0
  3
____ _ ____ _ ____ _ ____ _ ____ _ ____ _ ____
 72
    65
 73
     4
 40
2.0
 49
1.25
 49
-0.25
 49
0.25
 49
-0.25
  0
LTYPE
  2
HIDDEN
 70
     0
  3
_ _ _ _ _ _ _ _ _ _ _ _ _ _ _ _ _ _ _ _ _ _ _
 72
    65
 73
     2
 40
0.375
 49
0.25
 49
-0.125
  0
LTYPE
  2
PHANTOM2
 70
     0
  3
Phantom (.5x) ___ _ _ ___ _ _ ___ _ _ ___ _ _
 72
    65
 73
     6
 40
1.25
 49
0.625
 49
-0.125
 49
0.125
 49
-0.125
 49
0.125
 49
-0.125
  0
ENDTAB
  0
TABLE
  2
LAYER
 70
     4
  0
LAYER
  2
0
 70
     0
 62
     7
  6
CONTINUOUS
  0
LAYER
  2
1
 70
     0
 62
     1
  6
CENTER
  0
LAYER
  2
5
 70
     0
 62
     3
  6
PHANTOM2
  0
LAYER
  2
2
 70
     0
 62
     2
  6
HIDDEN
  0
ENDTAB
  0
TABLE
  2
STYLE
 70
     2
  0
STYLE
  2
STANDARD
 70
     0
 40
0.0
 41
1.0
 50
0.0
 71
     0
 42
4.0
  3
simplex
  4
bigfont
  0
STYLE
  2
STANDARD1
 70
     0
 40
0.0
 41
1.0
 50
0.0
 71
     0
 42
3.0
  3
txt
  4

  0
ENDTAB
  0
TABLE
  2
VIEW
 70
     0
  0
ENDTAB
  0
TABLE
  2
UCS
 70
     0
  0
ENDTAB
  0
TABLE
  2
APPID
 70
     6
  0
APPID
  2
ACAD
 70
     0
  0
APPID
  2
ACAD_EXEMPT_FROM_CAD_STANDARDS
 70
     0
  0
APPID
  2
ACAD_MLEADERVER
 70
     0
  0
APPID
  2
ACAD_NAV_VCDISPLAY
 70
     0
  0
APPID
  2
ACAD_DSTYLE_DIMJAG
 70
     0
  0
APPID
  2
ACAD_DSTYLE_DIMTALN
 70
     0
  0
ENDTAB
  0
TABLE
  2
DIMSTYLE
 70
     1
  0
DIMSTYLE
  2
STANDARD
 70
     0
  3

  4

  5

  6

  7

 40
1.0
 41
0.18
 42
0.0625
 43
0.38
 44
0.18
 45
0.0
 46
0.0
 47
0.0
 48
0.0
140
0.18
141
0.09
142
0.0
143
25.399999999999999
144
1.0
145
0.0
146
1.0
147
0.09
 71
     0
 72
     0
 73
     1
 74
     1
 75
     0
 76
     0
 77
     0
 78
     0
170
     0
171
     2
172
     0
173
     0
174
     0
175
     0
176
     0
177
     0
178
     0
  0
ENDTAB
  0
ENDSEC
  0
SECTION
  2
BLOCKS
  0
BLOCK
  8
0
  2
$MODEL_SPACE
 70
     0
 10
0.0
 20
0.0
 30
0.0
  3
$MODEL_SPACE
  1

  0
ENDBLK
  5
14E
  8
0
  0
BLOCK
 67
     1
  8
0
  2
$PAPER_SPACE
 70
     0
 10
0.0
 20
0.0
 30
0.0
  3
$PAPER_SPACE
  1

  0
ENDBLK
  5
14C
 67
     1
  8
0
  0
ENDSEC
  0
SECTION
  2
ENTITIES
  0
LINE
  5
1D
  8
1
 10
113.3286848928375
 20
136.512513586735
 30
0.0
 11
113.3286848928375
 21
51.51251358673494
 31
0.0
  0
CIRCLE
  5
20
  8
5
 10
113.3286848928375
 20
94.012513586734997
 30
0.0
 40
34.559999999999988
  0
CIRCLE
  5
23
  8
0
 10
113.3286848928375
 20
94.012513586734954
 30
0.0
 40
17.5
  0
ARC
  5
24
  8
0
 10
80.176093893989872
 20
84.579788178713216
 30
0.0
 40
4.0278999999999989
 50
324.41195917448539
 51
67.352670646287109
  0
ARC
  5
25
  8
0
 10
146.4812758922663
 20
84.579788180755358
 30
0.0
 40
4.0278999999999989
 50
112.64725329213221
 51
215.58796476393411
  0
ARC
  5
28
  8
0
 10
131.47395925666211
 20
64.706889266111006
 30
0.0
 40
4.0278999999999989
 50
70.294312115661725
 51
173.2350235874635
  0
ARC
  5
29
  8
0
 10
96.629807610622379
 20
64.146600306804459
 30
0.0
 40
6.6103445526751177
 50
305.71295946004619
 51
328.73423246915519
  0
ARC
  5
2A
  8
0
 10
111.152564551661
 20
55.328505907698911
 30
0.0
 40
10.379924956665279
 50
130.88210568512429
 51
148.7342324691551
  0
ARC
  5
2B
  8
0
 10
88.875609779606947
 20
63.95864416268725
 30
0.0
 40
10.379924956665279
 50
348.91282635790373
 51
6.7649383835109598
  0
ARC
  5
2C
  8
0
 10
105.5487684438055
 20
60.691376472631347
 30
0.0
 40
6.6103445526751177
 50
168.9128263579037
 51
191.9340993670121
  0
ARC
  5
2D
  8
0
 10
113.3286848928375
 20
94.012513586734954
 30
0.0
 40
37.5
 50
247.67063570893919
 51
249.97642311986451
  0
ARC
  5
2E
  8
0
 10
85.822307896690916
 20
73.240661885312875
 30
0.0
 40
4.0278999999999989
 50
345.58842976272069
 51
88.529141234522356
  0
ARC
  5
2F
  8
0
 10
85.130952346649963
 20
74.629191947127211
 30
0.0
 40
6.6103445526751177
 50
126.5598851814331
 51
149.58115819054169
  0
ARC
  5
30
  8
0
 10
113.3286848928375
 20
94.012513586734954
 30
0.0
 40
37.5
 50
205.31769453246861
 51
207.62348194339401
  0
ARC
  5
31
  8
0
 10
85.659265103606288
 20
66.890729751996133
 30
0.0
 40
10.379924956665279
 50
88.529164508653878
 51
106.38129129268459
  0
ARC
  5
32
  8
0
 10
80.867530003491993
 20
83.191298230744223
 30
0.0
 40
6.6103445526751177
 50
263.36001828357558
 51
286.38129129268458
  0
ARC
  5
33
  8
0
 10
75.010483424990156
 20
88.276366262923887
 30
0.0
 40
10.379924956665279
 50
306.55988518143312
 51
324.4119972070406
  0
ARC
  5
34
  8
0
 10
95.183410530818165
 20
64.706889264993265
 30
0.0
 40
4.0278999999999989
 50
6.7649003509558057
 51
109.7056118227575
  0
ARC
  5
35
  8
0
 10
94.037145766679629
 20
65.751908556503707
 30
0.0
 40
6.6103445526751177
 50
147.73635576966839
 51
170.7576287787771
  0
ARC
  5
36
  8
0
 10
86.968633289497504
 20
72.195709100283196
 30
0.0
 40
6.6103445526751177
 50
284.53648887181089
 51
307.55776188091983
  0
ARC
  5
37
  8
0
 10
97.32523771807692
 20
58.726856041839341
 30
0.0
 40
10.379924956665279
 50
109.7056350968891
 51
127.5577618809198
  0
ARC
  5
38
  8
0
 10
113.3286848928375
 20
94.012513586734954
 30
0.0
 40
37.5
 50
226.494165120704
 51
228.79995253162909
  0
ARC
  5
39
  8
0
 10
79.670161560097114
 20
74.821584559968812
 30
0.0
 40
10.379924956665279
 50
327.73635576966842
 51
345.58846779527562
  0
ARC
  5
3A
  8
0
 10
137.78176000791939
 20
63.958644164193572
 30
0.0
 40
10.379924956665279
 50
173.23504686159481
 51
191.0871736456258
  0
ARC
  5
3B
  8
0
 10
106.99513301397241
 20
60.131003597395093
 30
0.0
 40
4.0278999999999989
 50
27.941370939191032
 51
130.88208241099281
  0
ARC
  5
3C
  8
0
 10
119.6622367737898
 20
60.131003597785231
 30
0.0
 40
4.0278999999999989
 50
49.117841527426513
 51
152.05855299922811
  0
ARC
  5
3D
  8
0
 10
118.1111119473784
 20
60.131048594813358
 30
0.0
 40
6.6103445526751177
 50
190.08929694613889
 51
213.11056995524771
  0
ARC
  5
3E
  8
0
 10
108.5462578403837
 20
60.131048594518802
 30
0.0
 40
6.6103445526751177
 50
326.88943004828138
 51
349.91070305739038
  0
ARC
  5
3F
  8
0
 10
113.3286848928375
 20
94.012513586734954
 30
0.0
 40
37.5
 50
268.84710629717449
 51
271.15289370809978
  0
ARC
  5
40
  8
0
 10
101.3835812923253
 20
57.154645365362768
 30
0.0
 40
10.379924956665279
 50
10.089296946138891
 51
27.941408971746181
  0
ARC
  5
41
  8
0
 10
125.2737884956201
 20
57.154645366098627
 30
0.0
 40
10.379924956665279
 50
152.05857627335959
 51
169.91070305739029
  0
ARC
  5
42
  8
0
 10
130.02756217689239
 20
64.146600307833026
 30
0.0
 40
6.6103445526751177
 50
211.26576753437411
 51
234.2870405434827
  0
ARC
  5
43
  8
0
 10
115.5048052363969
 20
55.328505907832891
 30
0.0
 40
10.379924956665279
 50
31.265767534374479
 51
49.11787955998161
  0
ARC
  5
44
  8
0
 10
113.3286848928376
 20
94.01251358673494
 30
0.0
 40
37.5
 50
290.0235768854098
 51
292.32936429633509
  0
ARC
  5
45
  8
0
 10
121.1086013439221
 20
60.691376473110587
 30
0.0
 40
6.6103445526751177
 50
348.0659006365168
 51
11.08717364562583
  0
ARC
  5
46
  8
0
 10
140.83506189026369
 20
73.240661887007249
 30
0.0
 40
4.0278999999999989
 50
91.470782703896987
 51
194.41149417569881
  0
ARC
  5
47
  8
0
 10
132.6202240207362
 20
65.751908557692062
 30
0.0
 40
6.6103445526751177
 50
9.2423712247519383
 51
32.263644233861008
  0
ARC
  5
48
  8
0
 10
139.6887364975214
 20
72.195709101906886
 30
0.0
 40
6.6103445526751177
 50
232.4422381226095
 51
255.46351113171809
  0
ARC
  5
49
  8
0
 10
129.33213206977169
 20
58.726856042825091
 30
0.0
 40
10.379924956665279
 50
52.442238122609481
 51
70.294350148216836
  0
ARC
  5
4A
  8
0
 10
113.3286848928375
 20
94.01251358673494
 30
0.0
 40
37.5
 50
311.20004747364499
 51
313.50583488457028
  0
ARC
  5
4B
  8
0
 10
146.98720822676
 20
74.821584562042176
 30
0.0
 40
10.379924956665279
 50
194.4115174498302
 51
212.26364423386099
  0
ARC
  5
4C
  8
0
 10
141.52641744021909
 20
74.629191948864147
 30
0.0
 40
6.6103445526751177
 50
30.418841812987232
 51
53.440114822096248
  0
ARC
  5
4D
  8
0
 10
140.99810468373951
 20
66.890729753700484
 30
0.0
 40
10.379924956665279
 50
73.618708710844857
 51
91.470820736452097
  0
ARC
  5
4E
  8
0
 10
113.3286848928375
 20
94.012513586734954
 30
0.0
 40
37.5
 50
332.3765180618804
 51
334.68230547280558
  0
ARC
  5
4F
  8
0
 10
145.7898397828497
 20
83.191298232743748
 30
0.0
 40
6.6103445526751177
 50
253.6187087108448
 51
276.63998171995343
  0
ARC
  5
50
  8
0
 10
151.64688636103821
 20
88.276366265284253
 30
0.0
 40
10.379924956665279
 50
215.5879880380653
 51
233.44011482209629
  0
LINE
  5
51
  8
1
 10
70.828684892837515
 20
94.012513586734997
 30
0.0
 11
155.82868489283749
 21
94.012513586735011
 31
0.0
  0
ARC
  5
52
  8
0
 10
135.23107922051639
 20
120.30149228971371
 30
0.0
 40
6.6103445526751177
 50
115.1247241659284
 51
138.14599717503739
  0
ARC
  5
53
  8
0
 10
136.54989581552019
 20
119.4849685497789
 30
0.0
 40
4.0278999999999989
 50
176.1766650568382
 51
279.11737652863991
  0
ARC
  5
54
  8
0
 10
94.814353865076384
 20
128.04789953203431
 30
0.0
 40
10.379924956665279
 50
342.64681156747753
 51
0.4989383515079455
  0
ARC
  5
55
  8
0
 10
131.8430159185022
 20
128.04789953317481
 30
0.0
 40
10.379924956665279
 50
179.50106165202141
 51
197.3531736776284
  0
ARC
  5
56
  8
0
 10
108.3595848916537
 20
132.4377135865949
 30
0.0
 40
10.379924956665279
 50
321.470340979242
 51
339.32246776327281
  0
ARC
  5
57
  8
0
 10
118.2977848916546
 20
132.437713586901
 30
0.0
 40
10.379924956665279
 50
200.67753224025671
 51
218.52964426586391
  0
ARC
  5
58
  8
0
 10
100.87726264504219
 20
126.1533393783528
 30
0.0
 40
4.0278999999999989
 50
239.70607682154409
 51
342.64678829334588
  0
ARC
  5
59
  8
0
 10
82.473838500621326
 20
109.3764015280328
 30
0.0
 40
4.0278999999999989
 50
282.05901799801461
 51
24.999729469816401
  0
ARC
  5
5A
  8
0
 10
79.007321010531626
 20
97.192856307002785
 30
0.0
 40
4.0278999999999989
 50
303.23548858624991
 51
46.176200058051663
  0
ARC
  5
5B
  8
0
 10
75.525890726600153
 20
102.50584644704919
 30
0.0
 40
10.379924956665279
 50
285.38341459319793
 51
303.23552661880512
  0
ARC
  5
5C
  8
0
 10
77.730200953219224
 20
78.717550656026731
 30
0.0
 40
10.379924956665279
 50
67.352693920418631
 51
85.204820704449276
  0
ARC
  5
5D
  8
0
 10
113.3286848928375
 20
94.012513586734954
 30
0.0
 40
37.5
 50
184.1412239442333
 51
186.44701135515871
  0
ARC
  5
5E
  8
0
 10
79.150485558761318
 20
95.648352457456028
 30
0.0
 40
6.6103445526751177
 50
242.18354769534039
 51
265.20482070444922
  0
ARC
  5
5F
  8
0
 10
80.033018956012825
 20
86.124300331872746
 30
0.0
 40
6.6103445526751177
 50
105.3834145931978
 51
128.4046876023063
  0
ARC
  5
60
  8
0
 10
79.431849747797912
 20
98.684755626786
 30
0.0
 40
6.6103445526751177
 50
84.206944004962494
 51
107.22821701407111
  0
ARC
  5
61
  8
0
 10
74.608909316886724
 20
92.610041056164775
 30
0.0
 40
10.379924956665279
 50
46.176223332183163
 51
64.028350116214028
  0
ARC
  5
62
  8
0
 10
113.3286848928375
 20
94.012513586734997
 30
0.0
 40
37.5
 50
162.96475335599791
 51
165.27054076692329
  0
ARC
  5
63
  8
0
 10
82.049396322038007
 20
107.8844775801809
 30
0.0
 40
6.6103445526751177
 50
221.00707710710509
 51
244.028350116214
  0
ARC
  5
64
  8
0
 10
81.146774852874188
 20
115.588254965207
 30
0.0
 40
10.379924956665279
 50
264.20694400496262
 51
282.05905603056982
  0
ARC
  5
65
  8
0
 10
91.114004256164847
 20
125.75674005489211
 30
0.0
 40
10.379924956665279
 50
243.03047341672729
 51
260.88258544233452
  0
ARC
  5
66
  8
0
 10
83.408635954768229
 20
110.6141987444035
 30
0.0
 40
6.6103445526751177
 50
63.030473416727247
 51
86.051746425835816
  0
ARC
  5
67
  8
0
 10
113.3286848928375
 20
94.012513586734997
 30
0.0
 40
37.5
 50
141.78828276776281
 51
144.0940701786881
  0
ARC
  5
68
  8
0
 10
76.716937925769443
 20
106.6919431429249
 30
0.0
 40
10.379924956665279
 50
24.99975274394782
 51
42.85187952797871
  0
ARC
  5
69
  8
0
 10
89.172748331322509
 20
118.24711709838481
 30
0.0
 40
6.6103445526751177
 50
199.83060651886959
 51
222.8518795279787
  0
ARC
  5
6A
  8
0
 10
90.107473968585879
 20
119.4849685483485
 30
0.0
 40
4.0278999999999989
 50
260.88254740977942
 51
3.8232588815812298
  0
ARC
  5
6B
  8
0
 10
91.426290563539339
 20
120.3014922883646
 30
0.0
 40
6.6103445526751177
 50
41.854002828491801
 51
64.875275837600412
  0
ARC
  5
6C
  8
0
 10
83.769585835248094
 20
119.061418008977
 30
0.0
 40
10.379924956665279
 50
3.823282155712548
 51
21.67540893974326
  0
ARC
  5
6D
  8
0
 10
113.3286848928375
 20
94.012513586734997
 30
0.0
 40
37.5
 50
120.6118121795274
 51
122.9175995904527
  0
ARC
  5
6E
  8
0
 10
99.558493425904857
 20
125.33673912376661
 30
0.0
 40
6.6103445526751177
 50
178.65413593063431
 51
201.67540893974331
  0
ARC
  5
6F
  8
0
 10
104.08144937523301
 20
131.6379914592213
 30
0.0
 40
10.379924956665279
 50
221.85400282849179
 51
239.7061148540991
  0
CIRCLE
  5
70
  8
0
 10
113.3286848928375
 20
94.012513586734954
 30
0.0
 40
7.5
  0
ARC
  5
71
  8
0
 10
113.32868489177601
 20
128.4809135867352
 30
0.0
 40
4.0278999999999989
 50
218.5296062333085
 51
321.4703177051104
  0
ARC
  5
72
  8
0
 10
125.78010713865299
 20
126.1533393791197
 30
0.0
 40
4.0278999999999989
 50
197.35313564507351
 51
300.2938471168751
  0
ARC
  5
73
  8
0
 10
122.5759204081244
 20
131.63799145979081
 30
0.0
 40
10.379924956665279
 50
300.29387039100669
 51
318.14599717503751
  0
ARC
  5
74
  8
0
 10
113.3286848928375
 20
94.012513586734997
 30
0.0
 40
37.5
 50
99.435341591292044
 51
101.74112900221731
  0
ARC
  5
75
  8
0
 10
111.8039791813614
 20
128.19585091684661
 30
0.0
 40
6.6103445526751177
 50
157.47766534239909
 51
180.49893835150789
  0
ARC
  5
76
  8
0
 10
102.40198489183879
 20
126.4383135864109
 30
0.0
 40
6.6103445526751177
 50
20.677532240256689
 51
43.698805249365101
  0
ARC
  5
77
  8
0
 10
114.85339060220799
 20
128.19585091694049
 30
0.0
 40
6.6103445526751177
 50
359.50106165202141
 51
22.522334661129751
  0
ARC
  5
78
  8
0
 10
113.3286848928375
 20
94.012513586734954
 30
0.0
 40
37.5
 50
78.258871003056711
 51
80.564658413982045
  0
ARC
  5
79
  8
0
 10
124.255384891839
 20
126.4383135870839
 30
0.0
 40
6.6103445526751177
 50
136.3011947541637
 51
159.3224677632727
  0
ARC
  5
7A
  8
0
 10
144.1835312841074
 20
109.3764015299334
 30
0.0
 40
4.0278999999999989
 50
155.00019446860301
 51
257.9409059404046
  0
ARC
  5
7B
  8
0
 10
152.04846046887479
 20
92.610041058549882
 30
0.0
 40
10.379924956665279
 50
115.97164988731539
 51
133.82376191292281
  0
ARC
  5
7C
  8
0
 10
147.2255200375894
 20
98.684755628873972
 30
0.0
 40
6.6103445526751177
 50
72.771782989457947
 51
95.793055998566828
  0
ARC
  5
7D
  8
0
 10
148.92716883339801
 20
78.717550658219523
 30
0.0
 40
10.379924956665279
 50
94.795179299080104
 51
112.6472913246874
  0
ARC
  5
7E
  8
0
 10
151.13147905855169
 20
102.5058464493778
 30
0.0
 40
10.379924956665279
 50
236.76445862630089
 51
254.6165854103316
  0
ARC
  5
7F
  8
0
 10
147.65004877494761
 20
97.192856309116934
 30
0.0
 40
4.0278999999999989
 50
133.82372388036751
 51
236.76443535216939
  0
ARC
  5
80
  8
0
 10
145.51059493147179
 20
115.5882549671894
 30
0.0
 40
10.379924956665279
 50
257.94092921453608
 51
275.7930559985669
  0
ARC
  5
81
  8
0
 10
113.3286848928376
 20
94.01251358673494
 30
0.0
 40
37.5
 50
353.55298865011542
 51
355.85877606104071
  0
ARC
  5
82
  8
0
 10
147.5068842268131
 20
95.648352459561352
 30
0.0
 40
6.6103445526751177
 50
274.79517929908008
 51
297.81645230818862
  0
ARC
  5
83
  8
0
 10
146.6243508301481
 20
86.124300333923713
 30
0.0
 40
6.6103445526751177
 50
51.595312401222628
 51
74.616585410331581
  0
ARC
  5
84
  8
0
 10
113.3286848928376
 20
94.012513586734954
 30
0.0
 40
37.5
 50
14.72945923835112
 51
17.035246649276409
  0
ARC
  5
85
  8
0
 10
144.60797346278261
 20
107.88447758210761
 30
0.0
 40
6.6103445526751177
 50
295.97164988731538
 51
318.99292289642398
  0
ARC
  5
86
  8
0
 10
113.3286848928376
 20
94.012513586734954
 30
0.0
 40
37.5
 50
35.905929826586217
 51
38.211717237511607
  0
ARC
  5
87
  8
0
 10
143.2487338298842
 20
110.6141987462464
 30
0.0
 40
6.6103445526751177
 50
93.948253577693109
 51
116.9695265868021
  0
ARC
  5
88
  8
0
 10
135.54336552755481
 20
125.7567400562604
 30
0.0
 40
10.379924956665279
 50
279.11739980277139
 51
296.9695265868022
  0
ARC
  5
89
  8
0
 10
149.94043185912469
 20
106.6919431451802
 30
0.0
 40
10.379924956665279
 50
137.14812047555071
 51
155.000232501158
  0
ARC
  5
8A
  8
0
 10
137.48462145285981
 20
118.2471170998728
 30
0.0
 40
6.6103445526751177
 50
317.1481204755508
 51
340.16939348465911
  0
ARC
  5
8B
  8
0
 10
142.88778394888411
 20
119.06141801079779
 30
0.0
 40
10.379924956665279
 50
158.32459106378599
 51
176.17670308939341
  0
ARC
  5
8C
  8
0
 10
127.09887635784079
 20
125.33673912461479
 30
0.0
 40
6.6103445526751177
 50
338.32459106378599
 51
1.3458640728946181
  0
ARC
  5
8D
  8
0
 10
113.3286848928376
 20
94.012513586734954
 30
0.0
 40
37.5
 50
57.08240041482145
 51
59.388187825746748
  0
LINE
  5
8E
  8
1
 10
231.16533407365981
 20
51.512513586734983
 30
0.0
 11
231.16533407365981
 21
136.512513586735
 31
0.0
  0
LINE
  5
8F
  8
0
 10
236.66533407365981
 20
110.5125135867353
 30
0.0
 11
236.66533407365981
 21
77.51251358673467
 31
0.0
  0
LINE
  5
90
  8
0
 10
225.66533407365981
 20
77.51251358673467
 30
0.0
 11
225.66533407365981
 21
110.5125135867353
 31
0.0
  0
LINE
  5
91
  8
0
 10
234.81533407366001
 20
62.912511454254378
 30
0.0
 11
234.81533407366001
 21
125.11251358673501
 31
0.0
  0
LINE
  5
92
  8
0
 10
227.51533407366011
 20
125.11251358673501
 30
0.0
 11
227.51533407366
 21
62.912511454254378
 31
0.0
  0
LINE
  5
9E
  8
1
 10
237.3644106693427
 20
59.452513586735023
 30
0.0
 11
224.966257477977
 21
59.452513586735023
 31
0.0
  0
LINE
  5
9F
  8
0
 10
233.20188109119169
 20
56.512513586734983
 30
0.0
 11
229.12878705612789
 21
56.512513586734983
 31
0.0
  0
ARC
  5
A0
  8
0
 10
241.01533407366
 20
62.912513586734981
 30
0.0
 40
13.5
 50
180.0
 51
208.29908019122249
  0
ARC
  5
A1
  8
0
 10
221.31533407365981
 20
62.912513586734981
 30
0.0
 40
13.5
 50
331.700919808778
 51
0.0000181010575907
  0
LINE
  5
A2
  8
1
 10
235.69553225511149
 20
81.512513586734428
 30
0.0
 11
226.6351358922081
 21
81.512513586734428
 31
0.0
  0
ARC
  5
A3
  8
0
 10
226.66533407365981
 20
77.51251358673467
 30
0.0
 40
1.0
 50
180.0
 51
270.0
  0
LINE
  5
A4
  8
0
 10
226.66533407365981
 20
76.51251358673467
 30
0.0
 11
227.51533407366
 21
76.512513586734656
 31
0.0
  0
ARC
  5
A5
  8
0
 10
235.66533407365981
 20
77.51251358673467
 30
0.0
 40
1.0
 50
270.0
 51
0.0
  0
LINE
  5
A6
  8
0
 10
234.81533407366001
 20
76.512513586734613
 30
0.0
 11
235.66533407365981
 21
76.51251358673467
 31
0.0
  0
ARC
  5
A7
  8
0
 10
241.01533407366
 20
125.11251358673501
 30
0.0
 40
13.5
 50
151.70091980877751
 51
180.0
  0
ARC
  5
A8
  8
0
 10
221.31533407365981
 20
125.11251358673501
 30
0.0
 40
13.5
 50
359.99998189894239
 51
28.299080191222071
  0
LINE
  5
A9
  8
1
 10
220.66533407365981
 20
94.012513586734983
 30
0.0
 11
241.66533407365981
 21
94.012513586734997
 31
0.0
  0
LINE
  5
AA
  8
2
 10
226.66533407365981
 20
86.512513586734244
 30
0.0
 11
235.66533407365981
 21
86.512513586734244
 31
0.0
  0
ARC
  5
AD
  8
2
 10
226.66533407365981
 20
85.512513586734244
 30
0.0
 40
1.0
 50
90.000000000000028
 51
180.0
  0
ARC
  5
AE
  8
2
 10
235.66533407365981
 20
85.512513586734244
 30
0.0
 40
1.0
 50
0.0
 51
90.000000000000028
  0
LINE
  5
AF
  8
2
 10
226.66533407365981
 20
101.51251358673569
 30
0.0
 11
235.66533407365981
 21
101.51251358673569
 31
0.0
  0
ARC
  5
B0
  8
2
 10
226.66533407365981
 20
102.51251358673569
 30
0.0
 40
1.0
 50
180.0
 51
270.0
  0
ARC
  5
B1
  8
2
 10
235.66533407365981
 20
102.51251358673569
 30
0.0
 40
1.0
 50
270.0
 51
0.0
  0
LINE
  5
B2
  8
1
 10
235.69553225511149
 20
106.51251358673549
 30
0.0
 11
226.6351358922081
 21
106.51251358673549
 31
0.0
  0
ARC
  5
B3
  8
0
 10
226.66533407365981
 20
110.5125135867353
 30
0.0
 40
1.0
 50
90.0
 51
180.0
  0
LINE
  5
B4
  8
0
 10
226.66533407365981
 20
111.5125135867353
 30
0.0
 11
227.51533407366
 21
111.5125135867353
 31
0.0
  0
ARC
  5
B5
  8
0
 10
235.66533407365981
 20
110.5125135867353
 30
0.0
 40
1.0
 50
0.0
 51
90.0
  0
LINE
  5
B6
  8
0
 10
234.81533407366001
 20
111.5125135867353
 30
0.0
 11
235.66533407365981
 21
111.5125135867353
 31
0.0
  0
LINE
  5
B7
  8
1
 10
237.3644106693427
 20
128.572513586735
 30
0.0
 11
224.966257477977
 21
128.572513586735
 31
0.0
  0
LINE
  5
B8
  8
0
 10
233.20188109119169
 20
131.512513586735
 30
0.0
 11
229.12878705612789
 21
131.512513586735
 31
0.0
  0
TEXT
  5
3D8
  8
0
 62
     3
 10
0.0
 20
0.0
 30
0.0
 40
10.0
  1
SIS417
  7
STANDARD1
  0
ENDSEC
  0
EOF
