  0
SECTION
  2
HEADER
  9
$ACADVER
  1
AC1009
  9
$INSBASE
 10
0.0
 20
0.0
 30
0.0
  9
$EXTMIN
 10
0.0
 20
-2.960436562073669
 30
0.0
  9
$EXTMAX
 10
202.005514273096
 20
116.768195852825
 30
0.0
  9
$LIMMIN
 10
0.0
 20
0.0
  9
$LIMMAX
 10
187.5
 20
135.0
  9
$ORTHOMODE
 70
     1
  9
$REGENMODE
 70
     1
  9
$FILLMODE
 70
     1
  9
$QTEXTMODE
 70
     0
  9
$MIRRTEXT
 70
     0
  9
$DRAGMODE
 70
     2
  9
$LTSCALE
 40
10.0
  9
$OSMODE
 70
    37
  9
$ATTMODE
 70
     1
  9
$TEXTSIZE
 40
2.5
  9
$TRACEWID
 40
0.05
  9
$TEXTSTYLE
  7
STANDARD
  9
$CLAYER
  8
0
  9
$CELTYPE
  6
BYLAYER
  9
$CECOLOR
 62
   256
  9
$DIMSCALE
 40
0.5
  9
$DIMASZ
 40
3.0
  9
$DIMEXO
 40
2.0
  9
$DIMDLI
 40
10.0
  9
$DIMRND
 40
0.0
  9
$DIMDLE
 40
0.0
  9
$DIMEXE
 40
2.0
  9
$DIMTP
 40
0.0
  9
$DIMTM
 40
0.0
  9
$DIMTXT
 40
3.0
  9
$DIMCEN
 40
0.09
  9
$DIMTSZ
 40
0.0
  9
$DIMTOL
 70
     0
  9
$DIMLIM
 70
     0
  9
$DIMTIH
 70
     0
  9
$DIMTOH
 70
     0
  9
$DIMSE1
 70
     0
  9
$DIMSE2
 70
     0
  9
$DIMTAD
 70
     1
  9
$DIMZIN
 70
     0
  9
$DIMBLK
  1

  9
$DIMASO
 70
     0
  9
$DIMSHO
 70
     0
  9
$DIMPOST
  1

  9
$DIMAPOST
  1

  9
$DIMALT
 70
     0
  9
$DIMALTD
 70
     2
  9
$DIMALTF
 40
25.399999999999999
  9
$DIMLFAC
 40
1.0
  9
$DIMTOFL
 70
     1
  9
$DIMTVP
 40
1.6000000000000001
  9
$DIMTIX
 70
     1
  9
$DIMSOXD
 70
     0
  9
$DIMSAH
 70
     0
  9
$DIMBLK1
  1

  9
$DIMBLK2
  1

  9
$DIMSTYLE
  2
STANDARD
  9
$DIMCLRD
 70
     0
  9
$DIMCLRE
 70
     0
  9
$DIMCLRT
 70
     0
  9
$DIMTFAC
 40
1.0
  9
$DIMGAP
 40
0.09
  9
$LUNITS
 70
     2
  9
$LUPREC
 70
     1
  9
$SKETCHINC
 40
0.1
  9
$FILLETRAD
 40
0.0
  9
$AUNITS
 70
     0
  9
$AUPREC
 70
     0
  9
$MENU
  1
E:\r13\win\SUPPORT\ACAD
  9
$ELEVATION
 40
0.0
  9
$PELEVATION
 40
0.0
  9
$THICKNESS
 40
0.0
  9
$LIMCHECK
 70
     0
  9
$BLIPMODE
 70
     0
  9
$CHAMFERA
 40
3.2000000000000002
  9
$CHAMFERB
 40
3.2000000000000002
  9
$SKPOLY
 70
     0
  9
$TDCREATE
 40
2449840.5944097228
  9
$TDUPDATE
 40
2459690.5085893408
  9
$TDINDWG
 40
0.2994475116
  9
$TDUSRTIMER
 40
0.2994475116
  9
$USRTIMER
 70
     1
  9
$ANGBASE
 50
0.0
  9
$ANGDIR
 70
     0
  9
$PDMODE
 70
     0
  9
$PDSIZE
 40
0.0
  9
$PLINEWID
 40
0.0
  9
$COORDS
 70
     1
  9
$SPLFRAME
 70
     0
  9
$SPLINETYPE
 70
     6
  9
$SPLINESEGS
 70
     8
  9
$ATTDIA
 70
     0
  9
$ATTREQ
 70
     1
  9
$HANDLING
 70
     1
  9
$HANDSEED
  5
3B4A
  9
$SURFTAB1
 70
     6
  9
$SURFTAB2
 70
     6
  9
$SURFTYPE
 70
     6
  9
$SURFU
 70
     6
  9
$SURFV
 70
     6
  9
$UCSNAME
  2

  9
$UCSORG
 10
0.0
 20
0.0
 30
0.0
  9
$UCSXDIR
 10
1.0
 20
0.0
 30
0.0
  9
$UCSYDIR
 10
0.0
 20
1.0
 30
0.0
  9
$PUCSNAME
  2

  9
$PUCSORG
 10
0.0
 20
0.0
 30
0.0
  9
$PUCSXDIR
 10
1.0
 20
0.0
 30
0.0
  9
$PUCSYDIR
 10
0.0
 20
1.0
 30
0.0
  9
$USERI1
 70
     0
  9
$USERI2
 70
     1
  9
$USERI3
 70
     1
  9
$USERI4
 70
     0
  9
$USERI5
 70
     0
  9
$USERR1
 40
0.0
  9
$USERR2
 40
0.0
  9
$USERR3
 40
0.0
  9
$USERR4
 40
0.0
  9
$USERR5
 40
0.0
  9
$WORLDVIEW
 70
     1
  9
$SHADEDGE
 70
     3
  9
$SHADEDIF
 70
    70
  9
$TILEMODE
 70
     1
  9
$MAXACTVP
 70
    16
  9
$PLIMCHECK
 70
     0
  9
$PEXTMIN
 10
1.0000000000000000E+020
 20
1.0000000000000000E+020
 30
1.0000000000000000E+020
  9
$PEXTMAX
 10
-1.0000000000000000E+020
 20
-1.0000000000000000E+020
 30
-1.0000000000000000E+020
  9
$PLIMMIN
 10
0.0
 20
0.0
  9
$PLIMMAX
 10
12.0
 20
9.0
  9
$UNITMODE
 70
     0
  9
$VISRETAIN
 70
     0
  9
$PLINEGEN
 70
     0
  9
$PSLTSCALE
 70
     0
  0
ENDSEC
  0
SECTION
  2
TABLES
  0
TABLE
  2
VPORT
 70
     1
  0
VPORT
  2
*ACTIVE
 70
     0
 10
0.0
 20
0.0
 11
1.0
 21
1.0
 12
241.48802017654481
 22
100.0
 13
0.0
 23
0.0
 14
5.0
 24
5.0
 15
5.0
 25
5.0
 16
0.0
 26
0.0
 36
1.0
 17
0.0
 27
0.0
 37
0.0
 40
200.0
 41
2.4148802017654472
 42
50.0
 43
0.0
 44
0.0
 50
0.0
 51
0.0
 71
     0
 72
   100
 73
     1
 74
     0
 75
     0
 76
     0
 77
     0
 78
     0
  0
ENDTAB
  0
TABLE
  2
LTYPE
 70
     5
  0
LTYPE
  2
CONTINUOUS
 70
     0
  3
Solid Line
 72
    65
 73
     0
 40
0.0
  0
LTYPE
  2
CENTER
 70
     0
  3
____ _ ____ _ ____ _ ____ _ ____ _ ____ _ ____
 72
    65
 73
     4
 40
2.0
 49
1.25
 49
-0.25
 49
0.25
 49
-0.25
  0
LTYPE
  2
HIDDEN
 70
     0
  3
_ _ _ _ _ _ _ _ _ _ _ _ _ _ _ _ _ _ _ _ _ _ _
 72
    65
 73
     2
 40
0.375
 49
0.25
 49
-0.125
  0
LTYPE
  2
PHANTOM
 70
     0
  3
_____ _ _ _____ _ _ _____ _ _ _____ _ _ ____
 72
    65
 73
     6
 40
2.5
 49
1.25
 49
-0.25
 49
0.25
 49
-0.25
 49
0.25
 49
-0.25
  0
LTYPE
  2
PHANTOM2
 70
     0
  3
___ _ _ ___ _ _ ___ _ _ ___ _ _
 72
    65
 73
     6
 40
1.25
 49
0.625
 49
-0.125
 49
0.125
 49
-0.125
 49
0.125
 49
-0.125
  0
ENDTAB
  0
TABLE
  2
LAYER
 70
     4
  0
LAYER
  2
0
 70
     0
 62
     7
  6
CONTINUOUS
  0
LAYER
  2
1
 70
     0
 62
     1
  6
CENTER
  0
LAYER
  2
2
 70
     0
 62
     2
  6
HIDDEN
  0
LAYER
  2
5
 70
     0
 62
     3
  6
PHANTOM
  0
ENDTAB
  0
TABLE
  2
STYLE
 70
     2
  0
STYLE
  2
STANDARD
 70
     0
 40
0.0
 41
1.0
 50
0.0
 71
     0
 42
2.5
  3
TXT
  4
BIGFONT
  0
STYLE
  2
STANDARD1
 70
     0
 40
0.0
 41
1.0
 50
0.0
 71
     0
 42
3.0
  3
txt
  4

  0
ENDTAB
  0
TABLE
  2
VIEW
 70
     1
  0
VIEW
  2
ALL
 70
     0
 40
135.0
 10
110.49579799999999
 20
67.5
 41
0.0
 11
0.0
 21
0.0
 31
1.0
 12
0.0
 22
0.0
 32
0.0
 42
0.0
 43
0.0
 44
0.0
 50
0.0
 71
     0
  0
ENDTAB
  0
TABLE
  2
UCS
 70
     0
  0
ENDTAB
  0
TABLE
  2
APPID
 70
     7
  0
APPID
  2
ACAD
 70
     0
  0
APPID
  2
DCO15
 70
     0
  0
APPID
  2
ACAD_EXEMPT_FROM_CAD_STANDARDS
 70
     0
  0
APPID
  2
ACAD_MLEADERVER
 70
     0
  0
APPID
  2
ACAD_NAV_VCDISPLAY
 70
     0
  0
APPID
  2
ACAD_DSTYLE_DIMJAG
 70
     0
  0
APPID
  2
ACAD_DSTYLE_DIMTALN
 70
     0
  0
ENDTAB
  0
TABLE
  2
DIMSTYLE
 70
     1
  0
DIMSTYLE
  2
STANDARD
 70
     0
  3

  4

  5

  6

  7

 40
1.0
 41
0.18
 42
0.0625
 43
0.38
 44
0.18
 45
0.0
 46
0.0
 47
0.0
 48
0.0
140
0.18
141
0.09
142
0.0
143
25.399999999999999
144
1.0
145
0.0
146
1.0
147
0.09
 71
     0
 72
     0
 73
     1
 74
     1
 75
     0
 76
     0
 77
     0
 78
     0
170
     0
171
     2
172
     0
173
     0
174
     0
175
     0
176
     0
177
     0
178
     0
  0
ENDTAB
  0
ENDSEC
  0
SECTION
  2
BLOCKS
  0
BLOCK
  8
0
  2
$MODEL_SPACE
 70
     0
 10
0.0
 20
0.0
 30
0.0
  3
$MODEL_SPACE
  1

  0
ENDBLK
  5
15D
  8
0
  0
BLOCK
 67
     1
  8
0
  2
$PAPER_SPACE
 70
     0
 10
0.0
 20
0.0
 30
0.0
  3
$PAPER_SPACE
  1

  0
ENDBLK
  5
15B
 67
     1
  8
0
  0
ENDSEC
  0
SECTION
  2
ENTITIES
  0
ARC
  5
38F4
  8
0
 10
73.668865092273833
 20
74.268195852825031
 30
0.0
 40
37.5
 50
99.435341591293394
 51
101.7411290022188
  0
ARC
  5
38F5
  8
0
 10
78.637965091090905
 20
112.6933958529911
 30
0.0
 40
10.379924956665279
 50
200.67753224025711
 51
218.52964426586419
  0
ARC
  5
38F6
  8
0
 10
62.742165091275183
 20
106.693995852501
 30
0.0
 40
6.6103445526751177
 50
20.677532240256941
 51
43.698805249365151
  0
ARC
  5
38F7
  8
0
 10
84.595565091275262
 20
106.693995853174
 30
0.0
 40
6.6103445526751177
 50
136.30119475416461
 51
159.3224677632725
  0
ARC
  5
38F8
  8
0
 10
68.699765091090001
 20
112.693395852685
 30
0.0
 40
10.379924956665279
 50
321.47034097924262
 51
339.3224677632727
  0
ARC
  5
38F9
  8
0
 10
73.668865091212297
 20
108.7365958528252
 30
0.0
 40
4.0278999999999989
 50
218.52960623330929
 51
321.47031770511001
  0
ARC
  5
38FA
  8
0
 10
73.668865092273833
 20
74.268195852825016
 30
0.0
 40
37.5
 50
78.258871003056868
 51
80.564658413982414
  0
ARC
  5
38FB
  8
0
 10
92.183196117938564
 20
108.3035817992649
 30
0.0
 40
10.379924956665279
 50
179.50106165202121
 51
197.3531736776288
  0
ARC
  5
38FC
  8
0
 10
75.193570801644341
 20
108.45153318303061
 30
0.0
 40
6.6103445526751177
 50
359.50106165202118
 51
22.522334661129939
  0
ARC
  5
38FD
  8
0
 10
95.571259419952753
 20
100.5571745558037
 30
0.0
 40
6.6103445526751177
 50
115.12472416592939
 51
138.1459971750383
  0
ARC
  5
38FE
  8
0
 10
82.916100607560736
 20
111.8936737258809
 30
0.0
 40
10.379924956665279
 50
300.2938703910055
 51
318.1459971750383
  0
ARC
  5
38FF
  8
0
 10
86.120287338089327
 20
106.4090216452098
 30
0.0
 40
4.0278999999999989
 50
197.35313564507311
 51
300.2938471168759
  0
ARC
  5
3900
  8
0
 10
73.668865092273904
 20
74.268195852825016
 30
0.0
 40
37.5
 50
57.082400414822693
 51
59.388187825745838
  0
ARC
  5
3901
  8
0
 10
103.2279641483204
 20
99.317100276887913
 30
0.0
 40
10.379924956665279
 50
158.32459106378639
 51
176.17670308939319
  0
ARC
  5
3902
  8
0
 10
87.439056557277127
 20
105.5924213907049
 30
0.0
 40
6.6103445526751177
 50
338.32459106378639
 51
1.3458640728946181
  0
ARC
  5
3903
  8
0
 10
103.58891402932051
 20
90.869881012336478
 30
0.0
 40
6.6103445526751177
 50
93.948253577693677
 51
116.96952658680171
  0
ARC
  5
3904
  8
0
 10
95.883545726991144
 20
106.0124223223504
 30
0.0
 40
10.379924956665279
 50
279.11739980277122
 51
296.96952658680181
  0
ARC
  5
3905
  8
0
 10
96.890076014956492
 20
99.740650815868932
 30
0.0
 40
4.0278999999999989
 50
176.1766650568382
 51
279.11737652863968
  0
ARC
  5
3906
  8
0
 10
73.668865092273904
 20
74.268195852825016
 30
0.0
 40
37.5
 50
35.905929826585258
 51
38.21171723751246
  0
ARC
  5
3907
  8
0
 10
110.280612058561
 20
86.947625411270224
 30
0.0
 40
10.379924956665279
 50
137.14812047555071
 51
155.0002325011576
  0
ARC
  5
3908
  8
0
 10
97.824801652296173
 20
98.502799365962872
 30
0.0
 40
6.6103445526751177
 50
317.14812047555063
 51
340.16939348465951
  0
ARC
  5
3909
  8
0
 10
107.5657002370256
 20
78.940437894964006
 30
0.0
 40
6.6103445526751177
 50
72.771782989459425
 51
95.793055998567354
  0
ARC
  5
390A
  8
0
 10
105.8507751309081
 20
95.843937233279433
 30
0.0
 40
10.379924956665279
 50
257.94092921453608
 51
275.7930559985673
  0
ARC
  5
390B
  8
0
 10
104.52371148354371
 20
89.632083796023437
 30
0.0
 40
4.0278999999999989
 50
155.00019446860281
 51
257.94090594040478
  0
ARC
  5
390C
  8
0
 10
73.668865092273904
 20
74.268195852825016
 30
0.0
 40
37.5
 50
14.72945923835071
 51
17.035246649276431
  0
ARC
  5
390D
  8
0
 10
112.3886406683111
 20
72.865723324639916
 30
0.0
 40
10.379924956665279
 50
115.9716498873139
 51
133.82376191292181
  0
ARC
  5
390E
  8
0
 10
104.9481536622189
 20
88.140159848197683
 30
0.0
 40
6.6103445526751177
 50
295.97164988731402
 51
318.99292289642437
  0
ARC
  5
390F
  8
0
 10
106.96453102958441
 20
66.379982600013733
 30
0.0
 40
6.6103445526751177
 50
51.595312401221527
 51
74.616585410331979
  0
ARC
  5
3910
  8
0
 10
111.47165925798799
 20
82.761528715467861
 30
0.0
 40
10.379924956665279
 50
236.76445862630021
 51
254.61658541033199
  0
ARC
  5
3911
  8
0
 10
107.9902289743839
 20
77.448538575206982
 30
0.0
 40
4.0278999999999989
 50
133.82372388036771
 51
236.76443535216839
  0
ARC
  5
3912
  8
0
 10
73.668865092273904
 20
74.268195852825002
 30
0.0
 40
37.5
 50
353.55298865011559
 51
355.85877606104088
  0
ARC
  5
3913
  8
0
 10
109.2673490328343
 20
58.973232924309549
 30
0.0
 40
10.379924956665279
 50
94.795179299079393
 51
112.6472913246879
  0
ARC
  5
3914
  8
0
 10
107.8470644262494
 20
75.904034725651385
 30
0.0
 40
6.6103445526751177
 50
274.79517929907939
 51
297.81645230818839
  0
ARC
  5
3915
  8
0
 10
101.8665976396554
 20
54.884874214954202
 30
0.0
 40
6.6103445526751177
 50
30.418841812986699
 51
53.44011482209563
  0
ARC
  5
3916
  8
0
 10
111.9870665604745
 20
68.532048531374286
 30
0.0
 40
10.379924956665279
 50
215.58798803806579
 51
233.44011482209569
  0
ARC
  5
3917
  8
0
 10
106.8214560917026
 20
64.835470446845434
 30
0.0
 40
4.0278999999999989
 50
112.64725329213189
 51
215.5879647639334
  0
ARC
  5
3918
  8
0
 10
73.668865092273833
 20
74.268195852825016
 30
0.0
 40
37.5
 50
332.3765180618804
 51
334.68230547280592
  0
ARC
  5
3919
  8
0
 10
101.3382848831758
 20
47.146412019790553
 30
0.0
 40
10.379924956665279
 50
73.618708710846121
 51
91.470820736453376
  0
ARC
  5
391A
  8
0
 10
106.130019982286
 20
63.446980498833781
 30
0.0
 40
6.6103445526751177
 50
253.61870871084611
 51
276.63998171995422
  0
ARC
  5
391B
  8
0
 10
92.960404220172563
 20
46.007590823782103
 30
0.0
 40
6.6103445526751177
 50
9.2423712247519383
 51
32.263644233860518
  0
ARC
  5
391C
  8
0
 10
107.32738842619629
 20
55.077266828132217
 30
0.0
 40
10.379924956665279
 50
194.4115174498306
 51
212.2636442338603
  0
ARC
  5
391D
  8
0
 10
101.17524208969991
 20
53.49634415309729
 30
0.0
 40
4.0278999999999989
 50
91.470782703898394
 51
194.41149417569841
  0
ARC
  5
391E
  8
0
 10
73.668865092273833
 20
74.268195852825002
 30
0.0
 40
37.5
 50
311.2000474736443
 51
313.50583488457107
  0
ARC
  5
391F
  8
0
 10
89.672312269208064
 20
38.982538308915139
 30
0.0
 40
10.379924956665279
 50
52.442238122609979
 51
70.294350148217347
  0
ARC
  5
3920
  8
0
 10
100.02891669695769
 20
52.451391367996933
 30
0.0
 40
6.6103445526751177
 50
232.44223812260989
 51
255.46351113171929
  0
ARC
  5
3921
  8
0
 10
81.448781543358393
 20
40.947058739200642
 30
0.0
 40
6.6103445526751177
 50
348.0659006365168
 51
11.08717364562542
  0
ARC
  5
3922
  8
0
 10
98.121940207355692
 20
44.21432643028362
 30
0.0
 40
10.379924956665279
 50
173.23504686159481
 51
191.0871736456254
  0
ARC
  5
3923
  8
0
 10
91.814139456098417
 20
44.962571532201054
 30
0.0
 40
4.0278999999999989
 50
70.294312115661441
 51
173.2350235874635
  0
ARC
  5
3924
  8
0
 10
73.668865092273904
 20
74.268195852825002
 30
0.0
 40
37.5
 50
290.02357688540849
 51
292.32936429633469
  0
ARC
  5
3925
  8
0
 10
75.84498543583328
 20
35.584188173922939
 30
0.0
 40
10.379924956665279
 50
31.265767534374259
 51
49.117879559980402
  0
ARC
  5
3926
  8
0
 10
90.367742376328692
 20
44.402282573923067
 30
0.0
 40
6.6103445526751177
 50
211.26576753437411
 51
234.28704054348191
  0
ARC
  5
3927
  8
0
 10
68.886438039820064
 20
40.386730860608843
 30
0.0
 40
6.6103445526751177
 50
326.88943004828218
 51
349.91070305739061
  0
ARC
  5
3928
  8
0
 10
85.613968695056414
 20
37.410327632188682
 30
0.0
 40
10.379924956665279
 50
152.05857627335959
 51
169.91070305739049
  0
ARC
  5
3929
  8
0
 10
80.002416973226104
 20
40.386685863875272
 30
0.0
 40
4.0278999999999989
 50
49.117841527427302
 51
152.05855299922769
  0
ARC
  5
392A
  8
0
 10
73.668865092273833
 20
74.268195852825016
 30
0.0
 40
37.5
 50
268.84710629717421
 51
271.15289370809978
  0
ARC
  5
392B
  8
0
 10
61.72376149176165
 20
37.410327631452823
 30
0.0
 40
10.379924956665279
 50
10.089296946138891
 51
27.941408971745961
  0
ARC
  5
392C
  8
0
 10
78.451292146814694
 20
40.386730860903413
 30
0.0
 40
6.6103445526751177
 50
190.08929694613889
 51
213.11056995524689
  0
ARC
  5
392D
  8
0
 10
56.969987810058683
 20
44.402282572894499
 30
0.0
 40
6.6103445526751177
 50
305.71295946004489
 51
328.73423246915439
  0
ARC
  5
392E
  8
0
 10
71.492744751097334
 20
35.584188173788959
 30
0.0
 40
10.379924956665279
 50
130.88210568512449
 51
148.73423246915439
  0
ARC
  5
392F
  8
0
 10
67.335313213408654
 20
40.386685863485141
 30
0.0
 40
4.0278999999999989
 50
27.941370939191678
 51
130.88208241099289
  0
ARC
  5
3930
  8
0
 10
73.668865092273833
 20
74.268195852825016
 30
0.0
 40
37.5
 50
247.6706357089395
 51
249.97642311986419
  0
ARC
  5
3931
  8
0
 10
49.215789979043279
 20
44.214326428777291
 30
0.0
 40
10.379924956665279
 50
348.91282635790373
 51
6.7649383835109598
  0
ARC
  5
3932
  8
0
 10
65.888948643241804
 20
40.947058738721388
 30
0.0
 40
6.6103445526751177
 50
168.9128263579037
 51
191.9340993670121
  0
ARC
  5
3933
  8
0
 10
47.308813488933822
 20
52.451391366373237
 30
0.0
 40
6.6103445526751177
 50
284.53648887180998
 51
307.55776188091932
  0
ARC
  5
3934
  8
0
 10
57.665417917513189
 20
38.982538307929389
 30
0.0
 40
10.379924956665279
 50
109.7056350968903
 51
127.5577618809193
  0
ARC
  5
3935
  8
0
 10
55.523590730254512
 20
44.962571531083327
 30
0.0
 40
4.0278999999999989
 50
6.7649003509555996
 51
109.70561182275731
  0
ARC
  5
3936
  8
0
 10
73.668865092273833
 20
74.268195852825016
 30
0.0
 40
37.5
 50
226.49416512070411
 51
228.79995253162869
  0
ARC
  5
3937
  8
0
 10
40.010341759533382
 20
55.07726682605886
 30
0.0
 40
10.379924956665279
 50
327.73635576966808
 51
345.58846779527602
  0
ARC
  5
3938
  8
0
 10
54.377325966115897
 20
46.007590822593748
 30
0.0
 40
6.6103445526751177
 50
147.73635576966799
 51
170.7576287787769
  0
ARC
  5
3939
  8
0
 10
41.207710202928297
 20
63.446980496834257
 30
0.0
 40
6.6103445526751177
 50
263.36001828357712
 51
286.38129129268418
  0
ARC
  5
393A
  8
0
 10
45.999445303042577
 20
47.146412018086181
 30
0.0
 40
10.379924956665279
 50
88.529164508653125
 51
106.3812912926842
  0
ARC
  5
393B
  8
0
 10
46.16248809612722
 20
53.496344151402923
 30
0.0
 40
4.0278999999999989
 50
345.5884297627203
 51
88.529141234522655
  0
ARC
  5
393C
  8
0
 10
73.668865092273833
 20
74.268195852825016
 30
0.0
 40
37.5
 50
205.31769453246909
 51
207.6234819433941
  0
ARC
  5
393D
  8
0
 10
35.350663624426431
 20
68.532048529013935
 30
0.0
 40
10.379924956665279
 50
306.55988518143249
 51
324.4119972070406
  0
ARC
  5
393E
  8
0
 10
45.471132546086267
 20
54.884874213217259
 30
0.0
 40
6.6103445526751177
 50
126.55988518143251
 51
149.5811581905412
  0
ARC
  5
393F
  8
0
 10
39.490665758197622
 20
75.904034723546076
 30
0.0
 40
6.6103445526751177
 50
242.1835476953394
 51
265.20482070445041
  0
ARC
  5
3940
  8
0
 10
38.070381152655557
 20
58.973232922116772
 30
0.0
 40
10.379924956665279
 50
67.352693920419043
 51
85.20482070445037
  0
ARC
  5
3941
  8
0
 10
40.516274093426212
 20
64.835470444803278
 30
0.0
 40
4.0278999999999989
 50
324.41195917448482
 51
67.352670646288175
  0
ARC
  5
3942
  8
0
 10
73.668865092273833
 20
74.268195852825016
 30
0.0
 40
37.5
 50
184.1412239442331
 51
186.44701135515839
  0
ARC
  5
3943
  8
0
 10
35.866070926036457
 20
82.761528713139271
 30
0.0
 40
10.379924956665279
 50
285.38341459319793
 51
303.23552661880638
  0
ARC
  5
3944
  8
0
 10
40.373199155449122
 20
66.379982597962794
 30
0.0
 40
6.6103445526751177
 50
105.3834145931978
 51
128.40468760230701
  0
ARC
  5
3945
  8
0
 10
42.389576521474282
 20
88.140159846270947
 30
0.0
 40
6.6103445526751177
 50
221.00707710710461
 51
244.02835011621471
  0
ARC
  5
3946
  8
0
 10
34.949089516322999
 20
72.865723322254837
 30
0.0
 40
10.379924956665279
 50
46.17622333218344
 51
64.028350116214682
  0
ARC
  5
3947
  8
0
 10
39.347501209967902
 20
77.448538573092819
 30
0.0
 40
4.0278999999999989
 50
303.23548858625082
 51
46.176200058050647
  0
ARC
  5
3948
  8
0
 10
73.668865092273833
 20
74.268195852825031
 30
0.0
 40
37.5
 50
162.96475335599831
 51
165.27054076692301
  0
ARC
  5
3949
  8
0
 10
41.486955052310464
 20
95.843937231297119
 30
0.0
 40
10.379924956665279
 50
264.2069440049616
 51
282.0590560305701
  0
ARC
  5
394A
  8
0
 10
39.772029947234223
 20
78.940437892876062
 30
0.0
 40
6.6103445526751177
 50
84.206944004961585
 51
107.2282170140698
  0
ARC
  5
394B
  8
0
 10
49.512928530758813
 20
98.502799364474896
 30
0.0
 40
6.6103445526751177
 50
199.8306065188699
 51
222.85187952797861
  0
ARC
  5
394C
  8
0
 10
37.057118125205761
 20
86.947625409014975
 30
0.0
 40
10.379924956665279
 50
24.999752743948449
 51
42.85187952797866
  0
ARC
  5
394D
  8
0
 10
42.814018700057602
 20
89.632083794122821
 30
0.0
 40
4.0278999999999989
 50
282.05901799801393
 51
24.99972946981686
  0
ARC
  5
394E
  8
0
 10
73.668865092273833
 20
74.268195852825031
 30
0.0
 40
37.5
 50
141.7882827677623
 51
144.0940701786875
  0
ARC
  5
394F
  8
0
 10
51.454184455601187
 20
106.0124223209821
 30
0.0
 40
10.379924956665279
 50
243.0304734167282
 51
260.8825854423344
  0
ARC
  5
3950
  8
0
 10
43.748816154204512
 20
90.869881010493529
 30
0.0
 40
6.6103445526751177
 50
63.030473416728192
 51
86.051746425835404
  0
ARC
  5
3951
  8
0
 10
59.898673625341189
 20
105.5924213898566
 30
0.0
 40
6.6103445526751177
 50
178.65413593063431
 51
201.6754089397439
  0
ARC
  5
3952
  8
0
 10
44.109766034684412
 20
99.317100275067105
 30
0.0
 40
10.379924956665279
 50
3.8232821557127519
 51
21.6754089397439
  0
ARC
  5
3953
  8
0
 10
50.447654168022147
 20
99.740650814438524
 30
0.0
 40
4.0278999999999989
 50
260.88254740977823
 51
3.8232588815810269
  0
CIRCLE
  5
3954
  8
0
 10
73.668865092273833
 20
74.268195852825016
 30
0.0
 40
17.5
  0
CIRCLE
  5
3955
  8
0
 10
73.668865092273833
 20
74.268195852825016
 30
0.0
 40
7.5
  0
CIRCLE
  5
3956
  8
5
 10
73.668865092273833
 20
74.268195852825031
 30
0.0
 40
34.559999999999988
  0
LINE
  5
3957
  8
0
 10
195.15551427309541
 20
43.168200117786249
 30
0.0
 11
195.15551427309629
 21
105.36819158786381
 31
0.0
  0
LINE
  5
3958
  8
1
 10
196.03571245454779
 20
61.768195852824491
 30
0.0
 11
186.9753160916444
 21
61.768195852824491
 31
0.0
  0
LINE
  5
3959
  8
2
 10
187.00551427309611
 20
66.768195852824292
 30
0.0
 11
196.00551427309611
 21
66.768195852824292
 31
0.0
  0
ARC
  5
395A
  8
2
 10
187.00551427309611
 20
65.768195852824292
 30
0.0
 40
1.0
 50
90.0
 51
180.0
  0
ARC
  5
395B
  8
2
 10
196.00551427309611
 20
65.768195852824292
 30
0.0
 40
1.0
 50
0.0
 51
90.0
  0
ARC
  5
395C
  8
0
 10
196.00551427309611
 20
57.768195852824711
 30
0.0
 40
1.0
 50
270.0
 51
0.0
  0
ARC
  5
395D
  8
0
 10
187.00551427309611
 20
57.768195852824711
 30
0.0
 40
1.0
 50
180.0
 51
270.0
  0
LINE
  5
395E
  8
0
 10
187.00551427309611
 20
56.768195852824718
 30
0.0
 11
187.8555142730963
 21
56.768195852824718
 31
0.0
  0
LINE
  5
395F
  8
0
 10
186.00551427309611
 20
57.768195852824711
 30
0.0
 11
186.00551427309611
 21
90.768195852825372
 31
0.0
  0
LINE
  5
3960
  8
0
 10
187.00551427309611
 20
91.768195852825372
 30
0.0
 11
187.8555142730963
 21
91.768195852825343
 31
0.0
  0
LINE
  5
3961
  8
0
 10
197.00551427309611
 20
90.768195852825372
 30
0.0
 11
197.00551427309611
 21
57.768195852824711
 31
0.0
  0
ARC
  5
3962
  8
0
 10
187.00551427309611
 20
90.768195852825372
 30
0.0
 40
1.0
 50
90.0
 51
180.0
  0
ARC
  5
3963
  8
0
 10
196.00551427309611
 20
90.768195852825372
 30
0.0
 40
1.0
 50
0.0
 51
90.0
  0
ARC
  5
3964
  8
2
 10
196.00551427309611
 20
82.768195852825784
 30
0.0
 40
1.0
 50
270.0
 51
0.0
  0
ARC
  5
3965
  8
2
 10
187.00551427309611
 20
82.768195852825784
 30
0.0
 40
1.0
 50
180.0
 51
270.0
  0
LINE
  5
3966
  8
2
 10
187.00551427309611
 20
81.768195852825784
 30
0.0
 11
196.00551427309611
 21
81.768195852825784
 31
0.0
  0
LINE
  5
3967
  8
1
 10
196.03571245454779
 20
86.768195852825599
 30
0.0
 11
186.9753160916444
 21
86.768195852825599
 31
0.0
  0
LINE
  5
3968
  8
1
 10
197.70459086877901
 20
39.708195852825071
 30
0.0
 11
185.3064376774133
 21
39.708195852825092
 31
0.0
  0
LINE
  5
3969
  8
1
 10
197.70459086877901
 20
108.828195852825
 30
0.0
 11
185.3064376774133
 21
108.828195852825
 31
0.0
  0
LINE
  5
396A
  8
0
 10
193.542061290628
 20
36.768195852825031
 30
0.0
 11
189.46896725556419
 21
36.768195852825031
 31
0.0
  0
ARC
  5
396B
  8
0
 10
201.3555142730963
 20
43.168195852825029
 30
0.0
 40
13.5
 50
180.0
 51
208.2990801912218
  0
ARC
  5
396C
  8
0
 10
181.65551427309609
 20
43.168195852825029
 30
0.0
 40
13.5
 50
331.70091980877839
 51
0.0000181010575907
  0
ARC
  5
396D
  8
0
 10
181.65551427309609
 20
105.368195852825
 30
0.0
 40
13.5
 50
359.99998189894239
 51
28.299080191221559
  0
ARC
  5
396E
  8
0
 10
201.3555142730963
 20
105.368195852825
 30
0.0
 40
13.5
 50
151.7009198087782
 51
180.0
  0
LINE
  5
396F
  8
0
 10
193.542061290628
 20
111.768195852825
 30
0.0
 11
189.46896725556419
 21
111.768195852825
 31
0.0
  0
LINE
  5
3970
  8
0
 10
187.8555142730963
 20
105.368195852825
 30
0.0
 11
187.8555142730963
 21
43.168195852825029
 31
0.0
  0
LINE
  5
3971
  8
1
 10
191.50551427309611
 20
31.768195852825031
 30
0.0
 11
191.50551427309611
 21
116.768195852825
 31
0.0
  0
LINE
  5
3972
  8
1
 10
181.00551427309611
 20
74.268195852825045
 30
0.0
 11
202.005514273096
 21
74.268195852825031
 31
0.0
  0
LINE
  5
3973
  8
1
 10
31.16886509227383
 20
74.268195852825031
 30
0.0
 11
116.1688650922738
 21
74.268195852825031
 31
0.0
  0
LINE
  5
3974
  8
1
 10
73.668865092273833
 20
116.768195852825
 30
0.0
 11
73.668865092273833
 21
31.76819585282502
 31
0.0
  0
ARC
  5
3975
  8
0
 10
61.217442844478562
 20
106.4090216444428
 30
0.0
 40
4.0278999999999989
 50
239.70607682154349
 51
342.64678829334611
  0
ARC
  5
3976
  8
0
 10
55.154534064512688
 20
108.3035817981244
 30
0.0
 40
10.379924956665279
 50
342.6468115674773
 51
0.498938351508149
  0
ARC
  5
3977
  8
0
 10
72.14415938079776
 20
108.4515331829366
 30
0.0
 40
6.6103445526751177
 50
157.47766534239889
 51
180.49893835150789
  0
ARC
  5
3978
  8
0
 10
51.766470762975644
 20
100.5571745544547
 30
0.0
 40
6.6103445526751177
 50
41.854002828490863
 51
64.875275837599446
  0
ARC
  5
3979
  8
0
 10
64.421629574669282
 20
111.8936737253114
 30
0.0
 40
10.379924956665279
 50
221.85400282849309
 51
239.70611485410021
  0
ARC
  5
397A
  8
0
 10
73.668865092273833
 20
74.268195852825031
 30
0.0
 40
37.5
 50
120.6118121795263
 51
122.91759959045309
  0
LINE
  5
397B
  8
0
 10
195.15551427309609
 20
91.768195852825386
 30
0.0
 11
196.00551427309611
 21
91.768195852825372
 31
0.0
  0
LINE
  5
397C
  8
0
 10
195.1555142730956
 20
56.768195852824718
 30
0.0
 11
196.00551427309611
 21
56.768195852824718
 31
0.0
  0
TEXT
  5
3AA8
  8
0
 62
     3
 10
0.0
 20
0.0
 30
0.0
 40
10.0
  1
SIS417UU
  7
STANDARD1
  0
ENDSEC
  0
EOF
