  0
SECTION
  2
HEADER
  9
$ACADVER
  1
AC1009
  9
$INSBASE
 10
0.0
 20
0.0
 30
0.0
  9
$EXTMIN
 10
0.0
 20
-2.960436562073669
 30
0.0
  9
$EXTMAX
 10
219.1060554576363
 20
122.07533556982
 30
0.0
  9
$LIMMIN
 10
0.0
 20
0.0
  9
$LIMMAX
 10
385.0
 20
270.0
  9
$ORTHOMODE
 70
     1
  9
$REGENMODE
 70
     1
  9
$FILLMODE
 70
     1
  9
$QTEXTMODE
 70
     0
  9
$MIRRTEXT
 70
     0
  9
$DRAGMODE
 70
     2
  9
$LTSCALE
 40
10.0
  9
$OSMODE
 70
    37
  9
$ATTMODE
 70
     1
  9
$TEXTSIZE
 40
4.0
  9
$TRACEWID
 40
0.05
  9
$TEXTSTYLE
  7
STANDARD
  9
$CLAYER
  8
0
  9
$CELTYPE
  6
BYLAYER
  9
$CECOLOR
 62
   256
  9
$DIMSCALE
 40
1.0
  9
$DIMASZ
 40
3.0
  9
$DIMEXO
 40
1.0
  9
$DIMDLI
 40
6.0
  9
$DIMRND
 40
0.0
  9
$DIMDLE
 40
0.0
  9
$DIMEXE
 40
1.0
  9
$DIMTP
 40
495.0
  9
$DIMTM
 40
0.0
  9
$DIMTXT
 40
3.0
  9
$DIMCEN
 40
0.0
  9
$DIMTSZ
 40
0.0
  9
$DIMTOL
 70
     0
  9
$DIMLIM
 70
     0
  9
$DIMTIH
 70
     0
  9
$DIMTOH
 70
     0
  9
$DIMSE1
 70
     0
  9
$DIMSE2
 70
     0
  9
$DIMTAD
 70
     1
  9
$DIMZIN
 70
     0
  9
$DIMBLK
  1

  9
$DIMASO
 70
     0
  9
$DIMSHO
 70
     0
  9
$DIMPOST
  1

  9
$DIMAPOST
  1

  9
$DIMALT
 70
     0
  9
$DIMALTD
 70
     2
  9
$DIMALTF
 40
25.399999999999999
  9
$DIMLFAC
 40
1.0
  9
$DIMTOFL
 70
     1
  9
$DIMTVP
 40
0.0
  9
$DIMTIX
 70
     1
  9
$DIMSOXD
 70
     0
  9
$DIMSAH
 70
     0
  9
$DIMBLK1
  1

  9
$DIMBLK2
  1

  9
$DIMSTYLE
  2
STANDARD
  9
$DIMCLRD
 70
     0
  9
$DIMCLRE
 70
     0
  9
$DIMCLRT
 70
     0
  9
$DIMTFAC
 40
1.0
  9
$DIMGAP
 40
0.09
  9
$LUNITS
 70
     2
  9
$LUPREC
 70
     1
  9
$SKETCHINC
 40
0.1
  9
$FILLETRAD
 40
0.8
  9
$AUNITS
 70
     0
  9
$AUPREC
 70
     0
  9
$MENU
  1
E:\r13\win\SUPPORT\ACAD
  9
$ELEVATION
 40
0.0
  9
$PELEVATION
 40
0.0
  9
$THICKNESS
 40
0.0
  9
$LIMCHECK
 70
     0
  9
$BLIPMODE
 70
     0
  9
$CHAMFERA
 40
0.5
  9
$CHAMFERB
 40
0.5
  9
$SKPOLY
 70
     0
  9
$TDCREATE
 40
2449920.4263670142
  9
$TDUPDATE
 40
2459690.508603924
  9
$TDINDWG
 40
0.0466157639
  9
$TDUSRTIMER
 40
0.0466157639
  9
$USRTIMER
 70
     1
  9
$ANGBASE
 50
0.0
  9
$ANGDIR
 70
     0
  9
$PDMODE
 70
     0
  9
$PDSIZE
 40
0.0
  9
$PLINEWID
 40
0.0
  9
$COORDS
 70
     1
  9
$SPLFRAME
 70
     0
  9
$SPLINETYPE
 70
     6
  9
$SPLINESEGS
 70
     8
  9
$ATTDIA
 70
     0
  9
$ATTREQ
 70
     1
  9
$HANDLING
 70
     1
  9
$HANDSEED
  5
12A7
  9
$SURFTAB1
 70
     6
  9
$SURFTAB2
 70
     6
  9
$SURFTYPE
 70
     6
  9
$SURFU
 70
     6
  9
$SURFV
 70
     6
  9
$UCSNAME
  2

  9
$UCSORG
 10
0.0
 20
0.0
 30
0.0
  9
$UCSXDIR
 10
1.0
 20
0.0
 30
0.0
  9
$UCSYDIR
 10
0.0
 20
1.0
 30
0.0
  9
$PUCSNAME
  2

  9
$PUCSORG
 10
0.0
 20
0.0
 30
0.0
  9
$PUCSXDIR
 10
1.0
 20
0.0
 30
0.0
  9
$PUCSYDIR
 10
0.0
 20
1.0
 30
0.0
  9
$USERI1
 70
     3
  9
$USERI2
 70
     1
  9
$USERI3
 70
     0
  9
$USERI4
 70
     0
  9
$USERI5
 70
     0
  9
$USERR1
 40
1.0
  9
$USERR2
 40
3.0
  9
$USERR3
 40
3.0
  9
$USERR4
 40
3.0
  9
$USERR5
 40
10.0
  9
$WORLDVIEW
 70
     1
  9
$SHADEDGE
 70
     3
  9
$SHADEDIF
 70
    70
  9
$TILEMODE
 70
     1
  9
$MAXACTVP
 70
    16
  9
$PLIMCHECK
 70
     0
  9
$PEXTMIN
 10
1.0000000000000000E+020
 20
1.0000000000000000E+020
 30
1.0000000000000000E+020
  9
$PEXTMAX
 10
-1.0000000000000000E+020
 20
-1.0000000000000000E+020
 30
-1.0000000000000000E+020
  9
$PLIMMIN
 10
0.0
 20
0.0
  9
$PLIMMAX
 10
12.0
 20
9.0
  9
$UNITMODE
 70
     0
  9
$VISRETAIN
 70
     0
  9
$PLINEGEN
 70
     0
  9
$PSLTSCALE
 70
     0
  0
ENDSEC
  0
SECTION
  2
TABLES
  0
TABLE
  2
VPORT
 70
     1
  0
VPORT
  2
*ACTIVE
 70
     0
 10
0.0
 20
0.0
 11
1.0
 21
1.0
 12
241.48802017654481
 22
100.0
 13
0.0
 23
0.0
 14
10.0
 24
10.0
 15
10.0
 25
10.0
 16
0.0
 26
0.0
 36
1.0
 17
0.0
 27
0.0
 37
0.0
 40
200.0
 41
2.4148802017654472
 42
50.0
 43
0.0
 44
0.0
 50
0.0
 51
0.0
 71
     0
 72
   100
 73
     1
 74
     0
 75
     0
 76
     0
 77
     0
 78
     0
  0
ENDTAB
  0
TABLE
  2
LTYPE
 70
     5
  0
LTYPE
  2
CONTINUOUS
 70
     0
  3
Solid Line
 72
    65
 73
     0
 40
0.0
  0
LTYPE
  2
CENTER
 70
     0
  3
____ _ ____ _ ____ _ ____ _ ____ _ ____ _ ____
 72
    65
 73
     4
 40
2.0
 49
1.25
 49
-0.25
 49
0.25
 49
-0.25
  0
LTYPE
  2
HIDDEN
 70
     0
  3
_ _ _ _ _ _ _ _ _ _ _ _ _ _ _ _ _ _ _ _ _ _ _
 72
    65
 73
     2
 40
0.375
 49
0.25
 49
-0.125
  0
LTYPE
  2
PHANTOM
 70
     0
  3
_____ _ _ _____ _ _ _____ _ _ _____ _ _ ____
 72
    65
 73
     6
 40
2.5
 49
1.25
 49
-0.25
 49
0.25
 49
-0.25
 49
0.25
 49
-0.25
  0
LTYPE
  2
PHANTOM2
 70
     0
  3
___ _ _ ___ _ _ ___ _ _ ___ _ _
 72
    65
 73
     6
 40
1.25
 49
0.625
 49
-0.125
 49
0.125
 49
-0.125
 49
0.125
 49
-0.125
  0
ENDTAB
  0
TABLE
  2
LAYER
 70
     5
  0
LAYER
  2
0
 70
     0
 62
     7
  6
CONTINUOUS
  0
LAYER
  2
1
 70
     0
 62
     1
  6
CENTER
  0
LAYER
  2
5
 70
     0
 62
     3
  6
PHANTOM
  0
LAYER
  2
2
 70
     0
 62
     2
  6
HIDDEN
  0
LAYER
  2
DEFPOINTS
 70
     0
 62
     7
  6
CONTINUOUS
  0
ENDTAB
  0
TABLE
  2
STYLE
 70
     2
  0
STYLE
  2
STANDARD
 70
     0
 40
0.0
 41
1.0
 50
0.0
 71
     0
 42
4.0
  3
simplex
  4
bigfont
  0
STYLE
  2
STANDARD1
 70
     0
 40
0.0
 41
1.0
 50
0.0
 71
     0
 42
3.0
  3
txt
  4

  0
ENDTAB
  0
TABLE
  2
VIEW
 70
     0
  0
ENDTAB
  0
TABLE
  2
UCS
 70
     0
  0
ENDTAB
  0
TABLE
  2
APPID
 70
    34
  0
APPID
  2
ACAD
 70
     0
  0
APPID
  2
ACAD_EXEMPT_FROM_CAD_STANDARDS
 70
     0
  0
APPID
  2
ACAD_MLEADERVER
 70
     0
  0
APPID
  2
DCO15
 70
     0
  0
APPID
  2
GENIUS_GENOREF_13
 70
     0
  0
APPID
  2
GENIUS_GENOENT_13
 70
     0
  0
APPID
  2
GENIUS_GENBH_13
 70
     0
  0
APPID
  2
GENIUS_GENOBJ_13
 70
     0
  0
APPID
  2
GENIUS_GENODEF_13
 70
     0
  0
APPID
  2
GENIUS_GENOLIS_13
 70
     0
  0
APPID
  2
GENIUS_GENOBJ-NBEHI-BHF_13
 70
     0
  0
APPID
  2
GENIUS_GENOBJ-NBEHI-BHB_13
 70
     0
  0
APPID
  2
GENIUS_GENOBJ-F-PART_13
 70
     0
  0
APPID
  2
GENIUS_GEFSTDP_13
 70
     0
  0
APPID
  2
GENIUS_GENOBJ-N-RSSYM_13
 70
     0
  0
APPID
  2
GENIUS_GENSYMENT_13
 70
     0
  0
APPID
  2
GENIUS_GENOBJ-N-TIT_13
 70
     0
  0
APPID
  2
GENIUS_GENTITLE_13
 70
     0
  0
APPID
  2
GENIUS_GENZVEED_13
 70
     0
  0
APPID
  2
GENIUS_GENOBJ-N-LEADER_13
 70
     0
  0
APPID
  2
GENIUS_GENOBJ-N-FIL_13
 70
     0
  0
APPID
  2
GENIUS_GENOBJ-N-SEC_13
 70
     0
  0
APPID
  2
GENIUS_GENOBJ-N-CRS_13
 70
     0
  0
APPID
  2
GENIUS_GENOBJ-N-ZOO_13
 70
     0
  0
APPID
  2
GENIUS_GENZOO_13
 70
     0
  0
APPID
  2
GENIUS_GENOBJ-F-TOL_13
 70
     0
  0
APPID
  2
GENIUS_GENFIL_13
 70
     0
  0
APPID
  2
GENIUS_GENOBJ-N-CHA_13
 70
     0
  0
APPID
  2
ACAD_NAV_VCDISPLAY
 70
     0
  0
APPID
  2
GRADIENTCOLOR1ACI
 70
     0
  0
APPID
  2
GRADIENTCOLOR2ACI
 70
     0
  0
APPID
  2
ACAD_DSTYLE_DIMRADIAL_EXTENSION
 70
     0
  0
APPID
  2
ACAD_DSTYLE_DIMJAG
 70
     0
  0
APPID
  2
ACAD_DSTYLE_DIMTALN
 70
     0
  0
ENDTAB
  0
TABLE
  2
DIMSTYLE
 70
     1
  0
DIMSTYLE
  2
STANDARD
 70
     0
  3

  4

  5

  6

  7

 40
1.0
 41
0.18
 42
0.0625
 43
0.38
 44
0.18
 45
0.0
 46
0.0
 47
0.0
 48
0.0
140
0.18
141
0.09
142
0.0
143
25.399999999999999
144
1.0
145
0.0
146
1.0
147
0.09
 71
     0
 72
     0
 73
     1
 74
     1
 75
     0
 76
     0
 77
     0
 78
     0
170
     0
171
     2
172
     0
173
     0
174
     0
175
     0
176
     0
177
     0
178
     0
  0
ENDTAB
  0
ENDSEC
  0
SECTION
  2
BLOCKS
  0
BLOCK
  8
0
  2
$MODEL_SPACE
 70
     0
 10
0.0
 20
0.0
 30
0.0
  3
$MODEL_SPACE
  1

  0
ENDBLK
  5
142
  8
0
  0
BLOCK
 67
     1
  8
0
  2
$PAPER_SPACE
 70
     0
 10
0.0
 20
0.0
 30
0.0
  3
$PAPER_SPACE
  1

  0
ENDBLK
  5
140
 67
     1
  8
0
  0
ENDSEC
  0
SECTION
  2
ENTITIES
  0
ARC
  5
2A1
  8
2
 10
212.6560554576368
 20
62.075335569819323
 30
0.0
 40
1.0
 50
0.0
 51
90.0
  0
ARC
  5
2A2
  8
2
 10
212.6560554576368
 20
54.075335569819742
 30
0.0
 40
1.0
 50
270.0
 51
0.0
  0
LINE
  5
2A3
  8
1
 10
212.68625363908859
 20
58.075335569819508
 30
0.0
 11
203.6258572761852
 21
58.075335569819508
 31
0.0
  0
LINE
  5
2A7
  8
2
 10
203.6560554576368
 20
63.075335569819309
 30
0.0
 11
212.6560554576368
 21
63.075335569819309
 31
0.0
  0
ARC
  5
2A8
  8
2
 10
203.6560554576368
 20
62.075335569819323
 30
0.0
 40
1.0
 50
90.0
 51
180.0
  0
ARC
  5
2A9
  8
2
 10
203.6560554576368
 20
54.075335569819742
 30
0.0
 40
1.0
 50
180.0
 51
270.0
  0
LINE
  5
2AA
  8
2
 10
202.65605545763691
 20
54.075335569819742
 30
0.0
 11
202.65605545763691
 21
87.075335569820453
 31
0.0
  0
LINE
  5
2AB
  8
2
 10
213.65605545763691
 20
87.075335569820453
 30
0.0
 11
213.65605545763691
 21
54.075335569819742
 31
0.0
  0
ARC
  5
2AC
  8
2
 10
203.6560554576368
 20
87.075335569820453
 30
0.0
 40
1.0
 50
90.0
 51
180.0
  0
ARC
  5
2AD
  8
2
 10
212.6560554576368
 20
87.075335569820453
 30
0.0
 40
1.0
 50
0.0
 51
90.0
  0
ARC
  5
2AE
  8
2
 10
212.6560554576368
 20
79.075335569820865
 30
0.0
 40
1.0
 50
270.0
 51
0.0
  0
ARC
  5
2AF
  8
2
 10
203.6560554576368
 20
79.075335569820865
 30
0.0
 40
1.0
 50
180.0
 51
270.0
  0
LINE
  5
2B0
  8
2
 10
203.6560554576368
 20
78.075335569820879
 30
0.0
 11
212.6560554576368
 21
78.075335569820879
 31
0.0
  0
LINE
  5
2B8
  8
1
 10
212.68625363908859
 20
83.07533556982068
 30
0.0
 11
203.6258572761852
 21
83.07533556982068
 31
0.0
  0
LINE
  5
2D1
  8
2
 10
202.20605545763641
 20
53.075335569820098
 30
0.0
 11
214.10605545763619
 21
53.075335569820112
 31
0.0
  0
LINE
  5
2D2
  8
2
 10
202.20605545763641
 20
88.075335569820083
 30
0.0
 11
214.10605545763619
 21
88.075335569820083
 31
0.0
  0
LINE
  5
2D4
  8
1
 10
216.2583554501835
 20
27.770335569820141
 30
0.0
 11
200.05375546509021
 21
27.770335569820141
 31
0.0
  0
LINE
  5
2D9
  8
1
 10
216.2583554501835
 20
113.3803355698201
 30
0.0
 11
200.05375546509021
 21
113.3803355698201
 31
0.0
  0
LINE
  5
2DB
  8
0
 10
214.1060554576365
 20
33.575328692776182
 30
0.0
 11
214.10605545763619
 21
107.5753424468634
 31
0.0
  0
LINE
  5
2DC
  8
0
 10
202.20605545763641
 20
107.5753382672184
 30
0.0
 11
202.2060554576374
 21
33.57532869277636
 31
0.0
  0
LINE
  5
2DD
  8
1
 10
208.1560554576368
 20
19.07533556982008
 30
0.0
 11
208.1560554576368
 21
122.07533556982
 31
0.0
  0
LINE
  5
2DE
  8
1
 10
219.1060554576363
 20
70.575335569820112
 30
0.0
 11
197.20605545763689
 21
70.575335569820112
 31
0.0
  0
TEXT
  5
40D
  8
0
 62
     3
 10
0.0
 20
0.0
 30
0.0
 40
10.0
  1
SIS614
  7
STANDARD1
  0
ARC
  5
1106
  8
0
 10
83.705448203539845
 20
112.37317923491059
 30
0.0
 40
10.00963419551986
 50
152.1870784261003
 51
170.4499524725629
  0
ARC
  5
1107
  8
0
 10
58.499228465908111
 20
116.6138911784667
 30
0.0
 40
15.55082650553155
 50
333.57167263507972
 51
350.44995247256622
  0
LINE
  5
1108
  8
1
 10
76.571582508007396
 20
122.07533556982
 30
0.0
 11
76.571582508007396
 21
19.07533556982008
 31
0.0
  0
LINE
  5
1109
  8
1
 10
25.071582508007399
 20
70.575335569820027
 30
0.0
 11
128.0715825080074
 21
70.575335569820027
 31
0.0
  0
ARC
  5
110F
  8
0
 10
222.50605545763619
 20
107.57533556982
 30
0.0
 40
20.300000000000001
 50
152.09672717582851
 51
179.9999923867214
  0
ARC
  5
1110
  8
0
 10
193.8060554576376
 20
107.57533556982
 30
0.0
 40
20.300000000000001
 50
0.000019410127487
 51
27.903272824171449
  0
ARC
  5
1111
  8
0
 10
193.8060554576376
 20
33.575335569820027
 30
0.0
 40
20.300000000000001
 50
332.09672717582862
 51
359.99998058987251
  0
ARC
  5
1112
  8
0
 10
222.5060554576352
 20
33.575335569819778
 30
0.0
 40
20.29999999999902
 50
180.0000194101263
 51
207.90327282417209
  0
CIRCLE
  5
115C
  8
5
 10
76.571582508007396
 20
70.575335569820083
 30
0.0
 40
42.804999999999993
  0
CIRCLE
  5
115D
  8
0
 10
76.571582508007396
 20
70.575335569820027
 30
0.0
 40
7.5000000000000284
  0
CIRCLE
  5
115E
  8
0
 10
76.571582508007396
 20
70.575335569820027
 30
0.0
 40
17.500000000000011
  0
ARC
  5
115F
  8
0
 10
119.4443325080077
 20
70.575335571957964
 30
0.0
 40
6.0228000000000002
 50
129.28547667131571
 51
230.71453262373529
  0
ARC
  5
1160
  8
0
 10
125.47733250838471
 20
63.200635572258761
 30
0.0
 40
15.55082650553156
 50
112.4071903902921
 51
129.28547202664521
  0
ARC
  5
1161
  8
0
 10
115.73403250720639
 20
86.831235571772766
 30
0.0
 40
10.00963419551986
 50
292.4071903902921
 51
310.67006443675979
  0
ARC
  5
1162
  8
0
 10
115.1985955384435
 20
89.177124647998653
 30
0.0
 40
6.0228000000000002
 50
154.99976238560319
 51
256.4288183380225
  0
ARC
  5
1163
  8
0
 10
117.434378307175
 20
98.439120356330363
 30
0.0
 40
15.55082650553155
 50
256.42881549222318
 51
273.30709532970872
  0
ARC
  5
1164
  8
0
 10
118.9089014234051
 20
72.921225991205006
 30
0.0
 40
10.00963419551986
 50
75.044221283243047
 51
93.307095329708716
  0
ARC
  5
1165
  8
0
 10
123.8339031295782
 20
85.150370136409492
 30
0.0
 40
15.55082650553156
 50
138.12147610457649
 51
154.99975774093369
  0
ARC
  5
1166
  8
0
 10
104.8025600725024
 20
102.2133456299711
 30
0.0
 40
10.00963419551986
 50
318.12147610457652
 51
336.38435015104312
  0
ARC
  5
1167
  8
0
 10
103.3023049089751
 20
104.0946012611345
 30
0.0
 40
6.0228000000000002
 50
180.7140480998857
 51
282.14310405230759
  0
ARC
  5
1168
  8
0
 10
101.2980462493731
 20
113.40944083653901
 30
0.0
 40
15.55082650553155
 50
282.14310120650862
 51
299.02138104399381
  0
ARC
  5
1169
  8
0
 10
113.6983450936464
 20
91.058384042223736
 30
0.0
 40
10.00963419551986
 50
100.75850699752711
 51
119.0213810439937
  0
ARC
  5
116A
  8
0
 10
112.8295915173457
 20
104.2133403535788
 30
0.0
 40
15.55082650553156
 50
163.83576181886349
 51
180.71404345521901
  0
ARC
  5
116B
  8
0
 10
88.279596300931743
 20
111.3291597810267
 30
0.0
 40
10.00963419551986
 50
343.8357618188636
 51
2.0986358653282728
  0
ARC
  5
116C
  8
0
 10
86.111666877198715
 20
112.3731762172893
 30
0.0
 40
6.0228000000000002
 50
206.42833381417401
 51
307.85738976659098
  0
ARC
  5
116D
  8
0
 10
80.26433479741678
 20
119.8959414428474
 30
0.0
 40
15.55082650553155
 50
307.85738692079292
 51
324.73566675828027
  0
ARC
  5
116E
  8
0
 10
101.1343781039397
 20
105.1386231351788
 30
0.0
 40
10.00963419551986
 50
126.4727927118133
 51
144.7356667582799
  0
ARC
  5
116F
  8
0
 10
94.643936545515089
 20
116.61389118026911
 30
0.0
 40
15.55082650553156
 50
189.55004753314731
 51
206.42832916950371
  0
ARC
  5
1170
  8
0
 10
69.437716808306334
 20
112.3731792341991
 30
0.0
 40
10.00963419551986
 50
9.5500475331473584
 51
27.81292157961456
  0
ARC
  5
1174
  8
0
 10
52.008786912075038
 20
105.1386231351788
 30
0.0
 40
10.00963419551986
 50
35.264333241720102
 51
53.527207288186688
  0
ARC
  5
1175
  8
0
 10
64.863568715083034
 20
111.3291597810267
 30
0.0
 40
10.00963419551986
 50
177.9013641346717
 51
196.1642381811364
  0
ARC
  5
1176
  8
0
 10
40.313573498669079
 20
104.2133403535788
 30
0.0
 40
15.55082650553156
 50
359.28595654478102
 51
16.16423818113644
  0
ARC
  5
1177
  8
0
 10
39.444819922368367
 20
91.058384042223736
 30
0.0
 40
10.00963419551986
 50
60.978618956006223
 51
79.241493002472879
  0
ARC
  5
1178
  8
0
 10
51.84511876664169
 20
113.40944083653901
 30
0.0
 40
15.55082650553155
 50
240.9786189560061
 51
257.85689879349138
  0
ARC
  5
1179
  8
0
 10
49.840860107039703
 20
104.0946012611345
 30
0.0
 40
6.0228000000000002
 50
257.85689594769229
 51
359.2859519001143
  0
ARC
  5
117A
  8
0
 10
48.340604943512403
 20
102.2133456299711
 30
0.0
 40
10.00963419551986
 50
203.61564984895691
 51
221.87852389542351
  0
ARC
  5
117B
  8
0
 10
29.309261886436619
 20
85.150370136409492
 30
0.0
 40
15.55082650553156
 50
25.000242259066258
 51
41.87852389542352
  0
ARC
  5
117C
  8
0
 10
34.234263592609643
 20
72.921225991205006
 30
0.0
 40
10.00963419551986
 50
86.692904670291256
 51
104.9557787167569
  0
ARC
  5
117D
  8
0
 10
35.708786708839803
 20
98.439120356330363
 30
0.0
 40
15.55082650553155
 50
266.69290467029128
 51
283.57118450777671
  0
ARC
  5
117E
  8
0
 10
37.944569477571292
 20
89.177124647998653
 30
0.0
 40
6.0228000000000002
 50
283.5711816619775
 51
25.000237614396799
  0
ARC
  5
117F
  8
0
 10
37.409132508808398
 20
86.831235571772766
 30
0.0
 40
10.00963419551986
 50
229.3299355632401
 51
247.5928096097079
  0
ARC
  5
1180
  8
0
 10
27.66583250763011
 20
63.200635572258761
 30
0.0
 40
15.55082650553156
 50
50.714527973354741
 51
67.592809609707842
  0
ARC
  5
1181
  8
0
 10
33.698832508007058
 20
70.575335571957964
 30
0.0
 40
6.0228000000000002
 50
309.28546737626459
 51
50.714523328684301
  0
ARC
  5
1182
  8
0
 10
67.031498138816062
 20
112.3731762172893
 30
0.0
 40
6.0228000000000002
 50
232.14261023340879
 51
333.57166618582602
  0
ARC
  5
1183
  8
0
 10
72.878830218598011
 20
119.8959414428474
 30
0.0
 40
15.55082650553155
 50
215.26433324172001
 51
232.14261307920711
  0
ARC
  5
1184
  8
0
 10
72.878830218598011
 20
21.254729696792769
 30
0.0
 40
15.55082650553155
 50
127.85738692079281
 51
144.73566675827999
  0
ARC
  5
1185
  8
0
 10
67.031498138816062
 20
28.777494922350801
 30
0.0
 40
6.0228000000000002
 50
26.428333814174021
 51
127.8573897665911
  0
ARC
  5
1186
  8
0
 10
27.66583250763011
 20
77.950035567381349
 30
0.0
 40
15.55082650553156
 50
292.4071903902921
 51
309.28547202664532
  0
ARC
  5
1187
  8
0
 10
37.409132508808398
 20
54.319435567867338
 30
0.0
 40
10.00963419551986
 50
112.4071903902921
 51
130.6700644367599
  0
ARC
  5
1188
  8
0
 10
37.944569477571292
 20
51.973546491641507
 30
0.0
 40
6.0228000000000002
 50
334.99976238560322
 51
76.428818338022495
  0
ARC
  5
1189
  8
0
 10
35.708786708839803
 20
42.71155078330974
 30
0.0
 40
15.55082650553155
 50
76.428815492223293
 51
93.307095329708716
  0
ARC
  5
118A
  8
0
 10
34.234263592609643
 20
68.229445148435104
 30
0.0
 40
10.00963419551986
 50
255.0442212832431
 51
273.30709532970872
  0
ARC
  5
118B
  8
0
 10
29.309261886436619
 20
56.000301003230668
 30
0.0
 40
15.55082650553156
 50
318.12147610457652
 51
334.99975774093372
  0
ARC
  5
118C
  8
0
 10
48.340604943512403
 20
38.937325509669002
 30
0.0
 40
10.00963419551986
 50
138.1214761045764
 51
156.38435015104309
  0
ARC
  5
118D
  8
0
 10
49.840860107039703
 20
37.056069878505703
 30
0.0
 40
6.0228000000000002
 50
0.7140480998857015
 51
102.14310405230771
  0
ARC
  5
118E
  8
0
 10
51.84511876664169
 20
27.74123030310113
 30
0.0
 40
15.55082650553155
 50
102.1431012065086
 51
119.0213810439938
  0
ARC
  5
118F
  8
0
 10
39.444819922368367
 20
50.092287097416431
 30
0.0
 40
10.00963419551986
 50
280.75850699752709
 51
299.02138104399381
  0
ARC
  5
1190
  8
0
 10
40.313573498669079
 20
36.937330786061352
 30
0.0
 40
15.55082650553156
 50
343.8357618188636
 51
0.7140434552190237
  0
ARC
  5
1191
  8
0
 10
64.863568715083034
 20
29.82151135861341
 30
0.0
 40
10.00963419551986
 50
163.83576181886349
 51
182.09863586532819
  0
ARC
  5
1192
  8
0
 10
52.008786912075038
 20
36.012048004461242
 30
0.0
 40
10.00963419551986
 50
306.47279271181333
 51
324.73566675827999
  0
ARC
  5
1193
  8
0
 10
69.437716808306334
 20
28.777491905441028
 30
0.0
 40
10.00963419551986
 50
332.18707842038538
 51
350.44995246685272
  0
ARC
  5
1194
  8
0
 10
94.643936545515089
 20
24.536779959371021
 30
0.0
 40
15.55082650553156
 50
153.57167083049629
 51
170.44995246685261
  0
ARC
  5
1195
  8
0
 10
101.1343781039397
 20
36.012048004461242
 30
0.0
 40
10.00963419551986
 50
215.2643332417201
 51
233.5272072881867
  0
ARC
  5
1196
  8
0
 10
80.26433479741678
 20
21.254729696792769
 30
0.0
 40
15.55082650553155
 50
35.264333241719669
 51
52.142613079207102
  0
ARC
  5
1197
  8
0
 10
86.111666877198715
 20
28.777494922350801
 30
0.0
 40
6.0228000000000002
 50
52.142610233408867
 51
153.57166618582599
  0
ARC
  5
1198
  8
0
 10
88.279596300931743
 20
29.82151135861341
 30
0.0
 40
10.00963419551986
 50
357.90136413466848
 51
16.16423818113644
  0
ARC
  5
1199
  8
0
 10
112.8295915173457
 20
36.937330786061352
 30
0.0
 40
15.55082650553156
 50
179.28595654478099
 51
196.1642381811364
  0
ARC
  5
119A
  8
0
 10
113.6983450936464
 20
50.092287097416431
 30
0.0
 40
10.00963419551986
 50
240.97861895600619
 51
259.24149300247279
  0
ARC
  5
119B
  8
0
 10
101.2980462493731
 20
27.74123030310113
 30
0.0
 40
15.55082650553155
 50
60.978618956006159
 51
77.856898793491382
  0
ARC
  5
119C
  8
0
 10
103.3023049089751
 20
37.056069878505703
 30
0.0
 40
6.0228000000000002
 50
77.856895947692294
 51
179.2859519001143
  0
ARC
  5
119D
  8
0
 10
104.8025600725024
 20
38.937325509669002
 30
0.0
 40
10.00963419551986
 50
23.615649848956881
 51
41.87852389542352
  0
ARC
  5
119E
  8
0
 10
123.8339031295782
 20
56.000301003230668
 30
0.0
 40
15.55082650553156
 50
205.00024225906631
 51
221.87852389542351
  0
ARC
  5
119F
  8
0
 10
118.9089014234051
 20
68.229445148435104
 30
0.0
 40
10.00963419551986
 50
266.69290467029128
 51
284.95577871675692
  0
ARC
  5
11A0
  8
0
 10
117.434378307175
 20
42.71155078330974
 30
0.0
 40
15.55082650553155
 50
86.692904670291256
 51
103.57118450777671
  0
ARC
  5
11A1
  8
0
 10
115.1985955384435
 20
51.973546491641507
 30
0.0
 40
6.0228000000000002
 50
103.5711816619775
 51
205.00023761439681
  0
ARC
  5
11A2
  8
0
 10
115.73403250720639
 20
54.319435567867338
 30
0.0
 40
10.00963419551986
 50
49.329935563240099
 51
67.592809609707842
  0
ARC
  5
11A3
  8
0
 10
125.47733250838471
 20
77.950035567381349
 30
0.0
 40
15.55082650553156
 50
230.71452797335471
 51
247.5928096097079
  0
ARC
  5
11A4
  8
0
 10
58.499228465908111
 20
24.536779961173409
 30
0.0
 40
15.55082650553155
 50
9.5500475274337582
 51
26.42832736492025
  0
ARC
  5
11A5
  8
0
 10
83.705448203539845
 20
28.777491904729569
 30
0.0
 40
10.00963419551986
 50
189.55004752743699
 51
207.8129215738997
  0
ARC
  5
120C
  8
0
 10
76.571582508007396
 20
70.575335569820027
 30
0.0
 40
46.5
 50
87.880912163988455
 51
92.119087841724792
  0
ARC
  5
120D
  8
0
 10
76.571582508007396
 20
70.575335569820027
 30
0.0
 40
46.5
 50
113.595197872559
 51
117.83337355029769
  0
ARC
  5
120E
  8
0
 10
76.571582508007396
 20
70.575335569820027
 30
0.0
 40
46.5
 50
139.30948358684651
 51
143.5476592645839
  0
ARC
  5
120F
  8
0
 10
76.571582508007396
 20
70.575335569820027
 30
0.0
 40
46.5
 50
165.02376930113209
 51
169.26194497886689
  0
ARC
  5
1210
  8
0
 10
76.571582508007396
 20
70.575335569820027
 30
0.0
 40
46.5
 50
190.73805502113299
 51
194.97623069886779
  0
ARC
  5
1211
  8
0
 10
76.571582508007396
 20
70.575335569820027
 30
0.0
 40
46.5
 50
216.4523407354161
 51
220.6905164131534
  0
ARC
  5
1212
  8
0
 10
76.571582508007396
 20
70.575335569820027
 30
0.0
 40
46.5
 50
242.16662644970231
 51
246.40480212744089
  0
ARC
  5
1213
  8
0
 10
76.571582508007396
 20
70.575335569820027
 30
0.0
 40
46.5
 50
267.88091215827518
 51
272.11908783601149
  0
ARC
  5
1214
  8
0
 10
76.571582508007396
 20
70.575335569820027
 30
0.0
 40
46.5
 50
293.59519787255903
 51
297.83337355029772
  0
ARC
  5
1215
  8
0
 10
76.571582508007396
 20
70.575335569820027
 30
0.0
 40
46.5
 50
319.30948358684662
 51
323.54765926458401
  0
ARC
  5
1216
  8
0
 10
76.571582508007396
 20
70.575335569820027
 30
0.0
 40
46.5
 50
345.02376930113218
 51
349.26194497886701
  0
ARC
  5
1217
  8
0
 10
76.571582508007396
 20
70.575335569820027
 30
0.0
 40
46.5
 50
10.738055021133031
 51
14.976230698867839
  0
ARC
  5
1218
  8
0
 10
76.571582508007396
 20
70.575335569820027
 30
0.0
 40
46.5
 50
36.452340735416058
 51
40.690516413153432
  0
ARC
  5
1219
  8
0
 10
76.571582508007396
 20
70.575335569820027
 30
0.0
 40
46.5
 50
62.166626449702292
 51
66.404802127440973
  0
LINE
  5
121A
  8
0
 10
204.5661557923649
 20
117.07533556982
 30
0.0
 11
211.7459551229089
 21
117.07533556982
 31
0.0
  0
LINE
  5
121B
  8
0
 10
204.5661557923649
 20
24.07533556982008
 30
0.0
 11
211.7459551229089
 21
24.07533556982008
 31
0.0
  0
ENDSEC
  0
EOF
