  0
SECTION
  2
HEADER
  9
$ACADVER
  1
AC1009
  9
$INSBASE
 10
0.0
 20
0.0
 30
0.0
  9
$EXTMIN
 10
0.0
 20
-2.960436562073669
 30
0.0
  9
$EXTMAX
 10
254.9475232904168
 20
158.8229954958702
 30
0.0
  9
$LIMMIN
 10
0.0
 20
0.0
  9
$LIMMAX
 10
385.0
 20
270.0
  9
$ORTHOMODE
 70
     1
  9
$REGENMODE
 70
     1
  9
$FILLMODE
 70
     1
  9
$QTEXTMODE
 70
     0
  9
$MIRRTEXT
 70
     0
  9
$DRAGMODE
 70
     2
  9
$LTSCALE
 40
10.0
  9
$OSMODE
 70
    55
  9
$ATTMODE
 70
     1
  9
$TEXTSIZE
 40
4.0
  9
$TRACEWID
 40
0.05
  9
$TEXTSTYLE
  7
STANDARD
  9
$CLAYER
  8
0
  9
$CELTYPE
  6
BYLAYER
  9
$CECOLOR
 62
   256
  9
$DIMSCALE
 40
1.0
  9
$DIMASZ
 40
3.0
  9
$DIMEXO
 40
1.0
  9
$DIMDLI
 40
6.0
  9
$DIMRND
 40
0.0
  9
$DIMDLE
 40
0.0
  9
$DIMEXE
 40
1.0
  9
$DIMTP
 40
495.0
  9
$DIMTM
 40
0.0
  9
$DIMTXT
 40
3.0
  9
$DIMCEN
 40
0.0
  9
$DIMTSZ
 40
0.0
  9
$DIMTOL
 70
     0
  9
$DIMLIM
 70
     0
  9
$DIMTIH
 70
     0
  9
$DIMTOH
 70
     0
  9
$DIMSE1
 70
     0
  9
$DIMSE2
 70
     0
  9
$DIMTAD
 70
     1
  9
$DIMZIN
 70
     0
  9
$DIMBLK
  1

  9
$DIMASO
 70
     0
  9
$DIMSHO
 70
     0
  9
$DIMPOST
  1

  9
$DIMAPOST
  1

  9
$DIMALT
 70
     0
  9
$DIMALTD
 70
     2
  9
$DIMALTF
 40
25.399999999999999
  9
$DIMLFAC
 40
1.0
  9
$DIMTOFL
 70
     1
  9
$DIMTVP
 40
0.0
  9
$DIMTIX
 70
     1
  9
$DIMSOXD
 70
     0
  9
$DIMSAH
 70
     0
  9
$DIMBLK1
  1

  9
$DIMBLK2
  1

  9
$DIMSTYLE
  2
STANDARD
  9
$DIMCLRD
 70
     0
  9
$DIMCLRE
 70
     0
  9
$DIMCLRT
 70
     0
  9
$DIMTFAC
 40
1.0
  9
$DIMGAP
 40
0.09
  9
$LUNITS
 70
     2
  9
$LUPREC
 70
     4
  9
$SKETCHINC
 40
0.1
  9
$FILLETRAD
 40
0.8
  9
$AUNITS
 70
     0
  9
$AUPREC
 70
     0
  9
$MENU
  1
E:\r13\win\SUPPORT\ACAD
  9
$ELEVATION
 40
0.0
  9
$PELEVATION
 40
0.0
  9
$THICKNESS
 40
0.0
  9
$LIMCHECK
 70
     0
  9
$BLIPMODE
 70
     0
  9
$CHAMFERA
 40
0.5
  9
$CHAMFERB
 40
0.5
  9
$SKPOLY
 70
     0
  9
$TDCREATE
 40
2449920.4263670142
  9
$TDUPDATE
 40
2456598.5013907761
  9
$TDINDWG
 40
0.0507746528
  9
$TDUSRTIMER
 40
0.0507746528
  9
$USRTIMER
 70
     1
  9
$ANGBASE
 50
0.0
  9
$ANGDIR
 70
     0
  9
$PDMODE
 70
     0
  9
$PDSIZE
 40
0.0
  9
$PLINEWID
 40
0.0
  9
$COORDS
 70
     1
  9
$SPLFRAME
 70
     0
  9
$SPLINETYPE
 70
     6
  9
$SPLINESEGS
 70
     8
  9
$ATTDIA
 70
     0
  9
$ATTREQ
 70
     1
  9
$HANDLING
 70
     1
  9
$HANDSEED
  5
32B
  9
$SURFTAB1
 70
     6
  9
$SURFTAB2
 70
     6
  9
$SURFTYPE
 70
     6
  9
$SURFU
 70
     6
  9
$SURFV
 70
     6
  9
$UCSNAME
  2

  9
$UCSORG
 10
0.0
 20
0.0
 30
0.0
  9
$UCSXDIR
 10
1.0
 20
0.0
 30
0.0
  9
$UCSYDIR
 10
0.0
 20
1.0
 30
0.0
  9
$PUCSNAME
  2

  9
$PUCSORG
 10
0.0
 20
0.0
 30
0.0
  9
$PUCSXDIR
 10
1.0
 20
0.0
 30
0.0
  9
$PUCSYDIR
 10
0.0
 20
1.0
 30
0.0
  9
$USERI1
 70
     3
  9
$USERI2
 70
     1
  9
$USERI3
 70
     0
  9
$USERI4
 70
     0
  9
$USERI5
 70
     0
  9
$USERR1
 40
1.0
  9
$USERR2
 40
3.0
  9
$USERR3
 40
3.0
  9
$USERR4
 40
3.0
  9
$USERR5
 40
10.0
  9
$WORLDVIEW
 70
     1
  9
$SHADEDGE
 70
     3
  9
$SHADEDIF
 70
    70
  9
$TILEMODE
 70
     1
  9
$MAXACTVP
 70
    16
  9
$PLIMCHECK
 70
     0
  9
$PEXTMIN
 10
1.0000000000000000E+020
 20
1.0000000000000000E+020
 30
1.0000000000000000E+020
  9
$PEXTMAX
 10
-1.0000000000000000E+020
 20
-1.0000000000000000E+020
 30
-1.0000000000000000E+020
  9
$PLIMMIN
 10
0.0
 20
0.0
  9
$PLIMMAX
 10
12.0
 20
9.0
  9
$UNITMODE
 70
     0
  9
$VISRETAIN
 70
     0
  9
$PLINEGEN
 70
     0
  9
$PSLTSCALE
 70
     0
  0
ENDSEC
  0
SECTION
  2
TABLES
  0
TABLE
  2
VPORT
 70
     1
  0
VPORT
  2
*ACTIVE
 70
     0
 10
0.0
 20
0.0
 11
1.0
 21
1.0
 12
192.49412581440311
 22
174.91677254346851
 13
0.0
 23
0.0
 14
10.0
 24
10.0
 15
10.0
 25
10.0
 16
0.0
 26
0.0
 36
1.0
 17
0.0
 27
0.0
 37
0.0
 40
358.92027899574339
 41
1.7807262569832401
 42
50.0
 43
0.0
 44
0.0
 50
0.0
 51
0.0
 71
     0
 72
   100
 73
     1
 74
     0
 75
     0
 76
     0
 77
     0
 78
     0
  0
ENDTAB
  0
TABLE
  2
LTYPE
 70
     5
  0
LTYPE
  2
CONTINUOUS
 70
     0
  3
Solid Line
 72
    65
 73
     0
 40
0.0
  0
LTYPE
  2
CENTER
 70
     0
  3
____ _ ____ _ ____ _ ____ _ ____ _ ____ _ ____
 72
    65
 73
     4
 40
2.0
 49
1.25
 49
-0.25
 49
0.25
 49
-0.25
  0
LTYPE
  2
HIDDEN
 70
     0
  3
_ _ _ _ _ _ _ _ _ _ _ _ _ _ _ _ _ _ _ _ _ _ _
 72
    65
 73
     2
 40
0.375
 49
0.25
 49
-0.125
  0
LTYPE
  2
PHANTOM
 70
     0
  3
_____ _ _ _____ _ _ _____ _ _ _____ _ _ ____
 72
    65
 73
     6
 40
2.5
 49
1.25
 49
-0.25
 49
0.25
 49
-0.25
 49
0.25
 49
-0.25
  0
LTYPE
  2
PHANTOM2
 70
     0
  3
___ _ _ ___ _ _ ___ _ _ ___ _ _
 72
    65
 73
     6
 40
1.25
 49
0.625
 49
-0.125
 49
0.125
 49
-0.125
 49
0.125
 49
-0.125
  0
ENDTAB
  0
TABLE
  2
LAYER
 70
     4
  0
LAYER
  2
0
 70
     0
 62
     7
  6
CONTINUOUS
  0
LAYER
  2
1
 70
     0
 62
     1
  6
CENTER
  0
LAYER
  2
2
 70
     0
 62
     2
  6
HIDDEN
  0
LAYER
  2
5
 70
     0
 62
     3
  6
PHANTOM
  0
ENDTAB
  0
TABLE
  2
STYLE
 70
     2
  0
STYLE
  2
STANDARD
 70
     0
 40
0.0
 41
1.0
 50
0.0
 71
     0
 42
4.0
  3
simplex
  4
bigfont
  0
STYLE
  2
STANDARD1
 70
     0
 40
0.0
 41
1.0
 50
0.0
 71
     0
 42
3.0
  3
txt
  4

  0
ENDTAB
  0
TABLE
  2
VIEW
 70
     0
  0
ENDTAB
  0
TABLE
  2
UCS
 70
     0
  0
ENDTAB
  0
TABLE
  2
APPID
 70
     4
  0
APPID
  2
ACAD
 70
     0
  0
APPID
  2
ACAD_EXEMPT_FROM_CAD_STANDARDS
 70
     0
  0
APPID
  2
ACAD_MLEADERVER
 70
     0
  0
APPID
  2
ACAD_NAV_VCDISPLAY
 70
     0
  0
ENDTAB
  0
TABLE
  2
DIMSTYLE
 70
     1
  0
DIMSTYLE
  2
STANDARD
 70
     0
  3

  4

  5

  6

  7

 40
1.0
 41
0.18
 42
0.0625
 43
0.38
 44
0.18
 45
0.0
 46
0.0
 47
0.0
 48
0.0
140
0.18
141
0.09
142
0.0
143
25.399999999999999
144
1.0
145
0.0
146
1.0
147
0.09
 71
     0
 72
     0
 73
     1
 74
     1
 75
     0
 76
     0
 77
     0
 78
     0
170
     0
171
     2
172
     0
173
     0
174
     0
175
     0
176
     0
177
     0
178
     0
  0
ENDTAB
  0
ENDSEC
  0
SECTION
  2
BLOCKS
  0
BLOCK
  8
0
  2
$MODEL_SPACE
 70
     0
 10
0.0
 20
0.0
 30
0.0
  3
$MODEL_SPACE
  1

  0
ENDBLK
  5
12E
  8
0
  0
BLOCK
 67
     1
  8
0
  2
$PAPER_SPACE
 70
     0
 10
0.0
 20
0.0
 30
0.0
  3
$PAPER_SPACE
  1

  0
ENDBLK
  5
12C
 67
     1
  8
0
  0
ENDSEC
  0
SECTION
  2
ENTITIES
  0
LINE
  5
1D
  8
1
 10
99.795276776587883
 20
158.82299289503061
 30
0.0
 11
99.795276776587883
 21
30.822992895030598
 31
0.0
  0
CIRCLE
  5
20
  8
5
 10
99.795276776587883
 20
94.822992895030595
 30
0.0
 40
49.069999999999958
  0
CIRCLE
  5
23
  8
0
 10
99.795276776587883
 20
94.822992895030595
 30
0.0
 40
10.000000000000011
  0
CIRCLE
  5
24
  8
0
 10
99.795276776587883
 20
94.822992895030595
 30
0.0
 40
23.500000000000011
  0
ARC
  5
25
  8
0
 10
99.795276776587883
 20
94.822992895030595
 30
0.0
 40
54.0
 50
177.58817820607959
 51
182.41182179392041
  0
ARC
  5
26
  8
0
 10
99.795276776587883
 20
94.822992895030595
 30
0.0
 40
54.0
 50
357.58817820607948
 51
2.411821793920327
  0
ARC
  5
27
  8
0
 10
52.323161673415647
 20
82.102877990138296
 30
0.0
 40
8.0176999999999996
 50
325.00017346851291
 51
64.999826531487273
  0
ARC
  5
28
  8
0
 10
66.1504643762797
 20
47.415336948419792
 30
0.0
 40
20.721694932313149
 50
94.99982653148723
 51
110.95992768981669
  0
LINE
  5
29
  8
1
 10
163.7952767765878
 20
94.822992895030595
 30
0.0
 11
35.795276776587883
 21
94.822992895030595
 31
0.0
  0
ARC
  5
2A
  8
0
 10
41.916636192796403
 20
89.389558624107408
 30
0.0
 40
20.721694932313149
 50
309.04007231018602
 51
325.00017346851291
  0
ARC
  5
2B
  8
0
 10
63.439205054518247
 20
62.849374500919851
 30
0.0
 40
13.44850178500571
 50
129.04007231018591
 51
148.80587836841261
  0
ARC
  5
2C
  8
0
 10
99.795276776587926
 20
94.822992895030595
 30
0.0
 40
54.0
 50
207.58817820607959
 51
212.41182179392041
  0
ARC
  5
2D
  8
0
 10
53.927275135343727
 20
79.324520398964594
 30
0.0
 40
13.44850178500573
 50
271.19412163158751
 51
290.9599276898133
  0
ARC
  5
2E
  8
0
 10
52.323185886411117
 20
104.3349228142051
 30
0.0
 40
13.44850178500573
 50
241.19412163158751
 51
260.9599276898133
  0
ARC
  5
2F
  8
0
 10
46.954186559053909
 20
70.589164711547312
 30
0.0
 40
20.721694932313149
 50
64.999826531487216
 51
80.959927689816794
  0
ARC
  5
30
  8
0
 10
131.76889517069861
 20
58.46692117296093
 30
0.0
 40
13.44850178500571
 50
219.04007231018591
 51
238.80587836841261
  0
ARC
  5
31
  8
0
 10
112.5153916814802
 20
47.350877791858352
 30
0.0
 40
8.0176999999999996
 50
55.00017346851287
 51
154.9998265314872
  0
ARC
  5
32
  8
0
 10
105.2287110475111
 20
36.944352311239101
 30
0.0
 40
20.721694932313149
 50
39.040072310185991
 51
55.00017346851287
  0
ARC
  5
33
  8
0
 10
84.296804280521854
 20
48.95499125378646
 30
0.0
 40
13.44850178500571
 50
159.04007231018591
 51
178.80587836841249
  0
ARC
  5
34
  8
0
 10
94.361842505664697
 20
36.944352311239129
 30
0.0
 40
20.721694932313149
 50
124.9998265314872
 51
140.95992768981671
  0
ARC
  5
35
  8
0
 10
87.075161871695542
 20
47.350877791858352
 30
0.0
 40
8.0176999999999996
 50
25.000173468512859
 51
124.9998265314873
  0
ARC
  5
36
  8
0
 10
67.821658382477096
 20
58.466921172960951
 30
0.0
 40
13.44850178500573
 50
301.19412163158751
 51
320.9599276898133
  0
ARC
  5
37
  8
0
 10
99.795276776587883
 20
94.822992895030595
 30
0.0
 40
54.0
 50
237.58817820607959
 51
242.41182179392041
  0
ARC
  5
38
  8
0
 10
109.3072066957623
 20
47.350902004853829
 30
0.0
 40
13.44850178500571
 50
189.04007231018591
 51
208.80587836841261
  0
ARC
  5
39
  8
0
 10
90.283346857413406
 20
47.350902004853822
 30
0.0
 40
13.44850178500573
 50
331.19412163158739
 51
350.9599276898133
  0
ARC
  5
3A
  8
0
 10
99.795276776587855
 20
94.822992895030595
 30
0.0
 40
54.0
 50
267.58817820607948
 51
272.4118217939203
  0
ARC
  5
3B
  8
0
 10
75.561448593104558
 20
41.981902677496592
 30
0.0
 40
20.721694932313149
 50
9.0400723101860265
 51
25.000173468512859
  0
ARC
  5
3C
  8
0
 10
124.02910496007119
 20
41.981902677496599
 30
0.0
 40
20.721694932313149
 50
154.99982653148709
 51
170.95992768981679
  0
ARC
  5
3D
  8
0
 10
65.043276578307939
 20
60.070992696750658
 30
0.0
 40
8.0176999999999996
 50
355.00017346851291
 51
94.99982653148723
  0
ARC
  5
3E
  8
0
 10
52.387620829977038
 20
61.178180494722397
 30
0.0
 40
20.721694932313149
 50
339.04007231018602
 51
355.00017346851291
  0
ARC
  5
3F
  8
0
 10
115.2937492726538
 20
48.954991253786432
 30
0.0
 40
13.44850178500573
 50
1.1941216315874219
 51
20.959927689813298
  0
ARC
  5
40
  8
0
 10
99.795276776587883
 20
94.822992895030595
 30
0.0
 40
54.0
 50
297.58817820607959
 51
302.41182179392041
  0
ARC
  5
41
  8
0
 10
147.26736766676461
 20
104.334922814205
 30
0.0
 40
13.44850178500571
 50
279.04007231018591
 51
298.80587836841261
  0
ARC
  5
42
  8
0
 10
157.67391736037931
 20
89.389558624107394
 30
0.0
 40
20.721694932313149
 50
214.9998265314872
 51
230.95992768981679
  0
ARC
  5
43
  8
0
 10
133.44008917689601
 20
47.415336948419728
 30
0.0
 40
20.721694932313149
 50
69.040072310185963
 51
85.000173468512855
  0
ARC
  5
44
  8
0
 10
134.5472769748678
 20
60.070992696750629
 30
0.0
 40
8.0176999999999996
 50
85.000173468512855
 51
184.9998265314872
  0
ARC
  5
45
  8
0
 10
147.20293272319859
 20
61.178180494722397
 30
0.0
 40
20.721694932313149
 50
184.9998265314872
 51
200.95992768981671
  0
ARC
  5
46
  8
0
 10
145.663278417832
 20
79.324520398964566
 30
0.0
 40
13.44850178500571
 50
249.04007231018591
 51
268.80587836841249
  0
ARC
  5
47
  8
0
 10
99.795276776587855
 20
94.822992895030595
 30
0.0
 40
54.0
 50
327.58817820607959
 51
332.4118217939203
  0
ARC
  5
48
  8
0
 10
136.15134849865751
 20
62.849374500919822
 30
0.0
 40
13.44850178500573
 50
31.194121631587439
 51
50.95992768981327
  0
ARC
  5
49
  8
0
 10
147.26739187976011
 20
82.102877990138253
 30
0.0
 40
8.0176999999999996
 50
115.0001734685128
 51
214.9998265314872
  0
ARC
  5
4A
  8
0
 10
152.63636699412189
 20
70.589164711547284
 30
0.0
 40
20.721694932313149
 50
99.040072310186034
 51
115.0001734685128
  0
ARC
  5
4B
  8
0
 10
66.150464376279672
 20
142.2306488416414
 30
0.0
 40
20.721694932313149
 50
249.04007231018599
 51
265.00017346851291
  0
ARC
  5
4C
  8
0
 10
52.323161673415619
 20
107.54310779992289
 30
0.0
 40
8.0176999999999996
 50
295.00017346851291
 51
34.999826531487251
  0
ARC
  5
4D
  8
0
 10
41.916636192796403
 20
100.2564271659537
 30
0.0
 40
20.721694932313149
 50
34.999826531487201
 51
50.959927689816773
  0
ARC
  5
4E
  8
0
 10
52.323185886411117
 20
85.311062975856103
 30
0.0
 40
13.44850178500571
 50
99.040072310185906
 51
118.80587836841261
  0
ARC
  5
4F
  8
0
 10
46.954186559053873
 20
119.05682107851381
 30
0.0
 40
20.721694932313149
 50
279.04007231018602
 51
295.00017346851291
  0
ARC
  5
50
  8
0
 10
63.439205054518233
 20
126.7966112891413
 30
0.0
 40
13.44850178500573
 50
211.19412163158739
 51
230.9599276898133
  0
ARC
  5
51
  8
0
 10
99.795276776587883
 20
94.822992895030595
 30
0.0
 40
54.0
 50
147.58817820607959
 51
152.41182179392041
  0
ARC
  5
52
  8
0
 10
53.927275135343727
 20
110.32146539109659
 30
0.0
 40
13.44850178500571
 50
69.04007231018592
 51
88.805878368412593
  0
ARC
  5
53
  8
0
 10
131.76889517069861
 20
131.17906461710021
 30
0.0
 40
13.44850178500573
 50
121.19412163158739
 51
140.9599276898133
  0
ARC
  5
54
  8
0
 10
112.5153916814801
 20
142.29510799820281
 30
0.0
 40
8.0176999999999996
 50
205.00017346851291
 51
304.99982653148732
  0
ARC
  5
55
  8
0
 10
105.228711047511
 20
152.701633478822
 30
0.0
 40
20.721694932313149
 50
304.99982653148732
 51
320.95992768981682
  0
ARC
  5
56
  8
0
 10
94.361842505664697
 20
152.70163347882209
 30
0.0
 40
20.721694932313149
 50
219.04007231018599
 51
235.00017346851291
  0
ARC
  5
57
  8
0
 10
84.296804280521883
 20
140.6909945362747
 30
0.0
 40
13.44850178500573
 50
181.19412163158739
 51
200.9599276898133
  0
ARC
  5
58
  8
0
 10
87.075161871695585
 20
142.29510799820281
 30
0.0
 40
8.0176999999999996
 50
235.00017346851291
 51
334.9998265314872
  0
ARC
  5
59
  8
0
 10
65.043276578307939
 20
129.5749930933105
 30
0.0
 40
8.0176999999999996
 50
265.00017346851291
 51
4.9998265314872814
  0
ARC
  5
5A
  8
0
 10
52.387620829977038
 20
128.46780529533871
 30
0.0
 40
20.721694932313149
 50
4.9998265314872299
 51
20.959927689816809
  0
ARC
  5
5B
  8
0
 10
67.821658382477125
 20
131.17906461710021
 30
0.0
 40
13.44850178500571
 50
39.040072310185927
 51
58.8058783684126
  0
ARC
  5
5C
  8
0
 10
99.795276776587883
 20
94.822992895030595
 30
0.0
 40
54.0
 50
117.5881782060796
 51
122.4118217939204
  0
ARC
  5
5D
  8
0
 10
109.3072066957623
 20
142.29508378520731
 30
0.0
 40
13.44850178500573
 50
151.19412163158739
 51
170.9599276898133
  0
ARC
  5
5E
  8
0
 10
90.283346857413406
 20
142.29508378520731
 30
0.0
 40
13.44850178500571
 50
9.0400723101859235
 51
28.805878368412621
  0
ARC
  5
5F
  8
0
 10
75.561448593104586
 20
147.66408311256461
 30
0.0
 40
20.721694932313149
 50
334.9998265314872
 51
350.95992768981682
  0
ARC
  5
60
  8
0
 10
124.02910496007109
 20
147.66408311256461
 30
0.0
 40
20.721694932313149
 50
189.04007231018599
 51
205.00017346851291
  0
ARC
  5
61
  8
0
 10
99.795276776587883
 20
94.822992895030595
 30
0.0
 40
54.0
 50
87.588178206079647
 51
92.411821793920424
  0
ARC
  5
62
  8
0
 10
115.2937492726539
 20
140.6909945362747
 30
0.0
 40
13.44850178500571
 50
339.04007231018591
 51
358.80587836841261
  0
ARC
  5
63
  8
0
 10
147.26736766676461
 20
85.311062975856075
 30
0.0
 40
13.44850178500573
 50
61.19412163158745
 51
80.959927689813341
  0
ARC
  5
64
  8
0
 10
157.67391736037939
 20
100.2564271659537
 30
0.0
 40
20.721694932313149
 50
129.04007231018599
 51
145.0001734685128
  0
ARC
  5
65
  8
0
 10
147.26739187976011
 20
107.54310779992289
 30
0.0
 40
8.0176999999999996
 50
145.0001734685128
 51
244.99982653148729
  0
ARC
  5
66
  8
0
 10
152.63636699412189
 20
119.05682107851381
 30
0.0
 40
20.721694932313149
 50
244.9998265314872
 51
260.95992768981682
  0
ARC
  5
67
  8
0
 10
133.44008917689601
 20
142.2306488416414
 30
0.0
 40
20.721694932313149
 50
274.9998265314872
 51
290.95992768981682
  0
ARC
  5
68
  8
0
 10
134.5472769748678
 20
129.5749930933105
 30
0.0
 40
8.0176999999999996
 50
175.00017346851291
 51
274.99982653148737
  0
ARC
  5
69
  8
0
 10
147.2029327231987
 20
128.46780529533879
 30
0.0
 40
20.721694932313149
 50
159.04007231018599
 51
175.00017346851291
  0
ARC
  5
6A
  8
0
 10
145.663278417832
 20
110.32146539109659
 30
0.0
 40
13.44850178500573
 50
91.194121631587464
 51
110.9599276898133
  0
ARC
  5
6B
  8
0
 10
99.795276776587883
 20
94.822992895030595
 30
0.0
 40
54.0
 50
27.588178206079611
 51
32.411821793920403
  0
ARC
  5
6C
  8
0
 10
136.15134849865751
 20
126.7966112891413
 30
0.0
 40
13.44850178500571
 50
309.04007231018591
 51
328.80587836841261
  0
ARC
  5
6D
  8
0
 10
99.795276776587883
 20
94.822992895030595
 30
0.0
 40
54.0
 50
57.588178206079583
 51
62.41182179392036
  0
LINE
  5
6E
  8
1
 10
237.44752329041739
 20
30.822995495870199
 30
0.0
 11
237.44752329041739
 21
158.8229954958702
 31
0.0
  0
LINE
  5
6F
  8
0
 10
229.9475232904168
 20
136.1229935439392
 30
0.0
 11
229.9475232904168
 21
53.5229861254208
 31
0.0
  0
LINE
  5
70
  8
0
 10
244.9475232904168
 20
53.52300143673277
 30
0.0
 11
244.9475232904168
 21
136.12300117333379
 31
0.0
  0
LINE
  5
71
  8
2
 10
244.44752329041731
 20
116.8229928950305
 30
0.0
 11
244.44752329041731
 21
72.822992895030637
 31
0.0
  0
LINE
  5
74
  8
2
 10
230.44752329041731
 20
116.8229928950305
 30
0.0
 11
230.44752329041739
 21
72.82299289503058
 31
0.0
  0
LINE
  5
82
  8
2
 10
231.94752329041731
 20
84.822997390544728
 30
0.0
 11
242.94752329041731
 21
84.822997390544728
 31
0.0
  0
LINE
  5
83
  8
2
 10
229.9475232904168
 20
71.32299289503058
 30
0.0
 11
244.9475232904168
 21
71.322992895030623
 31
0.0
  0
LINE
  5
84
  8
1
 10
246.1516597610069
 20
78.072997390544685
 30
0.0
 11
228.74338681982769
 21
78.072997390544685
 31
0.0
  0
LINE
  5
85
  8
1
 10
223.4685293855857
 20
45.752997390544671
 30
0.0
 11
251.426517195249
 21
45.752997390544671
 31
0.0
  0
ARC
  5
86
  8
0
 10
217.94752329041791
 20
53.522994493878961
 30
0.0
 40
27.0
 50
331.94165923896941
 51
0.0
  0
LINE
  5
87
  8
1
 10
254.9475232904168
 20
94.822995142787619
 30
0.0
 11
219.9475232904168
 21
94.822995142787619
 31
0.0
  0
ARC
  5
88
  8
0
 10
256.94752329041683
 20
53.522994493878961
 30
0.0
 40
27.0
 50
180.0
 51
208.05834076103071
  0
LINE
  5
89
  8
0
 10
241.7741890244227
 20
40.822994493878959
 30
0.0
 11
233.12085755641201
 21
40.822994493878959
 31
0.0
  0
ARC
  5
8A
  8
2
 10
231.94752329041739
 20
72.82299289503058
 30
0.0
 40
1.5
 50
180.00000000000011
 51
270.00000000000011
  0
ARC
  5
8B
  8
2
 10
231.94752329041731
 20
83.322997390544728
 30
0.0
 40
1.5
 50
90.000000000000028
 51
180.00000000000011
  0
ARC
  5
8C
  8
2
 10
242.94752329041731
 20
72.822992895030637
 30
0.0
 40
1.5
 50
270.00000000000023
 51
0.0000000000001018
  0
ARC
  5
8D
  8
2
 10
242.94752329041731
 20
83.322997390544728
 30
0.0
 40
1.5
 50
0.0000000000000649
 51
90.000000000000028
  0
LINE
  5
8E
  8
1
 10
223.4685293855857
 20
143.89299289503049
 30
0.0
 11
251.426517195249
 21
143.89299289503049
 31
0.0
  0
LINE
  5
8F
  8
2
 10
229.9475232904168
 20
118.32299289503059
 30
0.0
 11
244.9475232904168
 21
118.32299289503059
 31
0.0
  0
LINE
  5
90
  8
2
 10
231.94752329041731
 20
104.8229928950305
 30
0.0
 11
242.94752329041731
 21
104.8229928950305
 31
0.0
  0
LINE
  5
91
  8
1
 10
246.1516597610069
 20
111.5729928950305
 30
0.0
 11
228.74338681982769
 21
111.5729928950305
 31
0.0
  0
ARC
  5
92
  8
0
 10
217.94752329041791
 20
136.1229935439392
 30
0.0
 40
27.0
 50
0.0
 51
28.058340761030681
  0
ARC
  5
93
  8
0
 10
256.94752329041683
 20
136.1229935439392
 30
0.0
 40
27.0
 50
151.94165923896929
 51
180.0
  0
ARC
  5
94
  8
2
 10
231.94752329041731
 20
106.3229928950305
 30
0.0
 40
1.5
 50
179.99999999999989
 51
270.0
  0
ARC
  5
95
  8
2
 10
231.94752329041731
 20
116.8229928950305
 30
0.0
 40
1.5
 50
90.0
 51
180.00000000000011
  0
LINE
  5
96
  8
0
 10
241.7741890244227
 20
148.82299354393919
 30
0.0
 11
233.12085755641201
 21
148.82299354393919
 31
0.0
  0
ARC
  5
97
  8
2
 10
242.94752329041731
 20
106.3229928950305
 30
0.0
 40
1.5
 50
270.0
 51
360.0
  0
ARC
  5
98
  8
2
 10
242.94752329041731
 20
116.8229928950305
 30
0.0
 40
1.5
 50
0.0000000000000509
 51
90.0
  0
TEXT
  5
2C9
  8
0
 62
     3
 10
0.0
 20
0.0
 30
0.0
 40
10.0
  1
SIS812
  7
STANDARD1
  0
ENDSEC
  0
EOF
