  0
SECTION
  2
HEADER
  9
$ACADVER
  1
AC1009
  9
$INSBASE
 10
0.0
 20
0.0
 30
0.0
  9
$EXTMIN
 10
0.0
 20
-1.4802182810368341
 30
0.0
  9
$EXTMAX
 10
85.078006032427993
 20
77.442880842782984
 30
0.0
  9
$LIMMIN
 10
0.0
 20
0.0
  9
$LIMMAX
 10
187.5
 20
135.0
  9
$ORTHOMODE
 70
     0
  9
$REGENMODE
 70
     1
  9
$FILLMODE
 70
     1
  9
$QTEXTMODE
 70
     0
  9
$MIRRTEXT
 70
     0
  9
$DRAGMODE
 70
     2
  9
$LTSCALE
 40
5.0
  9
$OSMODE
 70
    55
  9
$ATTMODE
 70
     1
  9
$TEXTSIZE
 40
0.2
  9
$TRACEWID
 40
0.05
  9
$TEXTSTYLE
  7
STANDARD
  9
$CLAYER
  8
0
  9
$CELTYPE
  6
BYLAYER
  9
$CECOLOR
 62
   256
  9
$DIMSCALE
 40
0.5
  9
$DIMASZ
 40
3.0
  9
$DIMEXO
 40
2.0
  9
$DIMDLI
 40
0.38
  9
$DIMRND
 40
0.0
  9
$DIMDLE
 40
0.0
  9
$DIMEXE
 40
2.0
  9
$DIMTP
 40
0.0
  9
$DIMTM
 40
0.0
  9
$DIMTXT
 40
3.2000000000000002
  9
$DIMCEN
 40
0.0
  9
$DIMTSZ
 40
0.0
  9
$DIMTOL
 70
     0
  9
$DIMLIM
 70
     0
  9
$DIMTIH
 70
     0
  9
$DIMTOH
 70
     0
  9
$DIMSE1
 70
     0
  9
$DIMSE2
 70
     0
  9
$DIMTAD
 70
     1
  9
$DIMZIN
 70
     0
  9
$DIMBLK
  1

  9
$DIMASO
 70
     0
  9
$DIMSHO
 70
     0
  9
$DIMPOST
  1

  9
$DIMAPOST
  1

  9
$DIMALT
 70
     0
  9
$DIMALTD
 70
     2
  9
$DIMALTF
 40
25.399999999999999
  9
$DIMLFAC
 40
1.0
  9
$DIMTOFL
 70
     1
  9
$DIMTVP
 40
1.6000000000000001
  9
$DIMTIX
 70
     1
  9
$DIMSOXD
 70
     0
  9
$DIMSAH
 70
     0
  9
$DIMBLK1
  1

  9
$DIMBLK2
  1

  9
$DIMSTYLE
  2
STANDARD
  9
$DIMCLRD
 70
     0
  9
$DIMCLRE
 70
     0
  9
$DIMCLRT
 70
     0
  9
$DIMTFAC
 40
1.0
  9
$DIMGAP
 40
0.09
  9
$LUNITS
 70
     2
  9
$LUPREC
 70
     2
  9
$SKETCHINC
 40
0.1
  9
$FILLETRAD
 40
0.0
  9
$AUNITS
 70
     0
  9
$AUPREC
 70
     4
  9
$MENU
  1
E:\r13\win\SUPPORT\ACAD
  9
$ELEVATION
 40
0.0
  9
$PELEVATION
 40
0.0
  9
$THICKNESS
 40
0.0
  9
$LIMCHECK
 70
     0
  9
$BLIPMODE
 70
     0
  9
$CHAMFERA
 40
0.0
  9
$CHAMFERB
 40
0.0
  9
$SKPOLY
 70
     0
  9
$TDCREATE
 40
2449839.7732986109
  9
$TDUPDATE
 40
2456598.5018517361
  9
$TDINDWG
 40
0.0386038889
  9
$TDUSRTIMER
 40
0.0386038889
  9
$USRTIMER
 70
     1
  9
$ANGBASE
 50
0.0
  9
$ANGDIR
 70
     0
  9
$PDMODE
 70
     0
  9
$PDSIZE
 40
0.0
  9
$PLINEWID
 40
0.0
  9
$COORDS
 70
     1
  9
$SPLFRAME
 70
     0
  9
$SPLINETYPE
 70
     6
  9
$SPLINESEGS
 70
     8
  9
$ATTDIA
 70
     0
  9
$ATTREQ
 70
     1
  9
$HANDLING
 70
     1
  9
$HANDSEED
  5
1779
  9
$SURFTAB1
 70
     6
  9
$SURFTAB2
 70
     6
  9
$SURFTYPE
 70
     6
  9
$SURFU
 70
     6
  9
$SURFV
 70
     6
  9
$UCSNAME
  2

  9
$UCSORG
 10
0.0
 20
0.0
 30
0.0
  9
$UCSXDIR
 10
1.0
 20
0.0
 30
0.0
  9
$UCSYDIR
 10
0.0
 20
1.0
 30
0.0
  9
$PUCSNAME
  2

  9
$PUCSORG
 10
0.0
 20
0.0
 30
0.0
  9
$PUCSXDIR
 10
1.0
 20
0.0
 30
0.0
  9
$PUCSYDIR
 10
0.0
 20
1.0
 30
0.0
  9
$USERI1
 70
     0
  9
$USERI2
 70
     1
  9
$USERI3
 70
     0
  9
$USERI4
 70
     0
  9
$USERI5
 70
     0
  9
$USERR1
 40
0.0
  9
$USERR2
 40
0.0
  9
$USERR3
 40
0.0
  9
$USERR4
 40
0.0
  9
$USERR5
 40
0.0
  9
$WORLDVIEW
 70
     1
  9
$SHADEDGE
 70
     3
  9
$SHADEDIF
 70
    70
  9
$TILEMODE
 70
     1
  9
$MAXACTVP
 70
    16
  9
$PLIMCHECK
 70
     0
  9
$PEXTMIN
 10
1.0000000000000000E+020
 20
1.0000000000000000E+020
 30
1.0000000000000000E+020
  9
$PEXTMAX
 10
-1.0000000000000000E+020
 20
-1.0000000000000000E+020
 30
-1.0000000000000000E+020
  9
$PLIMMIN
 10
0.0
 20
0.0
  9
$PLIMMAX
 10
12.0
 20
9.0
  9
$UNITMODE
 70
     0
  9
$VISRETAIN
 70
     0
  9
$PLINEGEN
 70
     0
  9
$PSLTSCALE
 70
     0
  0
ENDSEC
  0
SECTION
  2
TABLES
  0
TABLE
  2
VPORT
 70
     1
  0
VPORT
  2
*ACTIVE
 70
     0
 10
0.0
 20
0.0
 11
1.0
 21
1.0
 12
93.74713919532617
 22
87.458386271734256
 13
0.0
 23
0.0
 14
5.0
 24
5.0
 15
5.0
 25
5.0
 16
0.0
 26
0.0
 36
1.0
 17
0.0
 27
0.0
 37
0.0
 40
179.46013949787169
 41
1.7807262569832401
 42
50.0
 43
0.0
 44
0.0
 50
0.0
 51
0.0
 71
     0
 72
   500
 73
     1
 74
     0
 75
     0
 76
     0
 77
     0
 78
     2
  0
ENDTAB
  0
TABLE
  2
LTYPE
 70
     3
  0
LTYPE
  2
CONTINUOUS
 70
     0
  3
Solid Line
 72
    65
 73
     0
 40
0.0
  0
LTYPE
  2
CENTER
 70
     0
  3
____ _ ____ _ ____ _ ____ _ ____ _ ____ _ ____
 72
    65
 73
     4
 40
2.0
 49
1.25
 49
-0.25
 49
0.25
 49
-0.25
  0
LTYPE
  2
PHANTOM2
 70
     0
  3
___ _ _ ___ _ _ ___ _ _ ___ _ _
 72
    65
 73
     6
 40
1.25
 49
0.625
 49
-0.125
 49
0.125
 49
-0.125
 49
0.125
 49
-0.125
  0
ENDTAB
  0
TABLE
  2
LAYER
 70
     3
  0
LAYER
  2
0
 70
     0
 62
     7
  6
CONTINUOUS
  0
LAYER
  2
1
 70
     0
 62
     1
  6
CENTER
  0
LAYER
  2
3
 70
     0
 62
     3
  6
CONTINUOUS
  0
ENDTAB
  0
TABLE
  2
STYLE
 70
     2
  0
STYLE
  2
STANDARD
 70
     0
 40
0.0
 41
1.0
 50
0.0
 71
     0
 42
0.2
  3
TXT
  4
BIGFONT
  0
STYLE
  2
STANDARD1
 70
     0
 40
0.0
 41
1.0
 50
0.0
 71
     0
 42
3.0
  3
txt
  4

  0
ENDTAB
  0
TABLE
  2
VIEW
 70
     1
  0
VIEW
  2
ALL
 70
     0
 40
270.0
 10
220.99159663865549
 20
135.0
 41
0.0
 11
0.0
 21
0.0
 31
1.0
 12
0.0
 22
0.0
 32
0.0
 42
0.0
 43
0.0
 44
0.0
 50
0.0
 71
     0
  0
ENDTAB
  0
TABLE
  2
UCS
 70
     0
  0
ENDTAB
  0
TABLE
  2
APPID
 70
     3
  0
APPID
  2
ACAD
 70
     0
  0
APPID
  2
ACAD_MLEADERVER
 70
     0
  0
APPID
  2
ACAD_NAV_VCDISPLAY
 70
     0
  0
ENDTAB
  0
TABLE
  2
DIMSTYLE
 70
     1
  0
DIMSTYLE
  2
STANDARD
 70
     0
  3

  4

  5

  6

  7

 40
1.0
 41
0.18
 42
0.0625
 43
0.38
 44
0.18
 45
0.0
 46
0.0
 47
0.0
 48
0.0
140
0.18
141
0.09
142
0.0
143
25.399999999999999
144
1.0
145
0.0
146
1.0
147
0.09
 71
     0
 72
     0
 73
     1
 74
     1
 75
     0
 76
     0
 77
     0
 78
     0
170
     0
171
     2
172
     0
173
     0
174
     0
175
     0
176
     0
177
     0
178
     0
  0
ENDTAB
  0
ENDSEC
  0
SECTION
  2
BLOCKS
  0
BLOCK
  8
0
  2
$MODEL_SPACE
 70
     0
 10
0.0
 20
0.0
 30
0.0
  3
$MODEL_SPACE
  1

  0
ENDBLK
  5
1D4
  8
0
  0
BLOCK
 67
     1
  8
0
  2
$PAPER_SPACE
 70
     0
 10
0.0
 20
0.0
 30
0.0
  3
$PAPER_SPACE
  1

  0
ENDBLK
  5
1D2
 67
     1
  8
0
  0
ENDSEC
  0
SECTION
  2
ENTITIES
  0
LINE
  5
1582
  8
0
 10
83.328006032427865
 20
37.742880842783173
 30
0.0
 11
83.328006032427865
 21
37.674931650351823
 31
0.0
  0
LINE
  5
1583
  8
0
 10
72.828006032427879
 20
37.742880842783173
 30
0.0
 11
83.328006032427865
 21
37.742880842783173
 31
0.0
  0
LINE
  5
1584
  8
0
 10
75.491624688064917
 20
40.942880842783147
 30
0.0
 11
80.664387376790827
 21
40.942880842783147
 31
0.0
  0
LINE
  5
1585
  8
0
 10
72.828006032427879
 20
37.742880842776799
 30
0.0
 11
72.828006032427993
 21
37.674931650351823
 31
0.0
  0
ARC
  5
1586
  8
0
 10
79.833724990496535
 20
37.542880842784093
 30
0.0
 40
3.5
 50
3.2758289597833001
 51
76.270867324509794
  0
ARC
  5
1587
  8
0
 10
76.322287074359224
 20
37.542880842784093
 30
0.0
 40
3.5
 50
103.72913267549011
 51
176.7241710402167
  0
LINE
  5
1588
  8
0
 10
71.078006032427993
 20
37.674931650351823
 30
0.0
 11
85.078006032427879
 21
37.674931650351823
 31
0.0
  0
LINE
  5
1599
  8
0
 10
27.078006032427989
 20
60.942880842782976
 30
0.0
 11
49.078006032427879
 21
60.942880842782976
 31
0.0
  0
LINE
  5
159A
  8
0
 10
27.078006032427989
 20
74.942880842782984
 30
0.0
 11
49.078006032427879
 21
74.942880842782984
 31
0.0
  0
LINE
  5
159B
  8
1
 10
24.078006032427769
 20
67.942880842782984
 30
0.0
 11
52.078006032427872
 21
67.942880842782984
 31
0.0
  0
LINE
  5
159C
  8
1
 10
38.078006032427879
 20
77.442880842782984
 30
0.0
 11
38.078006032427879
 21
58.442880842782976
 31
0.0
  0
LINE
  5
159D
  8
0
 10
26.578006032428
 20
74.442880842782984
 30
0.0
 11
26.578006032427879
 21
71.442880842782984
 31
0.0
  0
LINE
  5
159E
  8
0
 10
49.578006032427872
 20
61.442880842782976
 30
0.0
 11
49.578006032427872
 21
64.442880842782984
 31
0.0
  0
LINE
  5
159F
  8
0
 10
49.578006032427872
 20
71.442880842782984
 30
0.0
 11
49.578006032427872
 21
74.442880842782984
 31
0.0
  0
LINE
  5
15A0
  8
0
 10
26.578006032427879
 20
64.442880842782984
 30
0.0
 11
26.578006032428
 21
61.442880842782976
 31
0.0
  0
LINE
  5
15A1
  8
0
 10
32.047199633763398
 20
64.942880842782984
 30
0.0
 11
27.078006032427879
 21
64.942880842782984
 31
0.0
  0
LINE
  5
15A2
  8
0
 10
32.047199633763398
 20
70.942880842782984
 30
0.0
 11
27.078006032427879
 21
70.942880842782984
 31
0.0
  0
LINE
  5
15A3
  8
0
 10
44.108812431092467
 20
70.942880842782984
 30
0.0
 11
49.078006032427879
 21
70.942880842782984
 31
0.0
  0
LINE
  5
15A4
  8
0
 10
44.108812431092581
 20
64.942880842782927
 30
0.0
 11
49.078006032427879
 21
64.942880842782984
 31
0.0
  0
LINE
  5
15A5
  8
0
 10
26.578006032427879
 20
64.442880842782984
 30
0.0
 11
27.078006032427879
 21
64.942880842782984
 31
0.0
  0
LINE
  5
15A6
  8
0
 10
27.078006032427879
 20
70.942880842782984
 30
0.0
 11
26.578006032427879
 21
71.442880842782984
 31
0.0
  0
LINE
  5
15A7
  8
0
 10
49.578006032427872
 20
64.442880842782984
 30
0.0
 11
49.078006032427879
 21
64.942880842782984
 31
0.0
  0
LINE
  5
15A8
  8
0
 10
49.078006032427879
 20
70.942880842782984
 30
0.0
 11
49.578006032427872
 21
71.442880842782984
 31
0.0
  0
LINE
  5
15A9
  8
0
 10
85.078006032427993
 20
37.674931650351823
 30
0.0
 11
85.078006032427993
 21
34.942880842782927
 31
0.0
  0
LINE
  5
15AA
  8
0
 10
71.078006032427993
 20
37.674931650351823
 30
0.0
 11
71.078006032427993
 21
34.942880842782813
 31
0.0
  0
LINE
  5
15AB
  8
0
 10
85.078006032427993
 20
34.942880842782927
 30
0.0
 11
81.078006032427979
 21
34.94288084278287
 31
0.0
  0
LINE
  5
15AC
  8
1
 10
78.078006032427879
 20
43.442880842782976
 30
0.0
 11
78.078006032427993
 21
20.442880842782468
 31
0.0
  0
LINE
  5
15AD
  8
0
 10
81.078006032427979
 20
37.742880842783002
 30
0.0
 11
81.078006032427979
 21
30.142880842782969
 31
0.0
  0
LINE
  5
15AE
  8
0
 10
75.078006032427993
 20
30.142880842782969
 30
0.0
 11
75.078006032427993
 21
37.742880842783002
 31
0.0
  0
LINE
  5
15AF
  8
0
 10
76.078006032427993
 20
29.142880842782969
 30
0.0
 11
80.078006032427993
 21
29.142880842782969
 31
0.0
  0
LINE
  5
15B0
  8
0
 10
75.078006032427993
 20
34.94288084278287
 30
0.0
 11
71.078006032427993
 21
34.942880842782813
 31
0.0
  0
LINE
  5
15B1
  8
1
 10
38.078006032427879
 20
43.442880842782976
 30
0.0
 11
38.078006032427879
 21
20.44288084278298
 31
0.0
  0
LINE
  5
15B2
  8
0
 10
28.84595522485893
 20
36.942880842782962
 30
0.0
 11
47.310056839996939
 21
36.942880842782976
 31
0.0
  0
LINE
  5
15B3
  8
0
 10
47.845955224859033
 20
34.942880842782948
 30
0.0
 11
28.31005683999695
 21
34.942880842782813
 31
0.0
  0
LINE
  5
15B4
  8
0
 10
80.078006032427993
 20
29.142880842782969
 30
0.0
 11
81.078006032427979
 21
30.142880842782969
 31
0.0
  0
LINE
  5
15B5
  8
0
 10
76.078006032427993
 20
29.142880842782969
 30
0.0
 11
75.078006032427993
 21
30.142880842782969
 31
0.0
  0
LINE
  5
15B6
  8
0
 10
45.178006032427902
 20
64.942880842782927
 30
0.0
 11
45.178006032428009
 21
70.942880842782984
 31
0.0
  0
LINE
  5
15B7
  8
0
 10
30.97800603242797
 20
64.942880842782927
 30
0.0
 11
30.97800603242797
 21
70.942880842782984
 31
0.0
  0
LINE
  5
15B8
  8
0
 10
49.078006032427879
 20
60.942880842782976
 30
0.0
 11
49.578006032427872
 21
61.442880842782976
 31
0.0
  0
LINE
  5
15B9
  8
0
 10
49.578006032427872
 20
74.442880842782984
 30
0.0
 11
49.078006032427879
 21
74.942880842782984
 31
0.0
  0
LINE
  5
15BA
  8
0
 10
27.078006032427989
 20
60.942880842782976
 30
0.0
 11
26.578006032428
 21
61.442880842782976
 31
0.0
  0
LINE
  5
15BB
  8
0
 10
26.578006032428
 20
74.442880842782984
 30
0.0
 11
27.078006032427989
 21
74.942880842782984
 31
0.0
  0
LINE
  5
15BC
  8
0
 10
49.578006032427872
 20
35.942880842782962
 30
0.0
 11
47.845955224859033
 21
34.942880842782948
 31
0.0
  0
LINE
  5
15BD
  8
0
 10
48.578006032427879
 20
37.674931650351823
 30
0.0
 11
47.310056839996939
 21
36.942880842782976
 31
0.0
  0
LINE
  5
15BE
  8
0
 10
49.578006032427872
 20
35.942880842782962
 30
0.0
 11
48.578006032427879
 21
37.674931650351823
 31
0.0
  0
LINE
  5
15BF
  8
0
 10
26.578006032427879
 20
35.942880842782991
 30
0.0
 11
27.578006032427879
 21
37.674931650351851
 31
0.0
  0
LINE
  5
15C0
  8
0
 10
27.578006032427879
 20
37.674931650351851
 30
0.0
 11
28.845955224858809
 21
36.942880842783012
 31
0.0
  0
LINE
  5
15C1
  8
0
 10
26.578006032427879
 20
35.942880842782991
 30
0.0
 11
28.310056839996719
 21
34.942880842782991
 31
0.0
  0
LINE
  5
15C2
  8
0
 10
28.84595522485893
 20
60.942880842782976
 30
0.0
 11
28.84595522485893
 21
64.942880842782927
 31
0.0
  0
LINE
  5
15C3
  8
0
 10
47.310056839996939
 20
60.942880842782976
 30
0.0
 11
47.310056839996939
 21
64.942880842782927
 31
0.0
  0
LINE
  5
15C4
  8
0
 10
28.84595522485893
 20
70.942880842782984
 30
0.0
 11
28.84595522485893
 21
74.942880842782984
 31
0.0
  0
LINE
  5
15C5
  8
0
 10
47.310056839996939
 20
70.942880842782984
 30
0.0
 11
47.310056839996939
 21
74.942880842782984
 31
0.0
  0
LINE
  5
15C6
  8
0
 10
75.078006032427993
 20
35.94288084278287
 30
0.0
 11
71.078006032427993
 21
35.942880842782813
 31
0.0
  0
LINE
  5
15C7
  8
0
 10
85.078006032427993
 20
35.942880842782927
 30
0.0
 11
81.078006032427979
 21
35.94288084278287
 31
0.0
  0
LINE
  5
15C8
  8
0
 10
75.078006032427993
 20
36.942880842782976
 30
0.0
 11
81.078006032427979
 21
36.942880842782976
 31
0.0
  0
LINE
  5
15C9
  8
0
 10
30.928006032427788
 20
32.552595999471471
 30
0.0
 11
30.928006032427788
 21
29.142880842782951
 31
0.0
  0
LINE
  5
15CA
  8
0
 10
32.728006032427743
 20
31.742880842782849
 30
0.0
 11
32.728006032427743
 21
29.142880842782951
 31
0.0
  0
LINE
  5
15CB
  8
0
 10
32.728006032427743
 20
29.142880842782951
 30
0.0
 11
30.928006032427788
 21
29.142880842782951
 31
0.0
  0
LINE
  5
15CC
  8
0
 10
32.728006032427743
 20
31.742880842782849
 30
0.0
 11
33.639033286693582
 21
34.942880842782841
 31
0.0
  0
LINE
  5
15CD
  8
0
 10
30.928006032427788
 20
32.552595999471471
 30
0.0
 11
31.56848092587348
 21
34.942880842782813
 31
0.0
  0
LINE
  5
15CE
  8
0
 10
45.22800603242797
 20
32.552595999471549
 30
0.0
 11
44.587531138982172
 21
34.942880842782927
 31
0.0
  0
LINE
  5
15CF
  8
0
 10
43.428006032427902
 20
31.742880842782849
 30
0.0
 11
42.51697877816207
 21
34.942880842782898
 31
0.0
  0
LINE
  5
15D0
  8
0
 10
43.428006032427902
 20
29.142880842782951
 30
0.0
 11
45.22800603242797
 21
29.142880842782951
 31
0.0
  0
LINE
  5
15D1
  8
0
 10
43.428006032427902
 20
31.742880842782849
 30
0.0
 11
43.428006032427902
 21
29.142880842782951
 31
0.0
  0
LINE
  5
15D2
  8
0
 10
45.22800603242797
 20
32.552595999471549
 30
0.0
 11
45.22800603242797
 21
29.142880842782951
 31
0.0
  0
LINE
  5
15D3
  8
0
 10
75.078006032427993
 20
32.752595999471509
 30
0.0
 11
81.078006032427979
 21
32.752595999471509
 31
0.0
  0
CIRCLE
  5
15D4
  8
0
 10
38.078006032427879
 20
67.942880842782984
 30
0.0
 40
2.58638134436515
  0
CIRCLE
  5
15D5
  8
0
 10
38.078006032427879
 20
67.942880842782984
 30
0.0
 40
5.25
  0
LINE
  5
15D6
  8
0
 10
36.078006032427652
 20
69.097581381162058
 30
0.0
 11
36.078006032428107
 21
66.788180304403909
 31
0.0
  0
LINE
  5
15D7
  8
0
 10
38.078006032427879
 20
70.252281919541588
 30
0.0
 11
36.078006032427652
 21
69.097581381162058
 31
0.0
  0
LINE
  5
15D8
  8
0
 10
40.078006032427872
 20
69.09758138116274
 30
0.0
 11
38.078006032427879
 21
70.252281919541588
 31
0.0
  0
LINE
  5
15D9
  8
0
 10
40.078006032427872
 20
66.788180304403909
 30
0.0
 11
40.078006032427872
 21
69.09758138116274
 31
0.0
  0
LINE
  5
15DA
  8
0
 10
38.078006032428107
 20
65.633479766024607
 30
0.0
 11
40.078006032427872
 21
66.788180304403909
 31
0.0
  0
LINE
  5
15DB
  8
0
 10
36.078006032428107
 20
66.788180304403909
 30
0.0
 11
38.078006032428107
 21
65.633479766024607
 31
0.0
  0
ARC
  5
15DC
  8
0
 10
36.322287074359231
 20
37.542880842783887
 30
0.0
 40
3.5
 50
103.72913267549011
 51
176.7241710402167
  0
ARC
  5
15DD
  8
0
 10
39.833724990496542
 20
37.542880842783887
 30
0.0
 40
3.5
 50
3.2758289597833001
 51
76.270867324509794
  0
LINE
  5
15DE
  8
0
 10
32.828006032427879
 20
37.7428808427766
 30
0.0
 11
32.828006032427879
 21
36.942880842783012
 31
0.0
  0
LINE
  5
15DF
  8
0
 10
35.491624688064917
 20
40.942880842782976
 30
0.0
 11
40.664387376790842
 21
40.942880842782976
 31
0.0
  0
LINE
  5
15E0
  8
0
 10
32.828006032427879
 20
37.742880842783002
 30
0.0
 11
43.328006032427872
 21
37.742880842782967
 31
0.0
  0
LINE
  5
15E1
  8
0
 10
43.328006032427872
 20
37.742880842782967
 30
0.0
 11
43.328006032427872
 21
36.942880842783012
 31
0.0
  0
LINE
  5
15E2
  8
0
 10
35.078006032427879
 20
23.942880842783008
 30
0.0
 11
41.078006032427879
 21
23.942880842782952
 31
0.0
  0
LINE
  5
15E3
  8
0
 10
36.078006032427879
 20
22.942880842783008
 30
0.0
 11
35.078006032427879
 21
23.942880842783008
 31
0.0
  0
LINE
  5
15E4
  8
0
 10
41.078006032427879
 20
23.942880842782952
 30
0.0
 11
40.078006032427872
 21
22.942880842782959
 31
0.0
  0
LINE
  5
15E5
  8
0
 10
41.078006032427879
 20
34.942880842782948
 30
0.0
 11
41.078006032427879
 21
23.942880842782952
 31
0.0
  0
LINE
  5
15E6
  8
3
 10
40.536506032427951
 20
34.942880842782991
 30
0.0
 11
40.536506032427951
 21
23.401380842783059
 31
0.0
  0
LINE
  5
15E7
  8
3
 10
35.619506032427807
 20
34.942880842783012
 30
0.0
 11
35.619506032427807
 21
23.40138084278308
 31
0.0
  0
LINE
  5
15E8
  8
0
 10
35.078006032427879
 20
34.942880842783012
 30
0.0
 11
35.078006032427879
 21
23.942880842783008
 31
0.0
  0
LINE
  5
15E9
  8
0
 10
40.078006032427872
 20
22.942880842782959
 30
0.0
 11
36.078006032427879
 21
22.942880842783008
 31
0.0
  0
LINE
  5
15EA
  8
0
 10
32.828006032427879
 20
36.942880842783012
 30
0.0
 11
43.328006032427872
 21
36.942880842782962
 31
0.0
  0
LINE
  5
15EB
  8
0
 10
80.078006032427993
 20
22.94288084278298
 30
0.0
 11
76.078006032427993
 21
22.94288084278304
 31
0.0
  0
LINE
  5
15EC
  8
0
 10
75.078006032427993
 20
30.142880842782908
 30
0.0
 11
75.078006032427993
 21
23.94288084278304
 31
0.0
  0
LINE
  5
15ED
  8
3
 10
75.619506032427921
 20
29.601380842782991
 30
0.0
 11
75.619506032427921
 21
23.401380842783109
 31
0.0
  0
LINE
  5
15EE
  8
3
 10
80.536506032428065
 20
29.601380842783101
 30
0.0
 11
80.536506032428065
 21
23.401380842783059
 31
0.0
  0
LINE
  5
15EF
  8
0
 10
81.078006032427979
 20
30.142880842782969
 30
0.0
 11
81.078006032427979
 21
23.94288084278298
 31
0.0
  0
LINE
  5
15F0
  8
0
 10
81.078006032427979
 20
23.94288084278298
 30
0.0
 11
80.078006032427993
 21
22.94288084278298
 31
0.0
  0
LINE
  5
15F1
  8
0
 10
76.078006032427993
 20
22.94288084278304
 30
0.0
 11
75.078006032427993
 21
23.94288084278304
 31
0.0
  0
LINE
  5
15F2
  8
0
 10
75.078006032427993
 20
23.94288084278304
 30
0.0
 11
81.078006032427979
 21
23.94288084278298
 31
0.0
  0
TEXT
  5
16E2
  8
0
 62
     3
 10
0.0
 20
0.0
 30
0.0
 40
5.0
  1
SJM30-6
  7
STANDARD1
  0
ENDSEC
  0
EOF
