  0
SECTION
  2
HEADER
  9
$ACADVER
  1
AC1009
  9
$INSBASE
 10
0.0
 20
0.0
 30
0.0
  9
$EXTMIN
 10
0.0
 20
-1.4802182810368341
 30
0.0
  9
$EXTMAX
 10
219.06679371922709
 20
197.22628258374471
 30
0.0
  9
$LIMMIN
 10
0.0
 20
0.0
  9
$LIMMAX
 10
375.0
 20
270.0
  9
$ORTHOMODE
 70
     1
  9
$REGENMODE
 70
     1
  9
$FILLMODE
 70
     1
  9
$QTEXTMODE
 70
     0
  9
$MIRRTEXT
 70
     0
  9
$DRAGMODE
 70
     2
  9
$LTSCALE
 40
5.0
  9
$OSMODE
 70
    55
  9
$ATTMODE
 70
     1
  9
$TEXTSIZE
 40
4.000000000000048
  9
$TRACEWID
 40
0.05
  9
$TEXTSTYLE
  7
STANDARD
  9
$CLAYER
  8
0
  9
$CELTYPE
  6
BYLAYER
  9
$CECOLOR
 62
   256
  9
$DIMSCALE
 40
0.5
  9
$DIMASZ
 40
3.0
  9
$DIMEXO
 40
2.0
  9
$DIMDLI
 40
0.38
  9
$DIMRND
 40
0.0
  9
$DIMDLE
 40
0.0
  9
$DIMEXE
 40
2.0
  9
$DIMTP
 40
0.0
  9
$DIMTM
 40
0.0
  9
$DIMTXT
 40
3.2000000000000002
  9
$DIMCEN
 40
0.0
  9
$DIMTSZ
 40
0.0
  9
$DIMTOL
 70
     0
  9
$DIMLIM
 70
     0
  9
$DIMTIH
 70
     0
  9
$DIMTOH
 70
     0
  9
$DIMSE1
 70
     0
  9
$DIMSE2
 70
     0
  9
$DIMTAD
 70
     1
  9
$DIMZIN
 70
     0
  9
$DIMBLK
  1

  9
$DIMASO
 70
     0
  9
$DIMSHO
 70
     0
  9
$DIMPOST
  1

  9
$DIMAPOST
  1

  9
$DIMALT
 70
     0
  9
$DIMALTD
 70
     2
  9
$DIMALTF
 40
25.399999999999999
  9
$DIMLFAC
 40
1.0
  9
$DIMTOFL
 70
     0
  9
$DIMTVP
 40
1.6000000000000001
  9
$DIMTIX
 70
     1
  9
$DIMSOXD
 70
     0
  9
$DIMSAH
 70
     0
  9
$DIMBLK1
  1

  9
$DIMBLK2
  1

  9
$DIMSTYLE
  2
STANDARD
  9
$DIMCLRD
 70
     4
  9
$DIMCLRE
 70
     4
  9
$DIMCLRT
 70
     4
  9
$DIMTFAC
 40
1.0
  9
$DIMGAP
 40
0.09
  9
$LUNITS
 70
     2
  9
$LUPREC
 70
     1
  9
$SKETCHINC
 40
0.1
  9
$FILLETRAD
 40
0.0
  9
$AUNITS
 70
     0
  9
$AUPREC
 70
     0
  9
$MENU
  1
E:\r13\win\SUPPORT\ACAD
  9
$ELEVATION
 40
0.0
  9
$PELEVATION
 40
0.0
  9
$THICKNESS
 40
0.0
  9
$LIMCHECK
 70
     0
  9
$BLIPMODE
 70
     0
  9
$CHAMFERA
 40
1.1999999999999991
  9
$CHAMFERB
 40
1.1999999999999991
  9
$SKPOLY
 70
     0
  9
$TDCREATE
 40
2449983.5574884261
  9
$TDUPDATE
 40
2456598.5019089701
  9
$TDINDWG
 40
0.0033473032
  9
$TDUSRTIMER
 40
0.0033473032
  9
$USRTIMER
 70
     1
  9
$ANGBASE
 50
0.0
  9
$ANGDIR
 70
     0
  9
$PDMODE
 70
     0
  9
$PDSIZE
 40
0.0
  9
$PLINEWID
 40
0.0
  9
$COORDS
 70
     1
  9
$SPLFRAME
 70
     0
  9
$SPLINETYPE
 70
     6
  9
$SPLINESEGS
 70
     8
  9
$ATTDIA
 70
     0
  9
$ATTREQ
 70
     1
  9
$HANDLING
 70
     1
  9
$HANDSEED
  5
495
  9
$SURFTAB1
 70
     6
  9
$SURFTAB2
 70
     6
  9
$SURFTYPE
 70
     6
  9
$SURFU
 70
     6
  9
$SURFV
 70
     6
  9
$UCSNAME
  2

  9
$UCSORG
 10
0.0
 20
0.0
 30
0.0
  9
$UCSXDIR
 10
1.0
 20
0.0
 30
0.0
  9
$UCSYDIR
 10
0.0
 20
1.0
 30
0.0
  9
$PUCSNAME
  2

  9
$PUCSORG
 10
0.0
 20
0.0
 30
0.0
  9
$PUCSXDIR
 10
1.0
 20
0.0
 30
0.0
  9
$PUCSYDIR
 10
0.0
 20
1.0
 30
0.0
  9
$USERI1
 70
     0
  9
$USERI2
 70
     1
  9
$USERI3
 70
     0
  9
$USERI4
 70
     0
  9
$USERI5
 70
     0
  9
$USERR1
 40
0.0
  9
$USERR2
 40
0.0
  9
$USERR3
 40
0.0
  9
$USERR4
 40
0.0
  9
$USERR5
 40
0.0
  9
$WORLDVIEW
 70
     1
  9
$SHADEDGE
 70
     3
  9
$SHADEDIF
 70
    70
  9
$TILEMODE
 70
     1
  9
$MAXACTVP
 70
    16
  9
$PLIMCHECK
 70
     0
  9
$PEXTMIN
 10
1.0000000000000000E+020
 20
1.0000000000000000E+020
 30
1.0000000000000000E+020
  9
$PEXTMAX
 10
-1.0000000000000000E+020
 20
-1.0000000000000000E+020
 30
-1.0000000000000000E+020
  9
$PLIMMIN
 10
0.0
 20
0.0
  9
$PLIMMAX
 10
12.0
 20
9.0
  9
$UNITMODE
 70
     0
  9
$VISRETAIN
 70
     0
  9
$PLINEGEN
 70
     0
  9
$PSLTSCALE
 70
     0
  0
ENDSEC
  0
SECTION
  2
TABLES
  0
TABLE
  2
VPORT
 70
     1
  0
VPORT
  2
*ACTIVE
 70
     0
 10
0.0
 20
0.0
 11
1.0
 21
1.0
 12
187.49427839065231
 22
175.433388831352
 13
0.0
 23
0.0
 14
5.0
 24
5.0
 15
5.0
 25
5.0
 16
0.0
 26
0.0
 36
1.0
 17
0.0
 27
0.0
 37
0.0
 40
356.9701552237488
 41
1.7807262569832401
 42
50.0
 43
0.0
 44
0.0
 50
0.0
 51
0.0
 71
     0
 72
   500
 73
     1
 74
     0
 75
     0
 76
     0
 77
     0
 78
     2
  0
ENDTAB
  0
TABLE
  2
LTYPE
 70
     3
  0
LTYPE
  2
CONTINUOUS
 70
     0
  3
Solid Line
 72
    65
 73
     0
 40
0.0
  0
LTYPE
  2
CENTER
 70
     0
  3
____ _ ____ _ ____ _ ____ _ ____ _ ____ _ ____
 72
    65
 73
     4
 40
2.0
 49
1.25
 49
-0.25
 49
0.25
 49
-0.25
  0
LTYPE
  2
PHANTOM2
 70
     0
  3
___ _ _ ___ _ _ ___ _ _ ___ _ _
 72
    65
 73
     6
 40
1.25
 49
0.625
 49
-0.125
 49
0.125
 49
-0.125
 49
0.125
 49
-0.125
  0
ENDTAB
  0
TABLE
  2
LAYER
 70
     7
  0
LAYER
  2
0
 70
     0
 62
     7
  6
CONTINUOUS
  0
LAYER
  2
11
 70
     0
 62
     3
  6
CONTINUOUS
  0
LAYER
  2
ITEM_HILFE
 70
     0
 62
     7
  6
CONTINUOUS
  0
LAYER
  2
4
 70
     0
 62
     4
  6
CONTINUOUS
  0
LAYER
  2
81TEXT
 70
     0
 62
     3
  6
CONTINUOUS
  0
LAYER
  2
1
 70
     0
 62
     1
  6
CENTER
  0
LAYER
  2
3
 70
     0
 62
     3
  6
CONTINUOUS
  0
ENDTAB
  0
TABLE
  2
STYLE
 70
     2
  0
STYLE
  2
STANDARD
 70
     0
 40
0.0
 41
1.0
 50
0.0
 71
     0
 42
4.000000000000048
  3
SIMPLEX
  4
BIGFONT
  0
STYLE
  2
STANDARD1
 70
     0
 40
0.0
 41
1.0
 50
0.0
 71
     0
 42
3.0
  3
txt
  4

  0
ENDTAB
  0
TABLE
  2
VIEW
 70
     1
  0
VIEW
  2
ALL
 70
     0
 40
270.0
 10
220.78595317725751
 20
135.0
 41
441.57190635451502
 11
0.0
 21
0.0
 31
1.0
 12
0.0
 22
0.0
 32
0.0
 42
50.0
 43
0.0
 44
0.0
 50
0.0
 71
     0
  0
ENDTAB
  0
TABLE
  2
UCS
 70
     0
  0
ENDTAB
  0
TABLE
  2
APPID
 70
     3
  0
APPID
  2
ACAD
 70
     0
  0
APPID
  2
ACAD_MLEADERVER
 70
     0
  0
APPID
  2
ACAD_NAV_VCDISPLAY
 70
     0
  0
ENDTAB
  0
TABLE
  2
DIMSTYLE
 70
     1
  0
DIMSTYLE
  2
STANDARD
 70
     0
  3

  4

  5

  6

  7

 40
1.0
 41
0.18
 42
0.0625
 43
0.38
 44
0.18
 45
0.0
 46
0.0
 47
0.0
 48
0.0
140
0.18
141
0.09
142
0.0
143
25.399999999999999
144
1.0
145
0.0
146
1.0
147
0.09
 71
     0
 72
     0
 73
     1
 74
     1
 75
     0
 76
     0
 77
     0
 78
     0
170
     0
171
     2
172
     0
173
     0
174
     0
175
     0
176
     0
177
     0
178
     0
  0
ENDTAB
  0
ENDSEC
  0
SECTION
  2
BLOCKS
  0
BLOCK
  8
0
  2
$MODEL_SPACE
 70
     0
 10
0.0
 20
0.0
 30
0.0
  3
$MODEL_SPACE
  1

  0
ENDBLK
  5
34A
  8
0
  0
BLOCK
 67
     1
  8
0
  2
$PAPER_SPACE
 70
     0
 10
0.0
 20
0.0
 30
0.0
  3
$PAPER_SPACE
  1

  0
ENDBLK
  5
348
 67
     1
  8
0
  0
BLOCK
  8
0
  2
ACAD
 70
     0
 10
0.0
 20
0.0
 30
0.0
  3
ACAD
  1

  0
ENDBLK
  5
32
  8
0
  0
BLOCK
  8
0
  2
37346B
 70
     0
 10
0.0
 20
0.0
 30
0.0
  3
37346B
  1

  0
ENDBLK
  5
34
  8
0
  0
BLOCK
  8
0
  2
37390B
 70
     0
 10
0.0
 20
0.0
 30
0.0
  3
37390B
  1

  0
ENDBLK
  5
36
  8
0
  0
BLOCK
  8
4
  2
STDGX5
 70
     0
 10
0.0
 20
0.0
 30
0.0
  3
STDGX5
  1

  0
ENDBLK
  5
38
  8
4
  0
ENDSEC
  0
SECTION
  2
ENTITIES
  0
INSERT
  5
47
  8
ITEM_HILFE
  2
ACAD
 10
420.47038640269437
 20
52.14760014433341
 30
0.0
  0
INSERT
  5
48
  8
0
  2
ACAD
 10
617.03158240269443
 20
240.9286191443334
 30
0.0
  0
INSERT
  5
49
  8
0
  2
37346B
 10
415.86889140269437
 20
-65.540325855666595
 30
0.0
  0
INSERT
  5
4A
  8
0
  2
37390B
 10
415.86889140269437
 20
-65.540325855666595
 30
0.0
  0
INSERT
  5
4B
  8
0
  2
37346B
 10
415.86889140269437
 20
-65.540325855666595
 30
0.0
  0
INSERT
  5
4C
  8
0
  2
37390B
 10
415.86889140269437
 20
-65.540325855666595
 30
0.0
  0
INSERT
  5
4D
  8
0
  2
37346B
 10
434.6535064026944
 20
342.13659714433339
 30
0.0
  0
INSERT
  5
4E
  8
0
  2
37390B
 10
434.6535064026944
 20
342.13659714433339
 30
0.0
  0
INSERT
  5
4F
  8
0
  2
37346B
 10
434.6535064026944
 20
342.13659714433339
 30
0.0
  0
INSERT
  5
50
  8
0
  2
37390B
 10
434.6535064026944
 20
342.13659714433339
 30
0.0
  0
INSERT
  5
51
  8
0
  2
37390B
 10
929.27323040269437
 20
252.6224901443334
 30
0.0
  0
INSERT
  5
54
  8
4
  2
STDGX5
 10
384.92850274165249
 20
16.70417973026629
 30
0.0
  0
INSERT
  5
60
  8
81TEXT
  6
CONTINUOUS
  2
STDGX5
 10
384.92850274165249
 20
16.70417973026629
 30
0.0
  0
INSERT
  5
61
  8
0
  2
STDGX5
 10
710.74098068548881
 20
31.509951431282509
 30
0.0
  0
INSERT
  5
62
  8
0
  2
STDGX5
 10
710.74098068548881
 20
31.509951431282509
 30
0.0
  0
INSERT
  5
63
  8
0
  2
STDGX5
 10
710.74098068548881
 20
31.509951431282509
 30
0.0
  0
INSERT
  5
65
  8
4
  6
CONTINUOUS
  2
STDGX5
 10
721.21778172138727
 20
36.129803852823812
 30
0.0
  0
INSERT
  5
67
  8
81TEXT
  6
CONTINUOUS
  2
STDGX5
 10
384.92850274165249
 20
16.70417973026629
 30
0.0
  0
INSERT
  5
68
  8
81TEXT
  6
CONTINUOUS
  2
STDGX5
 10
384.92850274165249
 20
16.70417973026629
 30
0.0
  0
INSERT
  5
69
  8
81TEXT
  6
CONTINUOUS
  2
STDGX5
 10
384.92850274165249
 20
16.70417973026629
 30
0.0
  0
INSERT
  5
6C
  8
4
  2
STDGX5
 10
712.84910759001923
 20
37.625714247752263
 30
0.0
  0
INSERT
  5
78
  8
81TEXT
  6
CONTINUOUS
  2
STDGX5
 10
712.84910759001923
 20
37.625714247752263
 30
0.0
  0
INSERT
  5
79
  8
0
  2
STDGX5
 10
1038.6615855338559
 20
52.431485948768469
 30
0.0
  0
INSERT
  5
7A
  8
0
  2
STDGX5
 10
1038.6615855338559
 20
52.431485948768469
 30
0.0
  0
INSERT
  5
7B
  8
0
  2
STDGX5
 10
1038.6615855338559
 20
52.431485948768469
 30
0.0
  0
INSERT
  5
7D
  8
4
  6
CONTINUOUS
  2
STDGX5
 10
1049.1383865697539
 20
57.051338370309779
 30
0.0
  0
INSERT
  5
7F
  8
81TEXT
  6
CONTINUOUS
  2
STDGX5
 10
712.84910759001923
 20
37.625714247752263
 30
0.0
  0
INSERT
  5
80
  8
81TEXT
  6
CONTINUOUS
  2
STDGX5
 10
712.84910759001923
 20
37.625714247752263
 30
0.0
  0
INSERT
  5
81
  8
81TEXT
  6
CONTINUOUS
  2
STDGX5
 10
712.84910759001923
 20
37.625714247752263
 30
0.0
  0
INSERT
  5
83
  8
81TEXT
  6
CONTINUOUS
  2
STDGX5
 10
1046.1538348166489
 20
57.782126382280268
 30
0.0
  0
INSERT
  5
84
  8
81TEXT
  6
CONTINUOUS
  2
STDGX5
 10
1046.1538348166489
 20
57.782126382280268
 30
0.0
  0
INSERT
  5
85
  8
11
  2
STDGX5
 10
1386.2038252538921
 20
60.281984772072569
 30
0.0
  0
INSERT
  5
86
  8
4
  2
STDGX5
 10
1386.2038252538921
 20
60.281984772072569
 30
0.0
  0
INSERT
  5
87
  8
11
  2
STDGX5
 10
1413.1629282545489
 20
82.961295769244146
 30
0.0
  0
INSERT
  5
88
  8
4
  2
STDGX5
 10
1413.1629282545489
 20
82.961295769244146
 30
0.0
  0
INSERT
  5
8A
  8
81TEXT
  6
CONTINUOUS
  2
STDGX5
 10
1385.2378592971941
 20
75.624218674608898
 30
0.0
  0
INSERT
  5
8B
  8
81TEXT
  6
CONTINUOUS
  2
STDGX5
 10
1385.2378592971941
 20
75.624218674608898
 30
0.0
  0
INSERT
  5
8D
  8
81TEXT
  6
CONTINUOUS
  2
STDGX5
 10
1721.44671146885
 20
85.430273596036415
 30
0.0
  0
INSERT
  5
8E
  8
81TEXT
  6
CONTINUOUS
  2
STDGX5
 10
1721.44671146885
 20
85.430273596036415
 30
0.0
  0
INSERT
  5
90
  8
81TEXT
  6
CONTINUOUS
  2
STDGX5
 10
2080.1022373302048
 20
87.925728967705595
 30
0.0
  0
INSERT
  5
91
  8
81TEXT
  6
CONTINUOUS
  2
STDGX5
 10
2080.1022373302048
 20
87.925728967705595
 30
0.0
  0
INSERT
  5
93
  8
81TEXT
  6
CONTINUOUS
  2
STDGX5
 10
1724.5113394498931
 20
91.294003932613009
 30
0.0
  0
INSERT
  5
94
  8
81TEXT
  6
CONTINUOUS
  2
STDGX5
 10
1724.5113394498931
 20
91.294003932613009
 30
0.0
  0
INSERT
  5
96
  8
81TEXT
  6
CONTINUOUS
  2
STDGX5
 10
2083.1668653112479
 20
93.78945930428219
 30
0.0
  0
INSERT
  5
97
  8
81TEXT
  6
CONTINUOUS
  2
STDGX5
 10
2083.1668653112479
 20
93.78945930428219
 30
0.0
  0
INSERT
  5
98
  8
81TEXT
  6
CONTINUOUS
  2
STDGX5
 10
1724.5113394498931
 20
91.294003932613009
 30
0.0
  0
INSERT
  5
9A
  8
81TEXT
  6
CONTINUOUS
  2
STDGX5
 10
1386.2398725933019
 20
73.5208839643891
 30
0.0
  0
INSERT
  5
9B
  8
81TEXT
  6
CONTINUOUS
  2
STDGX5
 10
1386.2398725933019
 20
73.5208839643891
 30
0.0
  0
INSERT
  5
9D
  8
81TEXT
  6
CONTINUOUS
  2
STDGX5
 10
1739.3773341270701
 20
82.173699009793353
 30
0.0
  0
INSERT
  5
9E
  8
81TEXT
  6
CONTINUOUS
  2
STDGX5
 10
1739.3773341270701
 20
82.173699009793353
 30
0.0
  0
INSERT
  5
A0
  8
81TEXT
  6
CONTINUOUS
  2
STDGX5
 10
2098.032859988426
 20
84.669154381462533
 30
0.0
  0
INSERT
  5
A1
  8
81TEXT
  6
CONTINUOUS
  2
STDGX5
 10
2098.032859988426
 20
84.669154381462533
 30
0.0
  0
INSERT
  5
A2
  8
11
  2
STDGX5
 10
1716.471653178512
 20
77.166251802355305
 30
0.0
  0
INSERT
  5
A3
  8
4
  2
STDGX5
 10
1716.471653178512
 20
77.166251802355305
 30
0.0
  0
INSERT
  5
A4
  8
81TEXT
  6
CONTINUOUS
  2
STDGX5
 10
1386.2398725933019
 20
73.5208839643891
 30
0.0
  0
INSERT
  5
A5
  8
81TEXT
  6
CONTINUOUS
  2
STDGX5
 10
1386.2398725933019
 20
73.5208839643891
 30
0.0
  0
INSERT
  5
A7
  8
81TEXT
  6
CONTINUOUS
  2
STDGX5
 10
1389.6037899500971
 20
70.839602042582314
 30
0.0
  0
INSERT
  5
A8
  8
81TEXT
  6
CONTINUOUS
  2
STDGX5
 10
1389.6037899500971
 20
70.839602042582314
 30
0.0
  0
INSERT
  5
AA
  8
81TEXT
  6
CONTINUOUS
  2
STDGX5
 10
1748.2593158114521
 20
73.335057414251509
 30
0.0
  0
INSERT
  5
AB
  8
81TEXT
  6
CONTINUOUS
  2
STDGX5
 10
1748.2593158114521
 20
73.335057414251509
 30
0.0
  0
INSERT
  5
AC
  8
81TEXT
  6
CONTINUOUS
  2
STDGX5
 10
1389.6037899500971
 20
70.839602042582314
 30
0.0
  0
INSERT
  5
AE
  8
81TEXT
  6
CONTINUOUS
  2
STDGX5
 10
1391.365217243341
 20
78.703423163487685
 30
0.0
  0
INSERT
  5
B0
  8
81TEXT
  6
CONTINUOUS
  2
STDGX5
 10
1382.6657869345649
 20
66.228573406750201
 30
0.0
  0
INSERT
  5
B1
  8
81TEXT
  6
CONTINUOUS
  2
STDGX5
 10
1382.6657869345649
 20
66.228573406750201
 30
0.0
  0
INSERT
  5
B3
  8
81TEXT
  6
CONTINUOUS
  2
STDGX5
 10
1718.8746391062209
 20
76.034628328177718
 30
0.0
  0
INSERT
  5
B4
  8
81TEXT
  6
CONTINUOUS
  2
STDGX5
 10
1718.8746391062209
 20
76.034628328177718
 30
0.0
  0
INSERT
  5
B6
  8
81TEXT
  6
CONTINUOUS
  2
STDGX5
 10
2077.5301649675762
 20
78.530083699846884
 30
0.0
  0
INSERT
  5
B7
  8
81TEXT
  6
CONTINUOUS
  2
STDGX5
 10
2077.5301649675762
 20
78.530083699846884
 30
0.0
  0
INSERT
  5
B9
  8
81TEXT
  6
CONTINUOUS
  2
STDGX5
 10
1721.9392670872639
 20
81.898358664754326
 30
0.0
  0
INSERT
  5
BA
  8
81TEXT
  6
CONTINUOUS
  2
STDGX5
 10
1721.9392670872639
 20
81.898358664754326
 30
0.0
  0
INSERT
  5
BC
  8
81TEXT
  6
CONTINUOUS
  2
STDGX5
 10
2080.5947929486192
 20
84.393814036423464
 30
0.0
  0
INSERT
  5
BD
  8
81TEXT
  6
CONTINUOUS
  2
STDGX5
 10
2080.5947929486192
 20
84.393814036423464
 30
0.0
  0
INSERT
  5
BE
  8
81TEXT
  6
CONTINUOUS
  2
STDGX5
 10
1721.9392670872639
 20
81.898358664754326
 30
0.0
  0
INSERT
  5
BF
  8
0
  2
STDGX5
 10
1403.623889955272
 20
96.64072575090438
 30
0.0
 41
0.3
 42
0.3
 43
0.3
  0
INSERT
  5
C0
  8
0
  2
STDGX5
 10
1403.623889955272
 20
96.64072575090438
 30
0.0
 41
0.3
 42
0.3
 43
0.3
  0
INSERT
  5
C1
  8
0
  2
STDGX5
 10
1421.8104234722191
 20
110.14072575090439
 30
0.0
 41
0.3
 42
0.3
 43
0.3
  0
INSERT
  5
C2
  8
0
  2
STDGX5
 10
1590.430890487705
 20
138.49716230098599
 30
0.0
 41
0.3
 42
0.3
 43
0.3
  0
INSERT
  5
C3
  8
0
  2
STDGX5
 10
1558.0593681816069
 20
168.37366658709561
 30
0.0
 41
0.3
 42
0.3
 43
0.3
  0
INSERT
  5
C4
  8
0
  2
STDGX5
 10
1558.0593681816069
 20
168.37366658709561
 30
0.0
 41
0.3
 42
0.3
 43
0.3
  0
INSERT
  5
C6
  8
81TEXT
  6
CONTINUOUS
  2
STDGX5
 10
1034.0023134625001
 20
46.587742588264142
 30
0.0
  0
INSERT
  5
C7
  8
81TEXT
  6
CONTINUOUS
  2
STDGX5
 10
1034.0023134625001
 20
46.587742588264142
 30
0.0
  0
INSERT
  5
C8
  8
11
  2
STDGX5
 10
1374.052303899743
 20
49.087600978056429
 30
0.0
  0
INSERT
  5
C9
  8
4
  2
STDGX5
 10
1374.052303899743
 20
49.087600978056429
 30
0.0
  0
INSERT
  5
CA
  8
11
  2
STDGX5
 10
1401.0114069004001
 20
71.766911975227984
 30
0.0
  0
INSERT
  5
CB
  8
4
  2
STDGX5
 10
1401.0114069004001
 20
71.766911975227984
 30
0.0
  0
INSERT
  5
CD
  8
81TEXT
  6
CONTINUOUS
  2
STDGX5
 10
1373.086337943045
 20
64.429834880592779
 30
0.0
  0
INSERT
  5
CE
  8
81TEXT
  6
CONTINUOUS
  2
STDGX5
 10
1373.086337943045
 20
64.429834880592779
 30
0.0
  0
INSERT
  5
D0
  8
81TEXT
  6
CONTINUOUS
  2
STDGX5
 10
1709.295190114701
 20
74.235889802020296
 30
0.0
  0
INSERT
  5
D1
  8
81TEXT
  6
CONTINUOUS
  2
STDGX5
 10
1709.295190114701
 20
74.235889802020296
 30
0.0
  0
INSERT
  5
D3
  8
81TEXT
  6
CONTINUOUS
  2
STDGX5
 10
2067.950715976056
 20
76.731345173689476
 30
0.0
  0
INSERT
  5
D4
  8
81TEXT
  6
CONTINUOUS
  2
STDGX5
 10
2067.950715976056
 20
76.731345173689476
 30
0.0
  0
INSERT
  5
D6
  8
81TEXT
  6
CONTINUOUS
  2
STDGX5
 10
1712.359818095744
 20
80.099620138596904
 30
0.0
  0
INSERT
  5
D7
  8
81TEXT
  6
CONTINUOUS
  2
STDGX5
 10
1712.359818095744
 20
80.099620138596904
 30
0.0
  0
INSERT
  5
D9
  8
81TEXT
  6
CONTINUOUS
  2
STDGX5
 10
2071.015343957099
 20
82.595075510266042
 30
0.0
  0
INSERT
  5
DA
  8
81TEXT
  6
CONTINUOUS
  2
STDGX5
 10
2071.015343957099
 20
82.595075510266042
 30
0.0
  0
INSERT
  5
DB
  8
81TEXT
  6
CONTINUOUS
  2
STDGX5
 10
1712.359818095744
 20
80.099620138596904
 30
0.0
  0
INSERT
  5
DD
  8
81TEXT
  6
CONTINUOUS
  2
STDGX5
 10
1374.0883512391531
 20
62.326500170372967
 30
0.0
  0
INSERT
  5
DE
  8
81TEXT
  6
CONTINUOUS
  2
STDGX5
 10
1374.0883512391531
 20
62.326500170372967
 30
0.0
  0
INSERT
  5
E0
  8
81TEXT
  6
CONTINUOUS
  2
STDGX5
 10
1727.225812772921
 20
70.979315215777234
 30
0.0
  0
INSERT
  5
E1
  8
81TEXT
  6
CONTINUOUS
  2
STDGX5
 10
1727.225812772921
 20
70.979315215777234
 30
0.0
  0
INSERT
  5
E3
  8
81TEXT
  6
CONTINUOUS
  2
STDGX5
 10
2085.8813386342772
 20
73.4747705874464
 30
0.0
  0
INSERT
  5
E4
  8
81TEXT
  6
CONTINUOUS
  2
STDGX5
 10
2085.8813386342772
 20
73.4747705874464
 30
0.0
  0
INSERT
  5
E5
  8
11
  2
STDGX5
 10
1704.320131824363
 20
65.971868008339186
 30
0.0
  0
INSERT
  5
E6
  8
4
  2
STDGX5
 10
1704.320131824363
 20
65.971868008339186
 30
0.0
  0
INSERT
  5
E7
  8
81TEXT
  6
CONTINUOUS
  2
STDGX5
 10
1374.0883512391531
 20
62.326500170372967
 30
0.0
  0
INSERT
  5
E8
  8
81TEXT
  6
CONTINUOUS
  2
STDGX5
 10
1374.0883512391531
 20
62.326500170372967
 30
0.0
  0
INSERT
  5
EA
  8
81TEXT
  6
CONTINUOUS
  2
STDGX5
 10
1377.452268595948
 20
59.645218248566188
 30
0.0
  0
INSERT
  5
EB
  8
81TEXT
  6
CONTINUOUS
  2
STDGX5
 10
1377.452268595948
 20
59.645218248566188
 30
0.0
  0
INSERT
  5
ED
  8
81TEXT
  6
CONTINUOUS
  2
STDGX5
 10
1736.107794457304
 20
62.140673620235368
 30
0.0
  0
INSERT
  5
EE
  8
81TEXT
  6
CONTINUOUS
  2
STDGX5
 10
1736.107794457304
 20
62.140673620235368
 30
0.0
  0
INSERT
  5
EF
  8
81TEXT
  6
CONTINUOUS
  2
STDGX5
 10
1377.452268595948
 20
59.645218248566188
 30
0.0
  0
INSERT
  5
F1
  8
81TEXT
  6
CONTINUOUS
  2
STDGX5
 10
1379.213695889192
 20
67.509039369471552
 30
0.0
  0
INSERT
  5
F3
  8
81TEXT
  6
CONTINUOUS
  2
STDGX5
 10
1370.5142655804159
 20
55.034189612734068
 30
0.0
  0
INSERT
  5
F4
  8
81TEXT
  6
CONTINUOUS
  2
STDGX5
 10
1370.5142655804159
 20
55.034189612734068
 30
0.0
  0
INSERT
  5
F6
  8
81TEXT
  6
CONTINUOUS
  2
STDGX5
 10
1706.7231177520721
 20
64.840244534161599
 30
0.0
  0
INSERT
  5
F7
  8
81TEXT
  6
CONTINUOUS
  2
STDGX5
 10
1706.7231177520721
 20
64.840244534161599
 30
0.0
  0
INSERT
  5
F9
  8
81TEXT
  6
CONTINUOUS
  2
STDGX5
 10
2065.3786436134269
 20
67.335699905830765
 30
0.0
  0
INSERT
  5
FA
  8
81TEXT
  6
CONTINUOUS
  2
STDGX5
 10
2065.3786436134269
 20
67.335699905830765
 30
0.0
  0
INSERT
  5
FC
  8
81TEXT
  6
CONTINUOUS
  2
STDGX5
 10
1709.787745733114
 20
70.703974870738165
 30
0.0
  0
INSERT
  5
FD
  8
81TEXT
  6
CONTINUOUS
  2
STDGX5
 10
1709.787745733114
 20
70.703974870738165
 30
0.0
  0
INSERT
  5
FF
  8
81TEXT
  6
CONTINUOUS
  2
STDGX5
 10
2068.4432715944699
 20
73.199430242407345
 30
0.0
  0
INSERT
  5
100
  8
81TEXT
  6
CONTINUOUS
  2
STDGX5
 10
2068.4432715944699
 20
73.199430242407345
 30
0.0
  0
INSERT
  5
101
  8
81TEXT
  6
CONTINUOUS
  2
STDGX5
 10
1709.787745733114
 20
70.703974870738165
 30
0.0
  0
INSERT
  5
102
  8
0
  2
STDGX5
 10
1391.472368601123
 20
85.446341956888233
 30
0.0
 41
0.3
 42
0.3
 43
0.3
  0
INSERT
  5
103
  8
0
  2
STDGX5
 10
1391.472368601123
 20
85.446341956888233
 30
0.0
 41
0.3
 42
0.3
 43
0.3
  0
INSERT
  5
104
  8
0
  2
STDGX5
 10
1409.65890211807
 20
98.946341956888233
 30
0.0
 41
0.3
 42
0.3
 43
0.3
  0
INSERT
  5
105
  8
0
  2
STDGX5
 10
1578.279369133556
 20
127.3027785069699
 30
0.0
 41
0.3
 42
0.3
 43
0.3
  0
INSERT
  5
106
  8
0
  2
STDGX5
 10
1545.9078468274579
 20
157.17928279307941
 30
0.0
 41
0.3
 42
0.3
 43
0.3
  0
INSERT
  5
107
  8
0
  2
STDGX5
 10
1545.9078468274579
 20
157.17928279307941
 30
0.0
 41
0.3
 42
0.3
 43
0.3
  0
INSERT
  5
108
  8
11
  2
STDGX5
 10
1357.319436277427
 20
57.141517843099621
 30
0.0
  0
INSERT
  5
109
  8
4
  2
STDGX5
 10
1357.319436277427
 20
57.141517843099621
 30
0.0
  0
INSERT
  5
10B
  8
ITEM_HILFE
  2
ACAD
 10
749.33293494902648
 20
72.136818317336505
 30
0.0
  0
INSERT
  5
10C
  8
0
  2
ACAD
 10
945.89413094902648
 20
260.91783731733648
 30
0.0
  0
INSERT
  5
10D
  8
0
  2
37346B
 10
744.73143994902648
 20
-45.551107682663478
 30
0.0
  0
INSERT
  5
10E
  8
0
  2
37390B
 10
744.73143994902648
 20
-45.551107682663478
 30
0.0
  0
INSERT
  5
10F
  8
0
  2
37346B
 10
744.73143994902648
 20
-45.551107682663478
 30
0.0
  0
INSERT
  5
110
  8
0
  2
37390B
 10
744.73143994902648
 20
-45.551107682663478
 30
0.0
  0
INSERT
  5
111
  8
0
  2
37346B
 10
763.51605494902651
 20
362.1258153173365
 30
0.0
  0
INSERT
  5
112
  8
0
  2
37390B
 10
763.51605494902651
 20
362.1258153173365
 30
0.0
  0
INSERT
  5
113
  8
0
  2
37346B
 10
763.51605494902651
 20
362.1258153173365
 30
0.0
  0
INSERT
  5
114
  8
0
  2
37390B
 10
763.51605494902651
 20
362.1258153173365
 30
0.0
  0
INSERT
  5
115
  8
0
  2
37390B
 10
1258.135778949026
 20
272.61170831733648
 30
0.0
  0
INSERT
  5
118
  8
4
  2
STDGX5
 10
713.61826792977104
 20
36.474520937613683
 30
0.0
  0
INSERT
  5
124
  8
81TEXT
  6
CONTINUOUS
  2
STDGX5
 10
713.61826792977104
 20
36.474520937613683
 30
0.0
  0
INSERT
  5
125
  8
0
  2
STDGX5
 10
1039.4307458736071
 20
51.280292638629881
 30
0.0
  0
INSERT
  5
126
  8
0
  2
STDGX5
 10
1039.4307458736071
 20
51.280292638629881
 30
0.0
  0
INSERT
  5
127
  8
0
  2
STDGX5
 10
1039.4307458736071
 20
51.280292638629881
 30
0.0
  0
INSERT
  5
129
  8
4
  6
CONTINUOUS
  2
STDGX5
 10
1049.907546909506
 20
55.900145060171198
 30
0.0
  0
INSERT
  5
12C
  8
4
  2
STDGX5
 10
389.91445290003281
 20
27.272826542014439
 30
0.0
  0
INSERT
  5
138
  8
81TEXT
  6
CONTINUOUS
  2
STDGX5
 10
389.91445290003281
 20
27.272826542014439
 30
0.0
  0
INSERT
  5
139
  8
0
  2
STDGX5
 10
715.72693084386924
 20
42.07859824303064
 30
0.0
  0
INSERT
  5
13A
  8
0
  2
STDGX5
 10
715.72693084386924
 20
42.07859824303064
 30
0.0
  0
INSERT
  5
13B
  8
0
  2
STDGX5
 10
715.72693084386924
 20
42.07859824303064
 30
0.0
  0
INSERT
  5
13D
  8
4
  6
CONTINUOUS
  2
STDGX5
 10
726.2037318797677
 20
46.698450664571951
 30
0.0
  0
INSERT
  5
13F
  8
81TEXT
  6
CONTINUOUS
  2
STDGX5
 10
389.91445290003281
 20
27.272826542014439
 30
0.0
  0
INSERT
  5
140
  8
81TEXT
  6
CONTINUOUS
  2
STDGX5
 10
389.91445290003281
 20
27.272826542014439
 30
0.0
  0
INSERT
  5
141
  8
81TEXT
  6
CONTINUOUS
  2
STDGX5
 10
389.91445290003281
 20
27.272826542014439
 30
0.0
  0
INSERT
  5
148
  8
0
  2
STDGX5
 10
721.30197722573155
 20
57.789762450802371
 30
0.0
  0
INSERT
  5
149
  8
0
  2
STDGX5
 10
721.30197722573155
 20
57.789762450802371
 30
0.0
  0
INSERT
  5
14A
  8
0
  2
STDGX5
 10
719.00821324068306
 20
54.334805070745382
 30
0.0
  0
INSERT
  5
14B
  8
0
  2
STDGX5
 10
719.00821324068306
 20
54.334805070745382
 30
0.0
  0
INSERT
  5
14C
  8
0
  2
STDGX5
 10
718.99453826056276
 20
52.806153771457993
 30
0.0
 41
0.5
 42
0.5
 43
0.5
  0
INSERT
  5
14D
  8
0
  2
STDGX5
 10
718.99453826056276
 20
52.806153771457993
 30
0.0
 41
0.5
 42
0.5
 43
0.5
  0
INSERT
  5
14E
  8
0
  2
STDGX5
 10
710.58576481380101
 20
46.048282486013662
 30
0.0
 41
0.5
 42
0.5
 43
0.5
  0
INSERT
  5
14F
  8
0
  2
STDGX5
 10
710.58576481380101
 20
46.048282486013662
 30
0.0
 41
0.5
 42
0.5
 43
0.5
  0
INSERT
  5
150
  8
0
  2
STDGX5
 10
808.6291883387172
 20
52.97730189637759
 30
0.0
 41
0.5
 42
0.5
 43
0.5
  0
INSERT
  5
151
  8
0
  2
STDGX5
 10
808.6291883387172
 20
52.97730189637759
 30
0.0
 41
0.5
 42
0.5
 43
0.5
  0
INSERT
  5
152
  8
0
  2
STDGX5
 10
948.87710354958699
 20
58.599936639708417
 30
0.0
 41
0.5
 42
0.5
 43
0.5
  0
INSERT
  5
153
  8
0
  2
STDGX5
 10
948.87710354958699
 20
58.599936639708417
 30
0.0
 41
0.5
 42
0.5
 43
0.5
  0
INSERT
  5
154
  8
0
  2
STDGX5
 10
948.87710354958699
 20
57.577153877088598
 30
0.0
 41
0.5
 42
0.5
 43
0.5
  0
INSERT
  5
155
  8
0
  2
STDGX5
 10
948.87710354958699
 20
57.577153877088598
 30
0.0
 41
0.5
 42
0.5
 43
0.5
  0
INSERT
  5
156
  8
0
  2
STDGX5
 10
949.61110388099348
 20
61.666878506911338
 30
0.0
 41
0.5
 42
0.5
 43
0.5
  0
INSERT
  5
157
  8
0
  2
STDGX5
 10
949.61110388099348
 20
61.666878506911338
 30
0.0
 41
0.5
 42
0.5
 43
0.5
  0
INSERT
  5
158
  8
0
  2
STDGX5
 10
531.88193560959519
 20
73.541672296758989
 30
0.0
  0
INSERT
  5
159
  8
0
  2
STDGX5
 10
531.88193560959519
 20
73.541672296758989
 30
0.0
  0
INSERT
  5
15A
  8
0
  2
STDGX5
 10
531.88193560959519
 20
73.541672296758989
 30
0.0
  0
INSERT
  5
15B
  8
0
  2
STDGX5
 10
531.88193560959519
 20
73.541672296758989
 30
0.0
  0
INSERT
  5
15C
  8
0
  2
STDGX5
 10
531.88193560959519
 20
73.541672296758989
 30
0.0
  0
INSERT
  5
15D
  8
0
  2
STDGX5
 10
531.88193560959519
 20
73.541672296758989
 30
0.0
  0
INSERT
  5
160
  8
4
  2
STDGX5
 10
723.98834046641423
 20
45.891974439223247
 30
0.0
  0
INSERT
  5
16C
  8
81TEXT
  6
CONTINUOUS
  2
STDGX5
 10
723.98834046641423
 20
45.891974439223247
 30
0.0
  0
INSERT
  5
16D
  8
0
  2
STDGX5
 10
1049.80081841025
 20
60.69774614023946
 30
0.0
  0
INSERT
  5
16E
  8
0
  2
STDGX5
 10
1049.80081841025
 20
60.69774614023946
 30
0.0
  0
INSERT
  5
16F
  8
0
  2
STDGX5
 10
1049.80081841025
 20
60.69774614023946
 30
0.0
  0
INSERT
  5
171
  8
4
  6
CONTINUOUS
  2
STDGX5
 10
1060.2776194461489
 20
65.317598561780756
 30
0.0
  0
INSERT
  5
173
  8
81TEXT
  6
CONTINUOUS
  2
STDGX5
 10
723.98834046641423
 20
45.891974439223247
 30
0.0
  0
INSERT
  5
174
  8
81TEXT
  6
CONTINUOUS
  2
STDGX5
 10
723.98834046641423
 20
45.891974439223247
 30
0.0
  0
INSERT
  5
175
  8
81TEXT
  6
CONTINUOUS
  2
STDGX5
 10
723.98834046641423
 20
45.891974439223247
 30
0.0
  0
INSERT
  5
178
  8
4
  2
STDGX5
 10
721.70105585975512
 20
49.340098585835307
 30
0.0
  0
INSERT
  5
184
  8
81TEXT
  6
CONTINUOUS
  2
STDGX5
 10
721.70105585975512
 20
49.340098585835307
 30
0.0
  0
INSERT
  5
185
  8
0
  2
STDGX5
 10
1047.5135338035909
 20
64.145870286851505
 30
0.0
  0
INSERT
  5
186
  8
0
  2
STDGX5
 10
1047.5135338035909
 20
64.145870286851505
 30
0.0
  0
INSERT
  5
187
  8
0
  2
STDGX5
 10
1047.5135338035909
 20
64.145870286851505
 30
0.0
  0
INSERT
  5
189
  8
4
  6
CONTINUOUS
  2
STDGX5
 10
1057.9903348394901
 20
68.765722708392815
 30
0.0
  0
INSERT
  5
18B
  8
81TEXT
  6
CONTINUOUS
  2
STDGX5
 10
721.70105585975512
 20
49.340098585835307
 30
0.0
  0
INSERT
  5
18C
  8
81TEXT
  6
CONTINUOUS
  2
STDGX5
 10
721.70105585975512
 20
49.340098585835307
 30
0.0
  0
INSERT
  5
18D
  8
81TEXT
  6
CONTINUOUS
  2
STDGX5
 10
721.70105585975512
 20
49.340098585835307
 30
0.0
  0
INSERT
  5
194
  8
0
  2
STDGX5
 10
1053.088580185454
 20
79.857034494623235
 30
0.0
  0
INSERT
  5
195
  8
0
  2
STDGX5
 10
1053.088580185454
 20
79.857034494623235
 30
0.0
  0
INSERT
  5
196
  8
0
  2
STDGX5
 10
1050.794816200405
 20
76.402077114566254
 30
0.0
  0
INSERT
  5
197
  8
0
  2
STDGX5
 10
1050.794816200405
 20
76.402077114566254
 30
0.0
  0
INSERT
  5
198
  8
0
  2
STDGX5
 10
1050.781141220285
 20
74.873425815278864
 30
0.0
 41
0.5
 42
0.5
 43
0.5
  0
INSERT
  5
199
  8
0
  2
STDGX5
 10
1050.781141220285
 20
74.873425815278864
 30
0.0
 41
0.5
 42
0.5
 43
0.5
  0
INSERT
  5
19A
  8
0
  2
STDGX5
 10
1042.3723677735229
 20
68.115554529834526
 30
0.0
 41
0.5
 42
0.5
 43
0.5
  0
INSERT
  5
19B
  8
0
  2
STDGX5
 10
1042.3723677735229
 20
68.115554529834526
 30
0.0
 41
0.5
 42
0.5
 43
0.5
  0
INSERT
  5
19C
  8
0
  2
STDGX5
 10
1140.4157912984399
 20
75.044573940198461
 30
0.0
 41
0.5
 42
0.5
 43
0.5
  0
INSERT
  5
19D
  8
0
  2
STDGX5
 10
1140.4157912984399
 20
75.044573940198461
 30
0.0
 41
0.5
 42
0.5
 43
0.5
  0
INSERT
  5
19E
  8
0
  2
STDGX5
 10
1280.6637065093089
 20
80.667208683529296
 30
0.0
 41
0.5
 42
0.5
 43
0.5
  0
INSERT
  5
19F
  8
0
  2
STDGX5
 10
1280.6637065093089
 20
80.667208683529296
 30
0.0
 41
0.5
 42
0.5
 43
0.5
  0
INSERT
  5
1A0
  8
0
  2
STDGX5
 10
1280.6637065093089
 20
79.644425920909455
 30
0.0
 41
0.5
 42
0.5
 43
0.5
  0
INSERT
  5
1A1
  8
0
  2
STDGX5
 10
1280.6637065093089
 20
79.644425920909455
 30
0.0
 41
0.5
 42
0.5
 43
0.5
  0
INSERT
  5
1A2
  8
0
  2
STDGX5
 10
1281.397706840716
 20
83.734150550732224
 30
0.0
 41
0.5
 42
0.5
 43
0.5
  0
INSERT
  5
1A3
  8
0
  2
STDGX5
 10
1281.397706840716
 20
83.734150550732224
 30
0.0
 41
0.5
 42
0.5
 43
0.5
  0
INSERT
  5
1A4
  8
0
  2
STDGX5
 10
863.66853856931755
 20
95.608944340579853
 30
0.0
  0
INSERT
  5
1A5
  8
0
  2
STDGX5
 10
863.66853856931755
 20
95.608944340579853
 30
0.0
  0
INSERT
  5
1A6
  8
0
  2
STDGX5
 10
863.66853856931755
 20
95.608944340579853
 30
0.0
  0
INSERT
  5
1A7
  8
0
  2
STDGX5
 10
863.66853856931755
 20
95.608944340579853
 30
0.0
  0
INSERT
  5
1A8
  8
0
  2
STDGX5
 10
863.66853856931755
 20
95.608944340579853
 30
0.0
  0
INSERT
  5
1A9
  8
0
  2
STDGX5
 10
863.66853856931755
 20
95.608944340579853
 30
0.0
  0
INSERT
  5
1AC
  8
4
  2
STDGX5
 10
1055.7749434261359
 20
67.959246483044112
 30
0.0
  0
INSERT
  5
1B8
  8
81TEXT
  6
CONTINUOUS
  2
STDGX5
 10
1055.7749434261359
 20
67.959246483044112
 30
0.0
  0
INSERT
  5
1B9
  8
0
  2
STDGX5
 10
1381.5874213699731
 20
82.765018184060324
 30
0.0
  0
INSERT
  5
1BA
  8
0
  2
STDGX5
 10
1381.5874213699731
 20
82.765018184060324
 30
0.0
  0
INSERT
  5
1BB
  8
0
  2
STDGX5
 10
1381.5874213699731
 20
82.765018184060324
 30
0.0
  0
INSERT
  5
1BD
  8
4
  6
CONTINUOUS
  2
STDGX5
 10
1392.0642224058711
 20
87.384870605601634
 30
0.0
  0
INSERT
  5
1BF
  8
81TEXT
  6
CONTINUOUS
  2
STDGX5
 10
1055.7749434261359
 20
67.959246483044112
 30
0.0
  0
INSERT
  5
1C0
  8
81TEXT
  6
CONTINUOUS
  2
STDGX5
 10
1055.7749434261359
 20
67.959246483044112
 30
0.0
  0
INSERT
  5
1C1
  8
81TEXT
  6
CONTINUOUS
  2
STDGX5
 10
1055.7749434261359
 20
67.959246483044112
 30
0.0
  0
INSERT
  5
1C4
  8
4
  2
STDGX5
 10
392.61841951349948
 20
16.451657205637879
 30
0.0
  0
INSERT
  5
1D0
  8
81TEXT
  6
CONTINUOUS
  2
STDGX5
 10
392.61841951349948
 20
16.451657205637879
 30
0.0
  0
INSERT
  5
1D1
  8
0
  2
STDGX5
 10
718.43089745733585
 20
31.257428906654091
 30
0.0
  0
INSERT
  5
1D2
  8
0
  2
STDGX5
 10
718.43089745733585
 20
31.257428906654091
 30
0.0
  0
INSERT
  5
1D3
  8
0
  2
STDGX5
 10
718.43089745733585
 20
31.257428906654091
 30
0.0
  0
INSERT
  5
1D5
  8
4
  6
CONTINUOUS
  2
STDGX5
 10
728.90769849323442
 20
35.877281328195401
 30
0.0
  0
INSERT
  5
1D7
  8
81TEXT
  6
CONTINUOUS
  2
STDGX5
 10
392.61841951349948
 20
16.451657205637879
 30
0.0
  0
INSERT
  5
1D8
  8
81TEXT
  6
CONTINUOUS
  2
STDGX5
 10
392.61841951349948
 20
16.451657205637879
 30
0.0
  0
INSERT
  5
1D9
  8
81TEXT
  6
CONTINUOUS
  2
STDGX5
 10
392.61841951349948
 20
16.451657205637879
 30
0.0
  0
INSERT
  5
1E0
  8
0
  2
STDGX5
 10
724.00594383919827
 20
46.968593114425808
 30
0.0
  0
INSERT
  5
1E1
  8
0
  2
STDGX5
 10
724.00594383919827
 20
46.968593114425808
 30
0.0
  0
INSERT
  5
1E2
  8
0
  2
STDGX5
 10
721.71217985414989
 20
43.513635734368819
 30
0.0
  0
INSERT
  5
1E3
  8
0
  2
STDGX5
 10
721.71217985414989
 20
43.513635734368819
 30
0.0
  0
INSERT
  5
1E4
  8
0
  2
STDGX5
 10
721.6985048740296
 20
41.984984435081437
 30
0.0
 41
0.5
 42
0.5
 43
0.5
  0
INSERT
  5
1E5
  8
0
  2
STDGX5
 10
721.6985048740296
 20
41.984984435081437
 30
0.0
 41
0.5
 42
0.5
 43
0.5
  0
INSERT
  5
1E6
  8
0
  2
STDGX5
 10
713.28973142726772
 20
35.227113149637113
 30
0.0
 41
0.5
 42
0.5
 43
0.5
  0
INSERT
  5
1E7
  8
0
  2
STDGX5
 10
713.28973142726772
 20
35.227113149637113
 30
0.0
 41
0.5
 42
0.5
 43
0.5
  0
INSERT
  5
1E8
  8
0
  2
STDGX5
 10
811.33315495218403
 20
42.156132560001033
 30
0.0
 41
0.5
 42
0.5
 43
0.5
  0
INSERT
  5
1E9
  8
0
  2
STDGX5
 10
811.33315495218403
 20
42.156132560001033
 30
0.0
 41
0.5
 42
0.5
 43
0.5
  0
INSERT
  5
1EA
  8
0
  2
STDGX5
 10
951.5810701630536
 20
47.778767303331847
 30
0.0
 41
0.5
 42
0.5
 43
0.5
  0
INSERT
  5
1EB
  8
0
  2
STDGX5
 10
951.5810701630536
 20
47.778767303331847
 30
0.0
 41
0.5
 42
0.5
 43
0.5
  0
INSERT
  5
1EC
  8
0
  2
STDGX5
 10
951.5810701630536
 20
46.755984540712049
 30
0.0
 41
0.5
 42
0.5
 43
0.5
  0
INSERT
  5
1ED
  8
0
  2
STDGX5
 10
951.5810701630536
 20
46.755984540712049
 30
0.0
 41
0.5
 42
0.5
 43
0.5
  0
INSERT
  5
1EE
  8
0
  2
STDGX5
 10
952.31507049446031
 20
50.845709170534782
 30
0.0
 41
0.5
 42
0.5
 43
0.5
  0
INSERT
  5
1EF
  8
0
  2
STDGX5
 10
952.31507049446031
 20
50.845709170534782
 30
0.0
 41
0.5
 42
0.5
 43
0.5
  0
INSERT
  5
1F0
  8
0
  2
STDGX5
 10
534.58590222306191
 20
62.720502960382419
 30
0.0
  0
INSERT
  5
1F1
  8
0
  2
STDGX5
 10
534.58590222306191
 20
62.720502960382419
 30
0.0
  0
INSERT
  5
1F2
  8
0
  2
STDGX5
 10
534.58590222306191
 20
62.720502960382419
 30
0.0
  0
INSERT
  5
1F3
  8
0
  2
STDGX5
 10
534.58590222306191
 20
62.720502960382419
 30
0.0
  0
INSERT
  5
1F4
  8
0
  2
STDGX5
 10
534.58590222306191
 20
62.720502960382419
 30
0.0
  0
INSERT
  5
1F5
  8
0
  2
STDGX5
 10
534.58590222306191
 20
62.720502960382419
 30
0.0
  0
INSERT
  5
1F8
  8
4
  2
STDGX5
 10
726.69230707988095
 20
35.070805102846691
 30
0.0
  0
INSERT
  5
204
  8
81TEXT
  6
CONTINUOUS
  2
STDGX5
 10
726.69230707988095
 20
35.070805102846691
 30
0.0
  0
INSERT
  5
205
  8
0
  2
STDGX5
 10
1052.504785023717
 20
49.876576803862889
 30
0.0
  0
INSERT
  5
206
  8
0
  2
STDGX5
 10
1052.504785023717
 20
49.876576803862889
 30
0.0
  0
INSERT
  5
207
  8
0
  2
STDGX5
 10
1052.504785023717
 20
49.876576803862889
 30
0.0
  0
INSERT
  5
209
  8
4
  6
CONTINUOUS
  2
STDGX5
 10
1062.9815860596159
 20
54.496429225404199
 30
0.0
  0
INSERT
  5
20B
  8
81TEXT
  6
CONTINUOUS
  2
STDGX5
 10
726.69230707988095
 20
35.070805102846691
 30
0.0
  0
INSERT
  5
20C
  8
81TEXT
  6
CONTINUOUS
  2
STDGX5
 10
726.69230707988095
 20
35.070805102846691
 30
0.0
  0
INSERT
  5
20D
  8
81TEXT
  6
CONTINUOUS
  2
STDGX5
 10
726.69230707988095
 20
35.070805102846691
 30
0.0
  0
INSERT
  5
210
  8
4
  2
STDGX5
 10
724.40502247322183
 20
38.518929249458743
 30
0.0
  0
INSERT
  5
21C
  8
81TEXT
  6
CONTINUOUS
  2
STDGX5
 10
724.40502247322183
 20
38.518929249458743
 30
0.0
  0
INSERT
  5
21D
  8
0
  2
STDGX5
 10
1050.2175004170581
 20
53.324700950474949
 30
0.0
  0
INSERT
  5
21E
  8
0
  2
STDGX5
 10
1050.2175004170581
 20
53.324700950474949
 30
0.0
  0
INSERT
  5
21F
  8
0
  2
STDGX5
 10
1050.2175004170581
 20
53.324700950474949
 30
0.0
  0
INSERT
  5
221
  8
4
  6
CONTINUOUS
  2
STDGX5
 10
1060.694301452957
 20
57.944553372016259
 30
0.0
  0
INSERT
  5
223
  8
81TEXT
  6
CONTINUOUS
  2
STDGX5
 10
724.40502247322183
 20
38.518929249458743
 30
0.0
  0
INSERT
  5
224
  8
81TEXT
  6
CONTINUOUS
  2
STDGX5
 10
724.40502247322183
 20
38.518929249458743
 30
0.0
  0
INSERT
  5
225
  8
81TEXT
  6
CONTINUOUS
  2
STDGX5
 10
724.40502247322183
 20
38.518929249458743
 30
0.0
  0
INSERT
  5
22C
  8
0
  2
STDGX5
 10
1055.792546798921
 20
69.035865158246679
 30
0.0
  0
INSERT
  5
22D
  8
0
  2
STDGX5
 10
1055.792546798921
 20
69.035865158246679
 30
0.0
  0
INSERT
  5
22E
  8
0
  2
STDGX5
 10
1053.4987828138719
 20
65.580907778189697
 30
0.0
  0
INSERT
  5
22F
  8
0
  2
STDGX5
 10
1053.4987828138719
 20
65.580907778189697
 30
0.0
  0
INSERT
  5
230
  8
0
  2
STDGX5
 10
1053.485107833752
 20
64.052256478902294
 30
0.0
 41
0.5
 42
0.5
 43
0.5
  0
INSERT
  5
231
  8
0
  2
STDGX5
 10
1053.485107833752
 20
64.052256478902294
 30
0.0
 41
0.5
 42
0.5
 43
0.5
  0
INSERT
  5
232
  8
0
  2
STDGX5
 10
1045.0763343869901
 20
57.29438519345797
 30
0.0
 41
0.5
 42
0.5
 43
0.5
  0
INSERT
  5
233
  8
0
  2
STDGX5
 10
1045.0763343869901
 20
57.29438519345797
 30
0.0
 41
0.5
 42
0.5
 43
0.5
  0
INSERT
  5
234
  8
0
  2
STDGX5
 10
1143.1197579119059
 20
64.223404603821905
 30
0.0
 41
0.5
 42
0.5
 43
0.5
  0
INSERT
  5
235
  8
0
  2
STDGX5
 10
1143.1197579119059
 20
64.223404603821905
 30
0.0
 41
0.5
 42
0.5
 43
0.5
  0
INSERT
  5
236
  8
0
  2
STDGX5
 10
1283.3676731227761
 20
69.846039347152725
 30
0.0
 41
0.5
 42
0.5
 43
0.5
  0
INSERT
  5
237
  8
0
  2
STDGX5
 10
1283.3676731227761
 20
69.846039347152725
 30
0.0
 41
0.5
 42
0.5
 43
0.5
  0
INSERT
  5
238
  8
0
  2
STDGX5
 10
1283.3676731227761
 20
68.823256584532913
 30
0.0
 41
0.5
 42
0.5
 43
0.5
  0
INSERT
  5
239
  8
0
  2
STDGX5
 10
1283.3676731227761
 20
68.823256584532913
 30
0.0
 41
0.5
 42
0.5
 43
0.5
  0
INSERT
  5
23A
  8
0
  2
STDGX5
 10
1284.1016734541829
 20
72.912981214355653
 30
0.0
 41
0.5
 42
0.5
 43
0.5
  0
INSERT
  5
23B
  8
0
  2
STDGX5
 10
1284.1016734541829
 20
72.912981214355653
 30
0.0
 41
0.5
 42
0.5
 43
0.5
  0
INSERT
  5
23C
  8
0
  2
STDGX5
 10
866.37250518278438
 20
84.787775004203297
 30
0.0
  0
INSERT
  5
23D
  8
0
  2
STDGX5
 10
866.37250518278438
 20
84.787775004203297
 30
0.0
  0
INSERT
  5
23E
  8
0
  2
STDGX5
 10
866.37250518278438
 20
84.787775004203297
 30
0.0
  0
INSERT
  5
23F
  8
0
  2
STDGX5
 10
866.37250518278438
 20
84.787775004203297
 30
0.0
  0
INSERT
  5
240
  8
0
  2
STDGX5
 10
866.37250518278438
 20
84.787775004203297
 30
0.0
  0
INSERT
  5
241
  8
0
  2
STDGX5
 10
866.37250518278438
 20
84.787775004203297
 30
0.0
  0
INSERT
  5
244
  8
4
  2
STDGX5
 10
1058.4789100396031
 20
57.138077146667548
 30
0.0
  0
INSERT
  5
250
  8
81TEXT
  6
CONTINUOUS
  2
STDGX5
 10
1058.4789100396031
 20
57.138077146667548
 30
0.0
  0
INSERT
  5
251
  8
0
  2
STDGX5
 10
1384.2913879834391
 20
71.943848847683768
 30
0.0
  0
INSERT
  5
252
  8
0
  2
STDGX5
 10
1384.2913879834391
 20
71.943848847683768
 30
0.0
  0
INSERT
  5
253
  8
0
  2
STDGX5
 10
1384.2913879834391
 20
71.943848847683768
 30
0.0
  0
INSERT
  5
255
  8
4
  6
CONTINUOUS
  2
STDGX5
 10
1394.768189019338
 20
76.563701269225064
 30
0.0
  0
INSERT
  5
257
  8
81TEXT
  6
CONTINUOUS
  2
STDGX5
 10
1058.4789100396031
 20
57.138077146667548
 30
0.0
  0
INSERT
  5
258
  8
81TEXT
  6
CONTINUOUS
  2
STDGX5
 10
1058.4789100396031
 20
57.138077146667548
 30
0.0
  0
INSERT
  5
259
  8
81TEXT
  6
CONTINUOUS
  2
STDGX5
 10
1058.4789100396031
 20
57.138077146667548
 30
0.0
  0
LINE
  5
25B
  8
0
 10
135.26823568538171
 20
129.39315747972751
 30
0.0
 11
135.26823568538171
 21
131.59315747972749
 31
0.0
  0
LINE
  5
25C
  8
0
 10
132.89346268538171
 20
129.39315747972751
 30
0.0
 11
137.5934626853817
 21
129.39315747972751
 31
0.0
  0
LINE
  5
25D
  8
0
 10
132.89346268538171
 20
123.89315747972751
 30
0.0
 11
132.89346268538171
 21
130.07354947972749
 31
0.0
  0
LINE
  5
25E
  8
0
 10
133.0934626853817
 20
123.89315747972751
 30
0.0
 11
132.89346268538171
 21
123.89315747972751
 31
0.0
  0
LINE
  5
25F
  8
0
 10
125.0934626853816
 20
123.89315747972751
 30
0.0
 11
125.2934626853817
 21
123.89315747972751
 31
0.0
  0
LINE
  5
260
  8
0
 10
133.0934626853817
 20
121.34315747972749
 30
0.0
 11
133.0934626853817
 21
123.89315747972751
 31
0.0
  0
LINE
  5
261
  8
0
 10
125.0934626853816
 20
121.34315747972749
 30
0.0
 11
125.0934626853816
 21
123.89315747972751
 31
0.0
  0
LINE
  5
262
  8
0
 10
125.0934626853816
 20
121.34315747972749
 30
0.0
 11
133.0934626853817
 21
121.34315747972749
 31
0.0
  0
LINE
  5
263
  8
0
 10
137.5934626853817
 20
131.59315747972749
 30
0.0
 11
137.5934626853817
 21
129.39315747972751
 31
0.0
  0
LINE
  5
264
  8
0
 10
120.5934626853816
 20
131.59315747972749
 30
0.0
 11
137.5934626853817
 21
131.59315747972749
 31
0.0
  0
LINE
  5
265
  8
0
 10
136.21236368538169
 20
131.34315747972749
 30
0.0
 11
136.21236368538169
 21
129.64315747972751
 31
0.0
  0
LINE
  5
266
  8
0
 10
136.5934626853817
 20
131.34315747972749
 30
0.0
 11
136.5934626853817
 21
129.64315747972751
 31
0.0
  0
ARC
  5
267
  8
0
 10
133.03526468538169
 20
130.9227564797275
 30
0.0
 40
0.685234
 50
78.056896999999992
 51
245.23261400000001
  0
LINE
  5
268
  8
0
 10
125.7934626853817
 20
124.5854594797275
 30
0.0
 11
132.39346268538171
 21
124.5854594797275
 31
0.0
  0
LINE
  5
269
  8
0
 10
125.7934626853817
 20
126.5373774797275
 30
0.0
 11
132.39346268538171
 21
126.5373774797275
 31
0.0
  0
ARC
  5
26A
  8
0
 10
132.64346268538159
 20
130.07354947972749
 30
0.0
 40
0.25
 50
0.0
 51
65.232613999999984
  0
ARC
  5
26B
  8
0
 10
125.5434626853817
 20
130.07354947972749
 30
0.0
 40
0.25
 50
114.767386
 51
180.0
  0
ARC
  5
26C
  8
0
 10
125.1516596853816
 20
130.9227564797275
 30
0.0
 40
0.685234
 50
294.76738599999999
 51
101.94310299999999
  0
LINE
  5
26D
  8
0
 10
121.5934626853816
 20
131.34315747972749
 30
0.0
 11
121.5934626853816
 21
129.64315747972751
 31
0.0
  0
LINE
  5
26E
  8
0
 10
121.9745616853816
 20
131.34315747972749
 30
0.0
 11
121.9745616853816
 21
129.64315747972751
 31
0.0
  0
LINE
  5
26F
  8
0
 10
120.5934626853816
 20
131.59315747972749
 30
0.0
 11
120.5934626853816
 21
129.39315747972751
 31
0.0
  0
LINE
  5
270
  8
0
 10
125.2934626853817
 20
129.39315747972751
 30
0.0
 11
120.5934626853816
 21
129.39315747972751
 31
0.0
  0
LINE
  5
271
  8
0
 10
122.91868968538169
 20
129.39315747972751
 30
0.0
 11
122.91868968538169
 21
131.59315747972749
 31
0.0
  0
LINE
  5
272
  8
0
 10
125.2934626853817
 20
123.89315747972751
 30
0.0
 11
125.2934626853817
 21
130.07354947972749
 31
0.0
  0
LINE
  5
273
  8
0
 10
211.9500217192271
 20
130.30848647972749
 30
0.0
 11
210.41717471922709
 21
131.59315747972749
 31
0.0
  0
LINE
  5
274
  8
0
 10
208.8864047192271
 20
179.96386858374461
 30
0.0
 11
208.8864047192271
 21
187.99941558374471
 31
0.0
  0
ARC
  5
275
  8
0
 10
209.669293719227
 20
179.78673358374471
 30
0.0
 40
0.9380819999999999
 50
14.794938999999999
 51
69.610024999999993
  0
LINE
  5
276
  8
0
 10
211.91702671922701
 20
180.22622958374461
 30
0.0
 11
210.57627471922709
 21
180.02628258374469
 31
0.0
  0
ARC
  5
277
  8
0
 10
209.66945871922709
 20
188.26586658374461
 30
0.0
 40
0.9380819999999999
 50
290.387743
 51
345.20282900000001
  0
LINE
  5
278
  8
0
 10
211.91717471922709
 20
187.82628258374459
 30
0.0
 11
210.57643071922701
 21
188.02628258374469
 31
0.0
  0
ARC
  5
279
  8
0
 10
183.16505571922701
 20
179.78673358374471
 30
0.0
 40
0.9380819999999999
 50
110.38997500000001
 51
165.205061
  0
LINE
  5
27A
  8
0
 10
180.917322719227
 20
180.22622958374461
 30
0.0
 11
182.2580747192271
 21
180.02628258374469
 31
0.0
  0
ARC
  5
27B
  8
0
 10
183.164890719227
 20
188.26586658374461
 30
0.0
 40
0.9380819999999999
 50
194.79717099999999
 51
249.612257
  0
LINE
  5
27C
  8
0
 10
180.91717471922701
 20
187.82628258374459
 30
0.0
 11
182.25791871922701
 21
188.02628258374469
 31
0.0
  0
LINE
  5
27D
  8
0
 10
182.41755571922701
 20
176.52628258374469
 30
0.0
 11
182.41755571922701
 21
176.90738158374461
 31
0.0
  0
LINE
  5
27E
  8
0
 10
182.41755571922701
 20
191.14518258374471
 30
0.0
 11
182.41755571922701
 21
191.52628258374469
 31
0.0
  0
ARC
  5
27F
  8
0
 10
183.41717471922701
 20
176.93499458374461
 30
0.0
 40
1.0
 50
113.57817799999999
 51
181.5823
  0
LINE
  5
280
  8
0
 10
178.767555719227
 20
180.02628258374469
 30
0.0
 11
182.2580747192271
 21
180.02628258374469
 31
0.0
  0
LINE
  5
281
  8
0
 10
182.25791871922701
 20
188.02628258374469
 30
0.0
 11
178.767555719227
 21
188.02628258374469
 31
0.0
  0
LINE
  5
282
  8
0
 10
183.947944719227
 20
179.96386858374461
 30
0.0
 11
183.947944719227
 21
187.99941558374471
 31
0.0
  0
LINE
  5
283
  8
0
 10
178.91755571922701
 20
187.82628258374459
 30
0.0
 11
178.91755571922701
 21
180.22628258374471
 31
0.0
  0
ARC
  5
284
  8
0
 10
182.41717471922701
 20
188.8262825837447
 30
0.0
 40
1.5
 50
233.13010199999999
 51
66.421821999999992
  0
ARC
  5
285
  8
0
 10
183.41717471922701
 20
191.11756958374471
 30
0.0
 40
1.0
 50
178.4177
 51
246.42182199999999
  0
ARC
  5
286
  8
0
 10
180.91717471922701
 20
186.82628258374459
 30
0.0
 40
1.0
 50
53.130102000000001
 51
90.0
  0
ARC
  5
287
  8
0
 10
180.91717471922701
 20
181.22628258374471
 30
0.0
 40
1.0
 50
270.0
 51
306.86989799999998
  0
ARC
  5
288
  8
0
 10
182.41717471922701
 20
179.22628258374471
 30
0.0
 40
1.5
 50
293.57817799999998
 51
126.86989800000001
  0
LINE
  5
289
  8
0
 10
180.91717471922701
 20
180.22628258374471
 30
0.0
 11
178.767555719227
 21
180.22628258374471
 31
0.0
  0
LINE
  5
28A
  8
0
 10
180.91717471922701
 20
187.82628258374459
 30
0.0
 11
178.767555719227
 21
187.82628258374459
 31
0.0
  0
LINE
  5
28B
  8
0
 10
178.767555719227
 20
188.02628258374469
 30
0.0
 11
178.767555719227
 21
180.02628258374469
 31
0.0
  0
LINE
  5
28C
  8
0
 10
214.06679371922701
 20
188.02628258374469
 30
0.0
 11
214.06679371922701
 21
180.02628258374469
 31
0.0
  0
LINE
  5
28D
  8
0
 10
211.91717471922709
 20
187.82628258374459
 30
0.0
 11
214.06679371922701
 21
187.82628258374459
 31
0.0
  0
LINE
  5
28E
  8
0
 10
211.91717471922709
 20
180.22628258374471
 30
0.0
 11
214.06679371922701
 21
180.22628258374471
 31
0.0
  0
ARC
  5
28F
  8
0
 10
210.41717471922709
 20
179.22628258374471
 30
0.0
 40
1.5
 50
53.130102000000001
 51
246.42182199999999
  0
ARC
  5
290
  8
0
 10
209.41717471922701
 20
176.93499458374461
 30
0.0
 40
1.0
 50
358.41770000000002
 51
66.421821999999992
  0
ARC
  5
291
  8
0
 10
211.91717471922709
 20
181.22628258374471
 30
0.0
 40
1.0
 50
233.13010199999999
 51
270.0
  0
ARC
  5
292
  8
0
 10
211.91717471922709
 20
186.82628258374459
 30
0.0
 40
1.0
 50
90.0
 51
126.86989800000001
  0
ARC
  5
293
  8
0
 10
209.41717471922701
 20
191.11756958374471
 30
0.0
 40
1.0
 50
293.57817799999998
 51
1.5823
  0
ARC
  5
294
  8
0
 10
210.41717471922709
 20
188.8262825837447
 30
0.0
 40
1.5
 50
113.57817799999999
 51
306.86989799999998
  0
CIRCLE
  5
295
  8
0
 10
196.41717471922701
 20
184.0265575837447
 30
0.0
 40
7.2999999999999989
  0
CIRCLE
  5
296
  8
0
 10
196.41717471922701
 20
184.02628258374469
 30
0.0
 40
7.5
  0
LINE
  5
297
  8
0
 10
213.916793719227
 20
187.82628258374459
 30
0.0
 11
213.916793719227
 21
180.22628258374471
 31
0.0
  0
LINE
  5
298
  8
0
 10
183.416793719227
 20
192.52628258374469
 30
0.0
 11
190.41717471922701
 21
192.52628258374469
 31
0.0
  0
LINE
  5
299
  8
0
 10
202.41717471922709
 20
192.52628258374469
 30
0.0
 11
209.41679371922709
 21
192.52628258374469
 31
0.0
  0
ARC
  5
29A
  8
0
 10
191.618737719227
 20
193.7200355837447
 30
0.0
 40
1.693754
 50
224.8132040000001
 51
298.12526500000001
  0
ARC
  5
29B
  8
0
 10
201.2156117192271
 20
193.7200355837447
 30
0.0
 40
1.693754
 50
241.87473499999999
 51
315.18679600000002
  0
LINE
  5
29C
  8
0
 10
192.41717471922701
 20
192.22628258374471
 30
0.0
 11
200.41717471922709
 21
192.22628258374471
 31
0.0
  0
LINE
  5
29D
  8
0
 10
192.41717471922701
 20
175.82628258374459
 30
0.0
 11
200.41717471922709
 21
175.82628258374459
 31
0.0
  0
ARC
  5
29E
  8
0
 10
201.2156117192271
 20
174.3325285837447
 30
0.0
 40
1.693754
 50
44.813203999999999
 51
118.125265
  0
ARC
  5
29F
  8
0
 10
191.618737719227
 20
174.3325285837447
 30
0.0
 40
1.693754
 50
61.874735000000001
 51
135.18679599999999
  0
LINE
  5
2A0
  8
0
 10
210.57643071922701
 20
188.02628258374469
 30
0.0
 11
214.06679371922701
 21
188.02628258374469
 31
0.0
  0
LINE
  5
2A1
  8
0
 10
202.41717471922709
 20
175.5262825837446
 30
0.0
 11
209.41679371922709
 21
175.5262825837446
 31
0.0
  0
ARC
  5
2A2
  8
0
 10
209.41679371922709
 20
176.52628258374469
 30
0.0
 40
1.0
 50
270.0
 51
0.0
  0
ARC
  5
2A3
  8
0
 10
209.41679371922709
 20
191.52628258374469
 30
0.0
 40
1.0
 50
0.0
 51
90.0
  0
ARC
  5
2A4
  8
0
 10
183.416793719227
 20
191.52628258374469
 30
0.0
 40
1.0
 50
90.0
 51
180.0
  0
ARC
  5
2A5
  8
0
 10
183.416793719227
 20
176.52628258374469
 30
0.0
 40
1.0
 50
180.0
 51
270.0
  0
LINE
  5
2A6
  8
0
 10
210.41679371922709
 20
191.14518258374471
 30
0.0
 11
210.41679371922709
 21
191.52628258374469
 31
0.0
  0
LINE
  5
2A7
  8
0
 10
210.41679371922709
 20
176.52628258374469
 30
0.0
 11
210.41679371922709
 21
176.90738158374461
 31
0.0
  0
LINE
  5
2A8
  8
0
 10
183.416793719227
 20
175.5262825837446
 30
0.0
 11
190.41717471922701
 21
175.5262825837446
 31
0.0
  0
LINE
  5
2A9
  8
0
 10
214.06679371922701
 20
180.02628258374469
 30
0.0
 11
210.57627471922709
 21
180.02628258374469
 31
0.0
  0
LINE
  5
2AA
  8
0
 10
196.41717471922701
 20
129.41003147972751
 30
0.0
 11
193.929705719227
 21
129.41003147972751
 31
0.0
  0
LINE
  5
2AB
  8
0
 10
193.440704719227
 20
128.79315747972751
 30
0.0
 11
191.91717471922701
 21
128.79315747972751
 31
0.0
  0
LINE
  5
2AC
  8
0
 10
193.929705719227
 20
129.41003147972751
 30
0.0
 11
193.440704719227
 21
128.79315747972751
 31
0.0
  0
LINE
  5
2AD
  8
0
 10
198.90464371922701
 20
129.41003147972751
 30
0.0
 11
199.39364471922701
 21
128.79315747972751
 31
0.0
  0
LINE
  5
2AE
  8
0
 10
199.39364471922701
 20
128.79315747972751
 30
0.0
 11
200.91717471922701
 21
128.79315747972751
 31
0.0
  0
LINE
  5
2AF
  8
0
 10
196.41717471922701
 20
129.41003147972751
 30
0.0
 11
198.90464371922701
 21
129.41003147972751
 31
0.0
  0
LINE
  5
2B0
  8
0
 10
205.224689719227
 20
129.39315747972751
 30
0.0
 11
204.2171747192271
 21
129.39315747972751
 31
0.0
  0
LINE
  5
2B1
  8
0
 10
188.91717471922701
 20
131.59315747972749
 30
0.0
 11
203.91717471922709
 21
131.59315747972749
 31
0.0
  0
LINE
  5
2B2
  8
0
 10
200.91717471922701
 20
128.79315747972751
 30
0.0
 11
204.2171747192271
 21
129.39315747972751
 31
0.0
  0
LINE
  5
2B3
  8
0
 10
203.91717471922709
 20
131.59315747972749
 30
0.0
 11
210.41717471922709
 21
131.59315747972749
 31
0.0
  0
LINE
  5
2B4
  8
0
 10
212.01593471922709
 20
130.2523564797275
 30
0.0
 11
210.57643071922701
 21
128.5886764797275
 31
0.0
  0
LINE
  5
2B5
  8
0
 10
180.81841471922701
 20
130.2523564797275
 30
0.0
 11
182.25791871922701
 21
128.5886764797275
 31
0.0
  0
LINE
  5
2B6
  8
0
 10
188.91717471922701
 20
131.59315747972749
 30
0.0
 11
182.41717471922701
 21
131.59315747972749
 31
0.0
  0
LINE
  5
2B7
  8
0
 10
188.61717471922699
 20
129.39315747972751
 30
0.0
 11
191.91717471922701
 21
128.79315747972751
 31
0.0
  0
ARC
  5
2B8
  8
0
 10
211.0671747192271
 20
124.34315747972749
 30
0.0
 40
0.8
 50
228.058223
 51
4.6326609999999988
  0
ARC
  5
2B9
  8
0
 10
211.0671747192271
 20
124.34315747972749
 30
0.0
 40
3.0
 50
228.058223
 51
4.6326609999999988
  0
ARC
  5
2BA
  8
0
 10
205.91717471922709
 20
123.59315747972749
 30
0.0
 40
3.2000000000000002
 50
48.058222999999991
 51
90.0
  0
LINE
  5
2BB
  8
0
 10
200.517174719227
 20
126.7931574797275
 30
0.0
 11
205.91717471922709
 21
126.7931574797275
 31
0.0
  0
LINE
  5
2BC
  8
0
 10
207.07947471922699
 20
123.89315747972751
 30
0.0
 11
210.3710397192271
 21
123.89315747972751
 31
0.0
  0
ARC
  5
2BD
  8
0
 10
205.91717471922709
 20
123.59315747972749
 30
0.0
 40
1.0
 50
48.058222999999991
 51
90.0
  0
LINE
  5
2BE
  8
0
 10
200.517174719227
 20
124.59315747972749
 30
0.0
 11
205.91717471922709
 21
124.59315747972749
 31
0.0
  0
LINE
  5
2BF
  8
0
 10
200.517174719227
 20
124.59315747972749
 30
0.0
 11
200.517174719227
 21
126.7931574797275
 31
0.0
  0
LINE
  5
2C0
  8
0
 10
201.8171747192271
 20
124.59315747972749
 30
0.0
 11
201.8171747192271
 21
126.7931574797275
 31
0.0
  0
LINE
  5
2C1
  8
0
 10
210.53247471922711
 20
123.7480984797275
 30
0.0
 11
208.05597471922709
 21
125.9733964797275
 31
0.0
  0
LINE
  5
2C2
  8
0
 10
209.0620497192271
 20
122.1116844797275
 30
0.0
 11
206.585549719227
 21
124.3369824797275
 31
0.0
  0
LINE
  5
2C3
  8
0
 10
183.77229971922711
 20
122.1116844797275
 30
0.0
 11
186.24879971922701
 21
124.3369824797275
 31
0.0
  0
LINE
  5
2C4
  8
0
 10
182.30187471922699
 20
123.7480984797275
 30
0.0
 11
184.778374719227
 21
125.9733964797275
 31
0.0
  0
LINE
  5
2C5
  8
0
 10
191.017174719227
 20
124.59315747972749
 30
0.0
 11
191.017174719227
 21
126.7931574797275
 31
0.0
  0
LINE
  5
2C6
  8
0
 10
180.96978871922701
 20
124.4077714797275
 30
0.0
 11
181.127955719227
 21
126.35968947972751
 31
0.0
  0
LINE
  5
2C7
  8
0
 10
178.77697571922701
 20
124.5854594797275
 30
0.0
 11
178.935143719227
 21
126.5373774797275
 31
0.0
  0
LINE
  5
2C8
  8
0
 10
214.05737371922709
 20
124.5854594797275
 30
0.0
 11
213.8992057192271
 21
126.5373774797275
 31
0.0
  0
LINE
  5
2C9
  8
0
 10
211.86456071922709
 20
124.4077714797275
 30
0.0
 11
211.70639371922709
 21
126.35968947972751
 31
0.0
  0
LINE
  5
2CA
  8
0
 10
192.31717471922701
 20
124.59315747972749
 30
0.0
 11
192.31717471922701
 21
126.7931574797275
 31
0.0
  0
ARC
  5
2CB
  8
0
 10
184.41717471922701
 20
126.09315747972749
 30
0.0
 40
3.2999999999999989
 50
90.0
 51
175.36733899999999
  0
ARC
  5
2CC
  8
0
 10
184.41717471922701
 20
126.09315747972749
 30
0.0
 40
5.5
 50
111.323686
 51
175.36733899999999
  0
LINE
  5
2CD
  8
0
 10
182.41717471922701
 20
131.59315747972749
 30
0.0
 11
182.41717471922701
 21
129.39315747972751
 31
0.0
  0
LINE
  5
2CE
  8
0
 10
182.41717471922701
 20
129.39315747972751
 30
0.0
 11
187.60965971922701
 21
129.39315747972751
 31
0.0
  0
LINE
  5
2CF
  8
0
 10
210.41717471922709
 20
131.59315747972749
 30
0.0
 11
210.41717471922709
 21
129.39315747972751
 31
0.0
  0
ARC
  5
2D0
  8
0
 10
208.41717471922709
 20
126.09315747972749
 30
0.0
 40
5.5
 50
4.6326609999999988
 51
68.676314000000005
  0
ARC
  5
2D1
  8
0
 10
208.41717471922709
 20
126.09315747972749
 30
0.0
 40
3.2999999999999989
 50
4.6326609999999988
 51
90.0
  0
ARC
  5
2D2
  8
0
 10
181.767174719227
 20
124.34315747972749
 30
0.0
 40
0.8
 50
175.36733899999999
 51
311.941777
  0
LINE
  5
2D3
  8
0
 10
181.10573671922711
 20
123.89315747972751
 30
0.0
 11
178.80111671922711
 21
123.89315747972751
 31
0.0
  0
LINE
  5
2D4
  8
0
 10
211.7286127192271
 20
123.89315747972751
 30
0.0
 11
214.0332327192271
 21
123.89315747972751
 31
0.0
  0
LINE
  5
2D5
  8
0
 10
192.31717471922701
 20
124.59315747972749
 30
0.0
 11
186.91717471922701
 21
124.59315747972749
 31
0.0
  0
ARC
  5
2D6
  8
0
 10
186.91717471922701
 20
123.59315747972749
 30
0.0
 40
1.0
 50
90.0
 51
131.941777
  0
ARC
  5
2D7
  8
0
 10
181.767174719227
 20
124.34315747972749
 30
0.0
 40
3.0
 50
175.36733899999999
 51
311.941777
  0
LINE
  5
2D8
  8
0
 10
210.41717471922709
 20
129.39315747972751
 30
0.0
 11
205.224689719227
 21
129.39315747972751
 31
0.0
  0
LINE
  5
2D9
  8
0
 10
185.75487471922699
 20
123.89315747972751
 30
0.0
 11
182.463309719227
 21
123.89315747972751
 31
0.0
  0
LINE
  5
2DA
  8
0
 10
192.31717471922701
 20
126.7931574797275
 30
0.0
 11
186.91717471922701
 21
126.7931574797275
 31
0.0
  0
ARC
  5
2DB
  8
0
 10
186.91717471922701
 20
123.59315747972749
 30
0.0
 40
3.2000000000000002
 50
90.0
 51
131.941777
  0
LINE
  5
2DC
  8
0
 10
188.61717471922699
 20
129.39315747972751
 30
0.0
 11
187.60965971922701
 21
129.39315747972751
 31
0.0
  0
CIRCLE
  5
2DD
  8
0
 10
196.41717471922701
 20
184.02628258374469
 30
0.0
 40
3.3033410000000001
  0
POLYLINE
  5
2DE
  8
0
 66
     1
 10
0.0
 20
0.0
 30
0.0
 70
     1
  0
VERTEX
  5
2DF
  8
0
 10
195.16717471922701
 20
186.19134658374469
 30
0.0
  0
VERTEX
  5
2E0
  8
0
 10
193.91717471922701
 20
184.02628258374469
 30
0.0
  0
VERTEX
  5
2E1
  8
0
 10
195.16717471922701
 20
181.86121958374471
 30
0.0
  0
VERTEX
  5
2E2
  8
0
 10
197.66717471922701
 20
181.86121958374471
 30
0.0
  0
VERTEX
  5
2E3
  8
0
 10
198.91717471922709
 20
184.02628258374469
 30
0.0
  0
VERTEX
  5
2E4
  8
0
 10
197.66717471922701
 20
186.19134658374469
 30
0.0
  0
SEQEND
  5
2E5
  8
0
  0
ARC
  5
2E8
  8
0
 10
196.57349571922711
 20
128.86412547972739
 30
0.0
 40
7.7000000000000002
 50
27.278482000000011
 51
65.903798999999978
  0
ARC
  5
2E9
  8
0
 10
196.26085271922699
 20
128.86412547972739
 30
0.0
 40
7.7000000000000002
 50
114.09620099999999
 51
152.721518
  0
LINE
  5
2EA
  8
0
 10
189.41717471922701
 20
131.59315747972749
 30
0.0
 11
191.81717471922701
 21
131.59315747972749
 31
0.0
  0
LINE
  5
2EB
  8
0
 10
193.46717471922699
 20
111.59315747972749
 30
0.0
 11
199.36717471922711
 21
111.59315747972749
 31
0.0
  0
LINE
  5
2EC
  8
0
 10
189.41717471922701
 20
131.59315747972749
 30
0.0
 11
189.41717471922701
 21
132.39315747972739
 31
0.0
  0
LINE
  5
2ED
  8
0
 10
203.41717471922701
 20
131.59315747972749
 30
0.0
 11
203.41717471922701
 21
132.39315747972739
 31
0.0
  0
LINE
  5
2EE
  8
0
 10
189.41717471922701
 20
132.39315747972739
 30
0.0
 11
203.41717471922701
 21
132.39315747972739
 31
0.0
  0
LINE
  5
2EF
  8
0
 10
193.11717471922711
 20
135.89315747972739
 30
0.0
 11
199.71717471922699
 21
135.89315747972739
 31
0.0
  0
LINE
  5
2F0
  8
0
 10
192.76717471922711
 20
128.79315747972751
 30
0.0
 11
192.76717471922711
 21
114.59315747972749
 31
0.0
  0
LINE
  5
2F1
  8
0
 10
200.06717471922701
 20
128.79315747972751
 30
0.0
 11
200.06717471922701
 21
114.59315747972749
 31
0.0
  0
LINE
  5
2F2
  8
0
 10
192.76717471922711
 20
114.59315747972749
 30
0.0
 11
200.06717471922701
 21
114.59315747972749
 31
0.0
  0
LINE
  5
2F3
  8
3
 10
193.46717471922699
 20
128.82654934350691
 30
0.0
 11
193.46717471922699
 21
111.59315747972749
 31
0.0
  0
LINE
  5
2F4
  8
3
 10
199.36717471922711
 20
128.82654934350691
 30
0.0
 11
199.36717471922711
 21
111.59315747972749
 31
0.0
  0
LINE
  5
2F5
  8
0
 10
192.76717471922711
 20
114.59315747972749
 30
0.0
 11
193.46717471922699
 21
111.59315747972749
 31
0.0
  0
LINE
  5
2F6
  8
0
 10
199.36717471922711
 20
111.59315747972749
 30
0.0
 11
200.06717471922701
 21
114.59315747972749
 31
0.0
  0
LINE
  5
2F7
  8
0
 10
203.41717471922701
 20
131.59315747972749
 30
0.0
 11
201.01717471922711
 21
131.59315747972749
 31
0.0
  0
CIRCLE
  5
2F8
  8
0
 10
196.41717471922701
 20
184.02628258374469
 30
0.0
 40
7.0
  0
LINE
  5
2F9
  8
0
 10
132.04346268538171
 20
111.59315747972749
 30
0.0
 11
132.7434626853817
 21
114.59315747972749
 31
0.0
  0
LINE
  5
2FA
  8
0
 10
125.4434626853817
 20
114.59315747972749
 30
0.0
 11
126.14346268538161
 21
111.59315747972749
 31
0.0
  0
LINE
  5
2FB
  8
3
 10
132.04346268538171
 20
121.34315747972749
 30
0.0
 11
132.04346268538171
 21
111.59315747972749
 31
0.0
  0
LINE
  5
2FC
  8
3
 10
126.14346268538161
 20
121.34315747972749
 30
0.0
 11
126.14346268538161
 21
111.59315747972749
 31
0.0
  0
LINE
  5
2FD
  8
0
 10
125.4434626853817
 20
114.59315747972749
 30
0.0
 11
132.7434626853817
 21
114.59315747972749
 31
0.0
  0
LINE
  5
2FE
  8
0
 10
132.7434626853817
 20
121.34315747972749
 30
0.0
 11
132.7434626853817
 21
114.59315747972749
 31
0.0
  0
LINE
  5
2FF
  8
0
 10
125.4434626853817
 20
121.34315747972749
 30
0.0
 11
125.4434626853817
 21
114.59315747972749
 31
0.0
  0
LINE
  5
300
  8
0
 10
126.14346268538161
 20
111.59315747972749
 30
0.0
 11
132.04346268538171
 21
111.59315747972749
 31
0.0
  0
LINE
  5
303
  8
1
 10
196.41717471922701
 20
197.22628258374471
 30
0.0
 11
196.41717471922701
 21
170.82628258374459
 31
0.0
  0
LINE
  5
304
  8
1
 10
173.767555719227
 20
184.02628258374469
 30
0.0
 11
219.06679371922709
 21
184.02628258374469
 31
0.0
  0
LINE
  5
305
  8
1
 10
196.41717471922701
 20
140.89315747972739
 30
0.0
 11
196.41717471922701
 21
106.59315747972749
 31
0.0
  0
LINE
  5
306
  8
0
 10
136.0934626853817
 20
131.59315747972749
 30
0.0
 11
133.69346268538169
 21
131.59315747972749
 31
0.0
  0
LINE
  5
307
  8
0
 10
125.7934626853817
 20
135.89315747972739
 30
0.0
 11
132.39346268538159
 21
135.89315747972739
 31
0.0
  0
LINE
  5
308
  8
0
 10
122.0934626853817
 20
132.39315747972739
 30
0.0
 11
136.0934626853817
 21
132.39315747972739
 31
0.0
  0
LINE
  5
309
  8
0
 10
136.0934626853817
 20
131.59315747972749
 30
0.0
 11
136.0934626853817
 21
132.39315747972739
 31
0.0
  0
LINE
  5
30A
  8
0
 10
122.0934626853817
 20
131.59315747972749
 30
0.0
 11
122.0934626853817
 21
132.39315747972739
 31
0.0
  0
LINE
  5
30B
  8
0
 10
122.0934626853817
 20
131.59315747972749
 30
0.0
 11
124.4934626853817
 21
131.59315747972749
 31
0.0
  0
ARC
  5
30C
  8
0
 10
128.93714068538159
 20
128.86412547972739
 30
0.0
 40
7.7000000000000002
 50
114.09620099999999
 51
152.721518
  0
ARC
  5
30D
  8
0
 10
129.24978368538169
 20
128.86412547972739
 30
0.0
 40
7.7000000000000002
 50
27.278482000000011
 51
65.903798999999978
  0
LINE
  5
30E
  8
0
 10
121.5934626853817
 20
131.59315747972749
 30
0.0
 11
136.5934626853817
 21
131.59315747972749
 31
0.0
  0
LINE
  5
30F
  8
1
 10
129.0934626853817
 20
140.89315747972739
 30
0.0
 11
129.0934626853817
 21
106.59315747972749
 31
0.0
  0
INSERT
  5
310
  8
0
  2
STDGX5
 10
0.0
 20
0.0
 30
0.0
  0
TEXT
  5
3F7
  8
0
 62
     3
 10
0.0
 20
0.0
 30
0.0
 40
5.0
  1
SJT7.3
  7
STANDARD1
  0
ENDSEC
  0
EOF
