  0
SECTION
  2
HEADER
  9
$ACADVER
  1
AC1009
  9
$INSBASE
 10
0.0
 20
0.0
 30
0.0
  9
$EXTMIN
 10
0.0
 20
-1.4802182810368341
 30
0.0
  9
$EXTMAX
 10
78.956314791266948
 20
109.32692422295681
 30
0.0
  9
$LIMMIN
 10
0.0
 20
0.0
  9
$LIMMAX
 10
375.0
 20
270.0
  9
$ORTHOMODE
 70
     1
  9
$REGENMODE
 70
     1
  9
$FILLMODE
 70
     1
  9
$QTEXTMODE
 70
     0
  9
$MIRRTEXT
 70
     0
  9
$DRAGMODE
 70
     2
  9
$LTSCALE
 40
10.0
  9
$OSMODE
 70
    55
  9
$ATTMODE
 70
     1
  9
$TEXTSIZE
 40
0.2
  9
$TRACEWID
 40
0.05
  9
$TEXTSTYLE
  7
STANDARD
  9
$CLAYER
  8
0
  9
$CELTYPE
  6
BYLAYER
  9
$CECOLOR
 62
   256
  9
$DIMSCALE
 40
1.0
  9
$DIMASZ
 40
3.0
  9
$DIMEXO
 40
2.0
  9
$DIMDLI
 40
0.38
  9
$DIMRND
 40
0.0
  9
$DIMDLE
 40
0.0
  9
$DIMEXE
 40
2.0
  9
$DIMTP
 40
0.0
  9
$DIMTM
 40
0.0
  9
$DIMTXT
 40
3.2000000000000002
  9
$DIMCEN
 40
0.0
  9
$DIMTSZ
 40
0.0
  9
$DIMTOL
 70
     0
  9
$DIMLIM
 70
     0
  9
$DIMTIH
 70
     0
  9
$DIMTOH
 70
     0
  9
$DIMSE1
 70
     0
  9
$DIMSE2
 70
     0
  9
$DIMTAD
 70
     1
  9
$DIMZIN
 70
     0
  9
$DIMBLK
  1

  9
$DIMASO
 70
     0
  9
$DIMSHO
 70
     0
  9
$DIMPOST
  1

  9
$DIMAPOST
  1

  9
$DIMALT
 70
     0
  9
$DIMALTD
 70
     2
  9
$DIMALTF
 40
25.399999999999999
  9
$DIMLFAC
 40
1.0
  9
$DIMTOFL
 70
     1
  9
$DIMTVP
 40
1.6000000000000001
  9
$DIMTIX
 70
     1
  9
$DIMSOXD
 70
     0
  9
$DIMSAH
 70
     0
  9
$DIMBLK1
  1

  9
$DIMBLK2
  1

  9
$DIMSTYLE
  2
STANDARD
  9
$DIMCLRD
 70
     0
  9
$DIMCLRE
 70
     0
  9
$DIMCLRT
 70
     0
  9
$DIMTFAC
 40
1.0
  9
$DIMGAP
 40
0.09
  9
$LUNITS
 70
     2
  9
$LUPREC
 70
     4
  9
$SKETCHINC
 40
0.1
  9
$FILLETRAD
 40
1.5
  9
$AUNITS
 70
     0
  9
$AUPREC
 70
     4
  9
$MENU
  1
E:\r13\win\SUPPORT\ACAD
  9
$ELEVATION
 40
0.0
  9
$PELEVATION
 40
0.0
  9
$THICKNESS
 40
0.0
  9
$LIMCHECK
 70
     0
  9
$BLIPMODE
 70
     0
  9
$CHAMFERA
 40
0.0
  9
$CHAMFERB
 40
0.0
  9
$SKPOLY
 70
     0
  9
$TDCREATE
 40
2449840.648495371
  9
$TDUPDATE
 40
2456598.501987326
  9
$TDINDWG
 40
0.0446427778
  9
$TDUSRTIMER
 40
0.0446427778
  9
$USRTIMER
 70
     1
  9
$ANGBASE
 50
0.0
  9
$ANGDIR
 70
     0
  9
$PDMODE
 70
     0
  9
$PDSIZE
 40
0.0
  9
$PLINEWID
 40
0.0
  9
$COORDS
 70
     1
  9
$SPLFRAME
 70
     0
  9
$SPLINETYPE
 70
     6
  9
$SPLINESEGS
 70
     8
  9
$ATTDIA
 70
     0
  9
$ATTREQ
 70
     1
  9
$HANDLING
 70
     1
  9
$HANDSEED
  5
1467
  9
$SURFTAB1
 70
     6
  9
$SURFTAB2
 70
     6
  9
$SURFTYPE
 70
     6
  9
$SURFU
 70
     6
  9
$SURFV
 70
     6
  9
$UCSNAME
  2

  9
$UCSORG
 10
0.0
 20
0.0
 30
0.0
  9
$UCSXDIR
 10
1.0
 20
0.0
 30
0.0
  9
$UCSYDIR
 10
0.0
 20
1.0
 30
0.0
  9
$PUCSNAME
  2

  9
$PUCSORG
 10
0.0
 20
0.0
 30
0.0
  9
$PUCSXDIR
 10
1.0
 20
0.0
 30
0.0
  9
$PUCSYDIR
 10
0.0
 20
1.0
 30
0.0
  9
$USERI1
 70
     0
  9
$USERI2
 70
     1
  9
$USERI3
 70
     0
  9
$USERI4
 70
     0
  9
$USERI5
 70
     0
  9
$USERR1
 40
0.0
  9
$USERR2
 40
0.0
  9
$USERR3
 40
0.0
  9
$USERR4
 40
0.0
  9
$USERR5
 40
0.0
  9
$WORLDVIEW
 70
     1
  9
$SHADEDGE
 70
     3
  9
$SHADEDIF
 70
    70
  9
$TILEMODE
 70
     1
  9
$MAXACTVP
 70
    16
  9
$PLIMCHECK
 70
     0
  9
$PEXTMIN
 10
1.0000000000000000E+020
 20
1.0000000000000000E+020
 30
1.0000000000000000E+020
  9
$PEXTMAX
 10
-1.0000000000000000E+020
 20
-1.0000000000000000E+020
 30
-1.0000000000000000E+020
  9
$PLIMMIN
 10
0.0
 20
0.0
  9
$PLIMMAX
 10
12.0
 20
9.0
  9
$UNITMODE
 70
     0
  9
$VISRETAIN
 70
     0
  9
$PLINEGEN
 70
     0
  9
$PSLTSCALE
 70
     0
  0
ENDSEC
  0
SECTION
  2
TABLES
  0
TABLE
  2
VPORT
 70
     1
  0
VPORT
  2
*ACTIVE
 70
     0
 10
0.0
 20
0.0
 11
1.0
 21
1.0
 12
187.49427839065231
 22
175.433388831352
 13
0.0
 23
0.0
 14
10.0
 24
10.0
 15
10.0
 25
10.0
 16
0.0
 26
0.0
 36
1.0
 17
0.0
 27
0.0
 37
0.0
 40
356.9701552237488
 41
1.7807262569832401
 42
50.0
 43
0.0
 44
0.0
 50
0.0
 51
0.0
 71
     0
 72
   500
 73
     1
 74
     0
 75
     0
 76
     0
 77
     0
 78
     2
  0
ENDTAB
  0
TABLE
  2
LTYPE
 70
     3
  0
LTYPE
  2
CONTINUOUS
 70
     0
  3
Solid Line
 72
    65
 73
     0
 40
0.0
  0
LTYPE
  2
CENTER
 70
     0
  3
____ _ ____ _ ____ _ ____ _ ____ _ ____ _ ____
 72
    65
 73
     4
 40
2.0
 49
1.25
 49
-0.25
 49
0.25
 49
-0.25
  0
LTYPE
  2
PHANTOM2
 70
     0
  3
___ _ _ ___ _ _ ___ _ _ ___ _ _
 72
    65
 73
     6
 40
1.25
 49
0.625
 49
-0.125
 49
0.125
 49
-0.125
 49
0.125
 49
-0.125
  0
ENDTAB
  0
TABLE
  2
LAYER
 70
     3
  0
LAYER
  2
0
 70
     0
 62
     7
  6
CONTINUOUS
  0
LAYER
  2
1
 70
     0
 62
     1
  6
CENTER
  0
LAYER
  2
3
 70
     0
 62
     3
  6
CONTINUOUS
  0
ENDTAB
  0
TABLE
  2
STYLE
 70
     2
  0
STYLE
  2
STANDARD
 70
     0
 40
0.0
 41
1.0
 50
0.0
 71
     0
 42
0.2
  3
TXT
  4
BIGFONT
  0
STYLE
  2
STANDARD1
 70
     0
 40
0.0
 41
1.0
 50
0.0
 71
     0
 42
3.0
  3
txt
  4

  0
ENDTAB
  0
TABLE
  2
VIEW
 70
     1
  0
VIEW
  2
ALL
 70
     0
 40
270.0
 10
220.99159663865549
 20
135.0
 41
0.0
 11
0.0
 21
0.0
 31
1.0
 12
0.0
 22
0.0
 32
0.0
 42
0.0
 43
0.0
 44
0.0
 50
0.0
 71
     0
  0
ENDTAB
  0
TABLE
  2
UCS
 70
     0
  0
ENDTAB
  0
TABLE
  2
APPID
 70
     3
  0
APPID
  2
ACAD
 70
     0
  0
APPID
  2
ACAD_MLEADERVER
 70
     0
  0
APPID
  2
ACAD_NAV_VCDISPLAY
 70
     0
  0
ENDTAB
  0
TABLE
  2
DIMSTYLE
 70
     1
  0
DIMSTYLE
  2
STANDARD
 70
     0
  3

  4

  5

  6

  7

 40
1.0
 41
0.18
 42
0.0625
 43
0.38
 44
0.18
 45
0.0
 46
0.0
 47
0.0
 48
0.0
140
0.18
141
0.09
142
0.0
143
25.399999999999999
144
1.0
145
0.0
146
1.0
147
0.09
 71
     0
 72
     0
 73
     1
 74
     1
 75
     0
 76
     0
 77
     0
 78
     0
170
     0
171
     2
172
     0
173
     0
174
     0
175
     0
176
     0
177
     0
178
     0
  0
ENDTAB
  0
ENDSEC
  0
SECTION
  2
BLOCKS
  0
BLOCK
  8
0
  2
$MODEL_SPACE
 70
     0
 10
0.0
 20
0.0
 30
0.0
  3
$MODEL_SPACE
  1

  0
ENDBLK
  5
CF
  8
0
  0
BLOCK
 67
     1
  8
0
  2
$PAPER_SPACE
 70
     0
 10
0.0
 20
0.0
 30
0.0
  3
$PAPER_SPACE
  1

  0
ENDBLK
  5
CD
 67
     1
  8
0
  0
ENDSEC
  0
SECTION
  2
ENTITIES
  0
LINE
  5
374
  8
3
 10
63.523127482001762
 20
24.185339722633511
 30
0.0
 11
63.523127482001762
 21
42.385339722633503
 31
0.0
  0
LINE
  5
375
  8
3
 10
69.989502482001797
 20
42.385339722633503
 30
0.0
 11
69.989502482001797
 21
24.185339722633511
 31
0.0
  0
LINE
  5
376
  8
0
 62
     4
 10
70.756314982001811
 20
42.385339722633503
 30
0.0
 11
62.756314982001811
 21
42.385339722633503
 31
0.0
  0
LINE
  5
3C1
  8
0
 10
75.156314600532085
 20
44.185339722633493
 30
0.0
 11
71.956314791266948
 21
44.185339722633493
 31
0.0
  0
LINE
  5
3C2
  8
0
 10
61.556315172736667
 20
44.185339722633493
 30
0.0
 11
58.356315363471538
 21
44.185339722633493
 31
0.0
  0
LINE
  5
3C6
  8
0
 10
61.556315172736667
 20
44.185339722633493
 30
0.0
 11
71.956314791266948
 21
44.185339722633493
 31
0.0
  0
LINE
  5
412
  8
0
 10
75.656314600532085
 20
42.385339770317209
 30
0.0
 11
57.856315363471531
 21
42.385339770317209
 31
0.0
  0
LINE
  5
413
  8
0
 10
57.556315172736667
 20
43.38533953189863
 30
0.0
 11
57.556315172736667
 21
42.685339722633501
 31
0.0
  0
LINE
  5
414
  8
0
 10
75.956314791266934
 20
43.38533953189863
 30
0.0
 11
75.956314791266934
 21
42.685339722633501
 31
0.0
  0
LINE
  5
415
  8
0
 10
75.656314600532085
 20
42.385339770317209
 30
0.0
 11
75.656314600532085
 21
41.385339770317209
 31
0.0
  0
LINE
  5
416
  8
0
 10
75.956314791266934
 20
42.685339722633501
 30
0.0
 11
75.956314791266934
 21
41.385339770317209
 31
0.0
  0
LINE
  5
43B
  8
0
 10
75.956314791266934
 20
41.385339770317209
 30
0.0
 11
73.770586241309672
 21
41.385339770317209
 31
0.0
  0
LINE
  5
43C
  8
0
 10
75.956314791266934
 20
41.385339770317209
 30
0.0
 11
75.956314791266934
 21
35.185339722633501
 31
0.0
  0
LINE
  5
43F
  8
0
 10
75.956314791266934
 20
35.185339722633501
 30
0.0
 11
75.956314791266934
 21
34.485339913368357
 31
0.0
  0
LINE
  5
465
  8
0
 10
74.606314886634365
 20
34.185339722633501
 30
0.0
 11
75.656314600532085
 21
34.185339722633501
 31
0.0
  0
LINE
  5
466
  8
0
 10
74.606314886634365
 20
34.185339722633501
 30
0.0
 11
74.606314886634365
 21
38.285339746475358
 31
0.0
  0
LINE
  5
467
  8
0
 10
70.956314791266934
 20
37.585339698791643
 30
0.0
 11
70.956314791266934
 21
38.485339734554429
 31
0.0
  0
LINE
  5
496
  8
0
 10
72.437810648505717
 20
38.785339716673043
 30
0.0
 11
71.456314791266948
 21
37.085339818000932
 31
0.0
  0
LINE
  5
497
  8
0
 10
71.023302305762797
 20
38.735339734554429
 30
0.0
 11
72.985099684739225
 21
42.133272772176149
 31
0.0
  0
LINE
  5
4C4
  8
0
 10
57.556315172736667
 20
42.685339722633501
 30
0.0
 11
57.556315172736667
 21
41.385339770317209
 31
0.0
  0
LINE
  5
4C5
  8
0
 10
57.856315363471531
 20
42.385339770317209
 30
0.0
 11
57.856315363471531
 21
41.385339770317209
 31
0.0
  0
LINE
  5
4C6
  8
0
 10
57.856315363471531
 20
41.385339770317209
 30
0.0
 11
57.556315172736667
 21
41.385339770317209
 31
0.0
  0
LINE
  5
4C7
  8
0
 10
57.556315172736667
 20
35.185339722633501
 30
0.0
 11
57.556315172736667
 21
41.385339770317209
 31
0.0
  0
LINE
  5
4C8
  8
0
 10
57.856315363471531
 20
34.185339722633501
 30
0.0
 11
58.906315077369243
 21
34.185339722633501
 31
0.0
  0
LINE
  5
4C9
  8
0
 10
58.906315077369243
 20
35.185339722633501
 30
0.0
 11
58.906315077369243
 21
34.185339722633501
 31
0.0
  0
LINE
  5
4ED
  8
0
 10
57.556315172736667
 20
34.485339913368357
 30
0.0
 11
57.556315172736667
 21
35.185339722633501
 31
0.0
  0
LINE
  5
4FE
  8
0
 10
60.526336897437602
 20
42.135339770317223
 30
0.0
 11
62.489327658240832
 21
38.735339734554429
 31
0.0
  0
LINE
  5
50A
  8
0
 10
62.556315172736667
 20
38.485339734554429
 30
0.0
 11
62.556315172736667
 21
37.585339698791643
 31
0.0
  0
LINE
  5
52E
  8
0
 10
62.056315172736667
 20
37.085339818000932
 30
0.0
 11
61.074819315497912
 21
38.785339716673043
 31
0.0
  0
LINE
  5
542
  8
0
 10
60.208794344489611
 20
39.285339724123617
 30
0.0
 11
59.907570343785324
 21
39.285339724123602
 31
0.0
  0
LINE
  5
566
  8
0
 10
58.906315077369243
 20
38.285339746475358
 30
0.0
 11
58.906315077369243
 21
35.185339722633501
 31
0.0
  0
LINE
  5
569
  8
0
 10
59.74204372269395
 20
41.385339770317209
 30
0.0
 11
57.856315363471531
 21
41.385339770317209
 31
0.0
  0
LINE
  5
5A0
  8
0
 10
60.408087004249118
 20
42.385339770317209
 30
0.0
 11
73.10454200608018
 21
42.385339770317209
 31
0.0
  0
LINE
  5
5A1
  8
0
 10
70.756314982001811
 20
42.385344538688791
 30
0.0
 11
70.756314982001811
 21
24.952152237892289
 31
0.0
  0
LINE
  5
5A2
  8
0
 10
62.756314982001811
 20
24.952152237892289
 30
0.0
 11
62.756314982001811
 21
42.385345969200273
 31
0.0
  0
LINE
  5
5A3
  8
0
 10
70.756314982001811
 20
24.952152237892289
 30
0.0
 11
69.989502419059306
 21
24.18533991336837
 31
0.0
  0
LINE
  5
5A4
  8
0
 10
69.989502419059306
 20
24.18533991336837
 30
0.0
 11
63.523127544944309
 21
24.18533991336837
 31
0.0
  0
LINE
  5
5A5
  8
0
 10
63.523127544944309
 20
24.18533991336837
 30
0.0
 11
62.756314982001811
 21
24.952152237892289
 31
0.0
  0
LINE
  5
5A6
  8
0
 10
70.756314982001811
 20
24.952152237892289
 30
0.0
 11
62.756314982001811
 21
24.952152237892289
 31
0.0
  0
LINE
  5
5CA
  8
0
 10
70.406315077369243
 20
48.38533953189863
 30
0.0
 11
63.106314886634379
 21
48.38533953189863
 31
0.0
  0
LINE
  5
5EE
  8
0
 10
73.756314982001811
 20
45.035339627266062
 30
0.0
 11
73.756314982001811
 21
44.185345444679399
 31
0.0
  0
LINE
  5
5EF
  8
0
 10
59.756314982001811
 20
44.185345444679399
 30
0.0
 11
59.756314982001811
 21
45.035339627266062
 31
0.0
  0
LINE
  5
5F0
  8
0
 10
73.756314982001811
 20
45.035339627266062
 30
0.0
 11
59.756314982001811
 21
45.035339627266062
 31
0.0
  0
LINE
  5
A39
  8
1
 10
54.556315172736667
 20
97.126924413691654
 30
0.0
 11
78.956314791266948
 21
97.126924413691697
 31
0.0
  0
LINE
  5
A3A
  8
1
 10
66.756314982001811
 20
109.32692422295681
 30
0.0
 11
66.756314982001854
 21
84.926924604426546
 31
0.0
  0
LINE
  5
B13
  8
0
 10
61.556315172736667
 20
106.32692422295681
 30
0.0
 11
71.956314791266948
 21
106.32692422295681
 31
0.0
  0
LINE
  5
B18
  8
0
 10
61.556315172736667
 20
87.926924604426503
 30
0.0
 11
71.956314791266948
 21
87.926924604426503
 31
0.0
  0
LINE
  5
B19
  8
0
 10
57.556315172736667
 20
102.32692422295681
 30
0.0
 11
57.556315172736667
 21
91.926924604426517
 31
0.0
  0
LINE
  5
B1A
  8
0
 10
75.956314791266934
 20
102.32692422295681
 30
0.0
 11
75.956314791266934
 21
91.926924604426517
 31
0.0
  0
LINE
  5
D3C
  8
0
 10
69.256314982001811
 20
95.683548707018986
 30
0.0
 11
69.256314982001811
 21
98.570300120364323
 31
0.0
  0
LINE
  5
D63
  8
0
 10
69.256314982001811
 20
98.570300120364323
 30
0.0
 11
66.756314982001811
 21
100.01367582703701
 31
0.0
  0
LINE
  5
D77
  8
0
 10
66.756314982001811
 20
100.01367582703701
 30
0.0
 11
64.256314982001811
 21
98.570300120364323
 31
0.0
  0
LINE
  5
D8B
  8
0
 10
64.256314982001811
 20
98.570300120364323
 30
0.0
 11
64.256314982001811
 21
95.683548707018986
 31
0.0
  0
LINE
  5
D9F
  8
0
 10
64.256314982001811
 20
95.683548707018986
 30
0.0
 11
66.756314982001811
 21
94.240173000346317
 31
0.0
  0
LINE
  5
DB3
  8
0
 10
66.756314982001811
 20
94.240173000346317
 30
0.0
 11
69.256314982001811
 21
95.683548707018986
 31
0.0
  0
LINE
  5
E7F
  8
1
 10
66.756314982001811
 20
21.185339913368349
 30
0.0
 11
66.756314982001754
 21
51.38533953189863
 31
0.0
  0
CIRCLE
  5
E80
  8
0
 10
66.756314982001811
 20
97.127976733906365
 30
0.0
 40
2.885655356594949
  0
CIRCLE
  5
E82
  8
0
 10
66.756314982001811
 20
97.125000588230904
 30
0.0
 40
7.0000002643645951
  0
ARC
  5
E87
  8
0
 10
61.556314677415571
 20
102.32692471827789
 30
0.0
 40
3.999999504678927
 50
90.0
 51
180.0
  0
ARC
  5
E8A
  8
0
 10
71.956315286588051
 20
102.32692471827789
 30
0.0
 40
3.999999504678927
 50
0.000000000000007
 51
90.0
  0
ARC
  5
E8B
  8
0
 10
71.956315286588051
 20
91.926924109105414
 30
0.0
 40
3.999999504678927
 50
270.0
 51
0.0
  0
ARC
  5
E8C
  8
0
 10
61.556314677415571
 20
91.926924109105414
 30
0.0
 40
3.999999504678927
 50
180.0
 51
270.0
  0
ARC
  5
E8F
  8
0
 10
63.108359275610098
 20
45.0332952382903
 30
0.0
 40
3.3520449170377251
 50
89.965055698869719
 51
179.96505569878829
  0
ARC
  5
E90
  8
0
 10
70.406314917128213
 20
45.035339467025032
 30
0.0
 40
3.3500000648736008
 50
0.0000027406374096
 51
90.0
  0
ARC
  5
E91
  8
0
 10
58.356315160068498
 20
43.385339735301699
 30
0.0
 40
0.7999999873318561
 50
90.0
 51
180.0000145676714
  0
ARC
  5
E92
  8
0
 10
75.155828925789081
 20
43.384853857155591
 30
0.0
 40
0.8004860128133874
 50
0.0347627744346987
 51
90.034762774323809
  0
ARC
  5
E94
  8
0
 10
57.856522110058897
 20
42.685546707803887
 30
0.0
 40
0.3002070086777689
 50
180.03950399984731
 51
269.96054153474512
  0
ARC
  5
E95
  8
0
 10
75.656107853944661
 20
42.685546707803887
 30
0.0
 40
0.3002070086777689
 50
270.03945846525488
 51
359.96049600015277
  0
ARC
  5
E96
  8
0
 10
57.856314908415811
 20
34.48533945831268
 30
0.0
 40
0.2999997356794819
 50
180.0
 51
270.0000869093185
  0
ARC
  5
E99
  8
0
 10
75.656315055587683
 20
34.48533945831268
 30
0.0
 40
0.2999997356794819
 50
269.9999130906815
 51
0.000000000000007
  0
ARC
  5
E9A
  8
0
 10
59.906942710650128
 20
38.284712090828592
 30
0.0
 40
1.00062783013312
 50
89.964061830978153
 51
180.03593945595341
  0
ARC
  5
E9B
  8
0
 10
60.208794111026862
 20
38.285340076795137
 30
0.0
 40
0.9999996473285067
 50
29.999987840789782
 51
89.999986623568716
  0
ARC
  5
E9D
  8
0
 10
73.303835852976704
 20
38.28534007679503
 30
0.0
 40
0.9999996473285067
 50
90.000013376430289
 51
150.00001215920921
  0
ARC
  5
E9E
  8
0
 10
73.605687253353324
 20
38.284712090828343
 30
0.0
 40
1.0006278301332909
 50
0.0359394580454675
 51
90.035938169012056
  0
LINE
  5
E9F
  8
0
 10
73.303835619514018
 20
39.28533972412351
 30
0.0
 11
73.605059620218299
 21
39.285339724123489
 31
0.0
  0
ARC
  5
EA0
  8
0
 10
62.056009521706642
 20
37.58564546910381
 30
0.0
 40
0.5003057444683464
 50
270.03500362589818
 51
359.96498271372673
  0
ARC
  5
EA1
  8
0
 10
62.056313778506642
 20
38.485338986175393
 30
0.0
 40
0.5000013942305782
 50
0.0000857576814562
 51
30.000006783145839
  0
ARC
  5
EA4
  8
0
 10
71.456316185496917
 20
38.485338986175393
 30
0.0
 40
0.5000013942305782
 50
149.99999321685419
 51
179.99991424231851
  0
ARC
  5
EA5
  8
0
 10
71.456620442296924
 20
37.58564546910381
 30
0.0
 40
0.5003057444683464
 50
180.0350172862733
 51
269.96499637410182
  0
ARC
  5
EAB
  8
0
 10
61.310633913816623
 20
41.397130439362492
 30
0.0
 40
1.5686345041349741
 50
160.29883071040001
 51
180.43066879733419
  0
ARC
  5
EAF
  8
0
 10
60.091282945957012
 20
41.88278327801595
 30
0.0
 40
0.5030474356384314
 50
29.86407460060946
 51
72.073515714770267
  0
ARC
  5
EB2
  8
0
 10
60.778385525199887
 20
41.568456615047701
 30
0.0
 40
1.0099482175749379
 50
150.42569834276421
 51
159.27016333797729
  0
ARC
  5
EB3
  8
0
 10
60.535171844856052
 20
41.706127094988673
 30
0.0
 40
0.7304738406811625
 50
129.12799241015961
 51
150.4018313079616
  0
ARC
  5
EB4
  8
0
 10
60.405828758275732
 20
41.840547118501028
 30
0.0
 40
0.5447973321775557
 50
89.762501895633264
 51
127.4966052506965
  0
ARC
  5
EB5
  8
0
 10
73.106801205727834
 20
41.840547118501028
 30
0.0
 40
0.5447973321775557
 50
52.503394749303531
 51
90.237498104366736
  0
ARC
  5
EB6
  8
0
 10
72.977458119147514
 20
41.706127094988673
 30
0.0
 40
0.7304738406811625
 50
29.59816869203836
 51
50.872007589840393
  0
ARC
  5
EB7
  8
0
 10
72.734244438803671
 20
41.568456615047701
 30
0.0
 40
1.0099482175749379
 50
20.729836662022649
 51
29.574301657235729
  0
ARC
  5
EB8
  8
0
 10
73.421347018046561
 20
41.88278327801595
 30
0.0
 40
0.5030474356384314
 50
107.92648428522971
 51
150.13592539939049
  0
ARC
  5
EB9
  8
0
 10
72.201996050186949
 20
41.397130439362492
 30
0.0
 40
1.5686345041349741
 50
359.56933120266581
 51
19.701169289599939
  0
LINE
  5
1324
  8
0
 10
61.556315172736667
 20
105.32692422295681
 30
0.0
 11
71.956314791266948
 21
105.32692422295681
 31
0.0
  0
LINE
  5
1325
  8
0
 10
61.556315172736667
 20
88.926924604426503
 30
0.0
 11
71.956314791266948
 21
88.926924604426503
 31
0.0
  0
LINE
  5
1326
  8
0
 10
58.556315172736682
 20
102.32692422295681
 30
0.0
 11
58.556315172736682
 21
91.926924604426517
 31
0.0
  0
ARC
  5
1327
  8
0
 10
61.556314677415571
 20
102.32692471827789
 30
0.0
 40
2.999999504678927
 50
90.0
 51
180.0
  0
ARC
  5
1328
  8
0
 10
61.556314677415571
 20
91.926924109105414
 30
0.0
 40
2.999999504678927
 50
180.0
 51
270.0
  0
ARC
  5
132A
  8
0
 10
71.956315286588051
 20
91.926924109105414
 30
0.0
 40
2.999999504678927
 50
270.0
 51
0.0
  0
LINE
  5
132B
  8
0
 10
74.956314791266948
 20
102.32692422295681
 30
0.0
 11
74.956314791266948
 21
91.926924604426517
 31
0.0
  0
ARC
  5
132C
  8
0
 10
71.956315286588051
 20
102.32692471827789
 30
0.0
 40
2.999999504678927
 50
0.000000000000007
 51
90.0
  0
CIRCLE
  5
132D
  8
0
 10
66.756314982001811
 20
97.125000588230904
 30
0.0
 40
8.0000002643645942
  0
TEXT
  5
13D0
  8
0
 62
     3
 10
0.0
 20
0.0
 30
0.0
 40
5.0
  1
SJT8NK
  7
STANDARD1
  0
ENDSEC
  0
EOF
