  0
SECTION
  2
HEADER
  9
$ACADVER
  1
AC1009
  9
$INSBASE
 10
0.0
 20
0.0
 30
0.0
  9
$EXTMIN
 10
0.0
 20
-2.960436562073669
 30
0.0
  9
$EXTMAX
 10
320.0
 20
234.16796077701761
 30
0.0
  9
$LIMMIN
 10
0.0
 20
0.0
  9
$LIMMAX
 10
375.0
 20
270.0
  9
$ORTHOMODE
 70
     1
  9
$REGENMODE
 70
     1
  9
$FILLMODE
 70
     1
  9
$QTEXTMODE
 70
     0
  9
$MIRRTEXT
 70
     0
  9
$DRAGMODE
 70
     2
  9
$LTSCALE
 40
10.0
  9
$OSMODE
 70
    55
  9
$ATTMODE
 70
     1
  9
$TEXTSIZE
 40
5.0
  9
$TRACEWID
 40
0.05
  9
$TEXTSTYLE
  7
STANDARD
  9
$CLAYER
  8
0
  9
$CELTYPE
  6
BYLAYER
  9
$CECOLOR
 62
   256
  9
$DIMSCALE
 40
1.0
  9
$DIMASZ
 40
3.0
  9
$DIMEXO
 40
2.0
  9
$DIMDLI
 40
0.38
  9
$DIMRND
 40
0.0
  9
$DIMDLE
 40
0.0
  9
$DIMEXE
 40
2.0
  9
$DIMTP
 40
0.0
  9
$DIMTM
 40
0.0
  9
$DIMTXT
 40
3.2000000000000002
  9
$DIMCEN
 40
0.0
  9
$DIMTSZ
 40
0.0
  9
$DIMTOL
 70
     0
  9
$DIMLIM
 70
     0
  9
$DIMTIH
 70
     0
  9
$DIMTOH
 70
     0
  9
$DIMSE1
 70
     0
  9
$DIMSE2
 70
     0
  9
$DIMTAD
 70
     1
  9
$DIMZIN
 70
     0
  9
$DIMBLK
  1

  9
$DIMASO
 70
     1
  9
$DIMSHO
 70
     0
  9
$DIMPOST
  1

  9
$DIMAPOST
  1

  9
$DIMALT
 70
     0
  9
$DIMALTD
 70
     2
  9
$DIMALTF
 40
25.399999999999999
  9
$DIMLFAC
 40
1.0
  9
$DIMTOFL
 70
     1
  9
$DIMTVP
 40
1.6000000000000001
  9
$DIMTIX
 70
     1
  9
$DIMSOXD
 70
     0
  9
$DIMSAH
 70
     0
  9
$DIMBLK1
  1

  9
$DIMBLK2
  1

  9
$DIMSTYLE
  2
STANDARD
  9
$DIMCLRD
 70
     0
  9
$DIMCLRE
 70
     0
  9
$DIMCLRT
 70
     0
  9
$DIMTFAC
 40
1.0
  9
$DIMGAP
 40
0.09
  9
$LUNITS
 70
     2
  9
$LUPREC
 70
     4
  9
$SKETCHINC
 40
0.1
  9
$FILLETRAD
 40
1.0
  9
$AUNITS
 70
     0
  9
$AUPREC
 70
     4
  9
$MENU
  1
E:\r13\win\SUPPORT\ACAD
  9
$ELEVATION
 40
0.0
  9
$PELEVATION
 40
0.0
  9
$THICKNESS
 40
0.0
  9
$LIMCHECK
 70
     0
  9
$BLIPMODE
 70
     0
  9
$CHAMFERA
 40
0.0
  9
$CHAMFERB
 40
0.0
  9
$SKPOLY
 70
     0
  9
$TDCREATE
 40
2449839.7850115742
  9
$TDUPDATE
 40
2456598.5436749649
  9
$TDINDWG
 40
0.0001292824
  9
$TDUSRTIMER
 40
0.0001292824
  9
$USRTIMER
 70
     1
  9
$ANGBASE
 50
0.0
  9
$ANGDIR
 70
     0
  9
$PDMODE
 70
     0
  9
$PDSIZE
 40
0.0
  9
$PLINEWID
 40
0.0
  9
$COORDS
 70
     1
  9
$SPLFRAME
 70
     0
  9
$SPLINETYPE
 70
     6
  9
$SPLINESEGS
 70
     8
  9
$ATTDIA
 70
     0
  9
$ATTREQ
 70
     1
  9
$HANDLING
 70
     1
  9
$HANDSEED
  5
324
  9
$SURFTAB1
 70
     6
  9
$SURFTAB2
 70
     6
  9
$SURFTYPE
 70
     6
  9
$SURFU
 70
     6
  9
$SURFV
 70
     6
  9
$UCSNAME
  2

  9
$UCSORG
 10
0.0
 20
0.0
 30
0.0
  9
$UCSXDIR
 10
1.0
 20
0.0
 30
0.0
  9
$UCSYDIR
 10
0.0
 20
1.0
 30
0.0
  9
$PUCSNAME
  2

  9
$PUCSORG
 10
0.0
 20
0.0
 30
0.0
  9
$PUCSXDIR
 10
1.0
 20
0.0
 30
0.0
  9
$PUCSYDIR
 10
0.0
 20
1.0
 30
0.0
  9
$USERI1
 70
     0
  9
$USERI2
 70
     1
  9
$USERI3
 70
     1
  9
$USERI4
 70
     0
  9
$USERI5
 70
     0
  9
$USERR1
 40
0.0
  9
$USERR2
 40
0.0
  9
$USERR3
 40
0.0
  9
$USERR4
 40
0.0
  9
$USERR5
 40
0.0
  9
$WORLDVIEW
 70
     1
  9
$SHADEDGE
 70
     3
  9
$SHADEDIF
 70
    70
  9
$TILEMODE
 70
     1
  9
$MAXACTVP
 70
    16
  9
$PLIMCHECK
 70
     0
  9
$PEXTMIN
 10
1.0000000000000000E+020
 20
1.0000000000000000E+020
 30
1.0000000000000000E+020
  9
$PEXTMAX
 10
-1.0000000000000000E+020
 20
-1.0000000000000000E+020
 30
-1.0000000000000000E+020
  9
$PLIMMIN
 10
0.0
 20
0.0
  9
$PLIMMAX
 10
12.0
 20
9.0
  9
$UNITMODE
 70
     0
  9
$VISRETAIN
 70
     0
  9
$PLINEGEN
 70
     0
  9
$PSLTSCALE
 70
     0
  0
ENDSEC
  0
SECTION
  2
TABLES
  0
TABLE
  2
VPORT
 70
     1
  0
VPORT
  2
*ACTIVE
 70
     0
 10
0.0
 20
0.0
 11
1.0
 21
1.0
 12
187.49427839065231
 22
174.91677254346851
 13
0.0
 23
0.0
 14
10.0
 24
10.0
 15
10.0
 25
10.0
 16
0.0
 26
0.0
 36
1.0
 17
0.0
 27
0.0
 37
0.0
 40
358.92027899574339
 41
1.7807262569832401
 42
50.0
 43
0.0
 44
0.0
 50
0.0
 51
0.0
 71
     0
 72
   500
 73
     1
 74
     0
 75
     0
 76
     0
 77
     0
 78
     2
  0
ENDTAB
  0
TABLE
  2
LTYPE
 70
     5
  0
LTYPE
  2
CONTINUOUS
 70
     0
  3
Solid Line
 72
    65
 73
     0
 40
0.0
  0
LTYPE
  2
CENTER
 70
     0
  3
____ _ ____ _ ____ _ ____ _ ____ _ ____ _ ____
 72
    65
 73
     4
 40
2.0
 49
1.25
 49
-0.25
 49
0.25
 49
-0.25
  0
LTYPE
  2
HIDDEN
 70
     0
  3
_ _ _ _ _ _ _ _ _ _ _ _ _ _ _ _ _ _ _ _ _ _ _
 72
    65
 73
     2
 40
0.375
 49
0.25
 49
-0.125
  0
LTYPE
  2
PHANTOM
 70
     0
  3
_____ _ _ _____ _ _ _____ _ _ _____ _ _ ____
 72
    65
 73
     6
 40
2.5
 49
1.25
 49
-0.25
 49
0.25
 49
-0.25
 49
0.25
 49
-0.25
  0
LTYPE
  2
PHANTOM2
 70
     0
  3
___ _ _ ___ _ _ ___ _ _ ___ _ _
 72
    65
 73
     6
 40
1.25
 49
0.625
 49
-0.125
 49
0.125
 49
-0.125
 49
0.125
 49
-0.125
  0
ENDTAB
  0
TABLE
  2
LAYER
 70
     4
  0
LAYER
  2
0
 70
     0
 62
     7
  6
CONTINUOUS
  0
LAYER
  2
1
 70
     0
 62
     1
  6
CENTER
  0
LAYER
  2
2
 70
     0
 62
     2
  6
HIDDEN
  0
LAYER
  2
5
 70
     0
 62
     3
  6
PHANTOM
  0
ENDTAB
  0
TABLE
  2
STYLE
 70
     2
  0
STYLE
  2
STANDARD
 70
     0
 40
0.0
 41
1.0
 50
0.0
 71
     0
 42
5.0
  3
TXT
  4
BIGFONT
  0
STYLE
  2
STANDARD1
 70
     0
 40
0.0
 41
1.0
 50
0.0
 71
     0
 42
3.0
  3
txt
  4

  0
ENDTAB
  0
TABLE
  2
VIEW
 70
     1
  0
VIEW
  2
ALL
 70
     0
 40
270.0
 10
220.99159663865549
 20
135.0
 41
0.0
 11
0.0
 21
0.0
 31
1.0
 12
0.0
 22
0.0
 32
0.0
 42
0.0
 43
0.0
 44
0.0
 50
0.0
 71
     0
  0
ENDTAB
  0
TABLE
  2
UCS
 70
     0
  0
ENDTAB
  0
TABLE
  2
APPID
 70
     3
  0
APPID
  2
ACAD
 70
     0
  0
APPID
  2
ACAD_MLEADERVER
 70
     0
  0
APPID
  2
ACAD_NAV_VCDISPLAY
 70
     0
  0
ENDTAB
  0
TABLE
  2
DIMSTYLE
 70
     1
  0
DIMSTYLE
  2
STANDARD
 70
     0
  3

  4

  5

  6

  7

 40
1.0
 41
0.18
 42
0.0625
 43
0.38
 44
0.18
 45
0.0
 46
0.0
 47
0.0
 48
0.0
140
0.18
141
0.09
142
0.0
143
25.399999999999999
144
1.0
145
0.0
146
1.0
147
0.09
 71
     0
 72
     0
 73
     1
 74
     1
 75
     0
 76
     0
 77
     0
 78
     0
170
     0
171
     2
172
     0
173
     0
174
     0
175
     0
176
     0
177
     0
178
     0
  0
ENDTAB
  0
ENDSEC
  0
SECTION
  2
BLOCKS
  0
BLOCK
  8
0
  2
$MODEL_SPACE
 70
     0
 10
0.0
 20
0.0
 30
0.0
  3
$MODEL_SPACE
  1

  0
ENDBLK
  5
1A3
  8
0
  0
BLOCK
 67
     1
  8
0
  2
$PAPER_SPACE
 70
     0
 10
0.0
 20
0.0
 30
0.0
  3
$PAPER_SPACE
  1

  0
ENDBLK
  5
1A1
 67
     1
  8
0
  0
ENDSEC
  0
SECTION
  2
ENTITIES
  0
LINE
  5
37
  8
1
 10
120.0
 20
140.0
 30
0.0
 11
60.0
 21
140.0
 31
0.0
  0
LINE
  5
38
  8
1
 10
90.0
 20
170.0
 30
0.0
 11
90.0
 21
110.0
 31
0.0
  0
ARC
  5
39
  8
0
 10
90.0
 20
157.0
 30
0.0
 40
8.0
 50
28.249675486956502
 51
151.75029972279671
  0
ARC
  5
3A
  8
0
 10
106.1679607770176
 20
145.2532889043741
 30
0.0
 40
7.9999999999999707
 50
316.24967556940038
 51
316.24967560790412
  0
ARC
  5
3B
  8
0
 10
73.832039222982388
 20
145.2532889043741
 30
0.0
 40
7.9999999999999867
 50
100.2496991858184
 51
217.707416116502
  0
ARC
  5
3C
  8
0
 10
110.2605439265847
 20
167.88624635946331
 30
0.0
 40
15.0
 50
208.2496997099469
 51
259.75030019805621
  0
ARC
  5
3D
  8
2
 10
90.0
 20
105.5307038623973
 30
0.0
 40
15.0
 50
64.249700277202834
 51
115.7503128916765
  0
ARC
  5
3E
  8
2
 10
57.2177512962256
 20
129.34840170933799
 30
0.0
 40
15.0
 50
352.249701186599
 51
43.750299722796349
  0
ARC
  5
3F
  8
0
 10
69.739456073415226
 20
167.88624635946331
 30
0.0
 40
15.0
 50
280.24968705080192
 51
331.75030012390721
  0
ARC
  5
40
  8
2
 10
122.7822487037744
 20
129.34840170933799
 30
0.0
 40
15.0
 50
136.2497134341634
 51
187.75028653137269
  0
ARC
  5
41
  8
0
 10
89.999999999999986
 20
140.0
 30
0.0
 40
22.5
 50
147.76904736449791
 51
32.230952635502049
  0
LINE
  5
42
  8
0
 10
109.03286631067429
 20
152.0
 30
0.0
 11
70.967133689325664
 21
152.0
 31
0.0
  0
ARC
  5
43
  8
2
 10
73.832039222982388
 20
145.2532889043741
 30
0.0
 40
7.9999999999999929
 50
217.707416116502
 51
223.75029777251791
  0
ARC
  5
44
  8
0
 10
80.007650711027935
 20
126.2467110956258
 30
0.0
 40
7.9999999999999547
 50
178.2925838834978
 51
289.70741611650249
  0
ARC
  5
45
  8
2
 10
80.007650711027935
 20
126.2467110956258
 30
0.0
 40
7.9999999999999591
 50
172.24969857208731
 51
178.2925838834978
  0
ARC
  5
46
  8
2
 10
80.007650711027935
 20
126.2467110956258
 30
0.0
 40
7.9999999999999574
 50
289.70741611650249
 51
295.75027498029391
  0
ARC
  5
47
  8
0
 10
99.992349288972093
 20
126.2467110956258
 30
0.0
 40
7.9999999999999636
 50
250.2925838834972
 51
1.7074161165030119
  0
ARC
  5
48
  8
2
 10
99.992349288972093
 20
126.2467110956258
 30
0.0
 40
7.999999999999968
 50
244.2497250316531
 51
250.2925838834972
  0
ARC
  5
49
  8
2
 10
99.992349288972093
 20
126.2467110956258
 30
0.0
 40
7.9999999999999689
 50
1.707416116503
 51
7.750275011275213
  0
ARC
  5
4A
  8
0
 10
106.1679607770176
 20
145.2532889043741
 30
0.0
 40
7.9999999999999707
 50
322.29258388349712
 51
79.750301244660392
  0
ARC
  5
4B
  8
2
 10
106.1679607770176
 20
145.2532889043741
 30
0.0
 40
8.0000000000011209
 50
316.24967560790412
 51
322.29258388349717
  0
CIRCLE
  5
4C
  8
0
 10
89.999999999999986
 20
140.0
 30
0.0
 40
10.0
  0
CIRCLE
  5
4D
  8
0
 10
90.000000000000057
 20
140.0
 30
0.0
 40
6.0
  0
ARC
  5
4E
  8
0
 10
89.999999999999986
 20
140.0
 30
0.0
 40
12.5
 50
73.739795291689703
 51
106.2602047083102
  0
LINE
  5
4F
  8
0
 10
200.0
 20
133.0
 30
0.0
 11
200.0
 21
147.0
 31
0.0
  0
LINE
  5
50
  8
0
 10
217.6812883057373
 20
165.0
 30
0.0
 11
227.16419889536141
 21
165.0
 31
0.0
  0
LINE
  5
51
  8
1
 10
149.0
 20
140.0
 30
0.0
 11
237.0
 21
140.0
 31
0.0
  0
LINE
  5
52
  8
0
 10
216.9317259879829
 20
118.2467110956259
 30
0.0
 11
228.15052932819549
 21
118.2467110956259
 31
0.0
  0
LINE
  5
53
  8
0
 10
214.0
 20
127.5
 30
0.0
 11
214.0
 21
152.49999999999989
 31
0.0
  0
LINE
  5
54
  8
0
 10
201.80000000000001
 20
152.5
 30
0.0
 11
213.20456408333209
 21
152.5
 31
0.0
  0
LINE
  5
55
  8
0
 10
201.80000000000001
 20
127.5
 30
0.0
 11
213.20456408333209
 21
127.5
 31
0.0
  0
LINE
  5
56
  8
0
 10
200.30000000000001
 20
129.0
 30
0.0
 11
200.30000000000001
 21
151.0
 31
0.0
  0
LINE
  5
57
  8
0
 10
200.0
 20
147.0
 30
0.0
 11
200.30000000000001
 21
147.0
 31
0.0
  0
LINE
  5
58
  8
0
 10
200.0
 20
133.0
 30
0.0
 11
200.30000000000001
 21
133.0
 31
0.0
  0
LINE
  5
59
  8
0
 10
201.80000000000001
 20
152.5
 30
0.0
 11
200.30000000000001
 21
151.0
 31
0.0
  0
LINE
  5
5A
  8
0
 10
200.30000000000001
 20
129.0
 30
0.0
 11
201.80000000000001
 21
127.5
 31
0.0
  0
LINE
  5
5B
  8
0
 10
201.80000000000001
 20
152.5
 30
0.0
 11
201.80000000000001
 21
127.5
 31
0.0
  0
ARC
  5
5C
  8
0
 10
154.0
 20
140.0
 30
0.0
 40
78.0
 50
344.36410161335351
 51
18.161005484015639
  0
LINE
  5
5D
  8
0
 10
214.17893414811741
 20
153.2750489456561
 30
0.0
 11
216.70691824095209
 21
164.22495105434379
 31
0.0
  0
LINE
  5
5E
  8
0
 10
214.17893414811741
 20
126.7249510543438
 30
0.0
 11
215.9573559231977
 21
119.02176004128199
 31
0.0
  0
ARC
  5
5F
  8
0
 10
213.20456408333209
 20
153.5
 30
0.0
 40
1.0
 50
270.0
 51
347.0
  0
ARC
  5
60
  8
0
 10
213.20456408333209
 20
126.5
 30
0.0
 40
1.0
 50
13.0
 51
89.999999999999915
  0
ARC
  5
61
  8
0
 10
244.88544911866649
 20
148.94289282941759
 30
0.0
 40
17.0
 50
172.64402754702641
 51
195.33148280511861
  0
ARC
  5
62
  8
0
 10
217.6812883057373
 20
164.0
 30
0.0
 40
1.0
 50
90.0
 51
167.0
  0
ARC
  5
63
  8
0
 10
227.16419889536141
 20
164.0
 30
0.0
 40
1.0
 50
18.161005484015821
 51
90.0
  0
ARC
  5
64
  8
0
 10
188.3545680130498
 20
156.24080221653881
 30
0.0
 40
40.0
 50
352.64403076897003
 51
12.6113846568868
  0
ARC
  5
65
  8
0
 10
237.88544911866649
 20
119.7745751406263
 30
0.0
 40
10.0
 50
163.62352584590991
 51
188.7884374691825
  0
ARC
  5
66
  8
0
 10
189.9139489999186
 20
133.87192157025521
 30
0.0
 40
40.0
 50
343.62357114346207
 51
15.331482024255619
  0
ARC
  5
67
  8
0
 10
256.41633022428312
 20
156.24080221653881
 30
0.0
 40
40.0
 50
167.3886153431132
 51
187.35596923103
  0
ARC
  5
68
  8
0
 10
199.88544911866649
 20
148.94289282941759
 30
0.0
 40
17.0
 50
344.66851719488142
 51
7.3559724529736066
  0
ARC
  5
69
  8
0
 10
254.8569492374144
 20
133.87192157025521
 30
0.0
 40
40.0
 50
164.66851797574441
 51
196.37642885653801
  0
ARC
  5
6A
  8
0
 10
206.88544911866649
 20
119.7745751406263
 30
0.0
 40
10.0
 50
351.2115625308175
 51
16.376474154090111
  0
ARC
  5
6B
  8
0
 10
216.9317259879829
 20
119.2467110956259
 30
0.0
 40
1.0
 50
193.0
 51
269.99999999999989
  0
ARC
  5
6C
  8
0
 10
228.15052932819549
 20
119.2467110956259
 30
0.0
 40
1.0
 50
270.0
 51
344.36410161335323
  0
LINE
  5
6D
  8
0
 10
216.42380486739339
 20
127.2467110956258
 30
0.0
 11
228.34709336993939
 21
127.2467110956259
 31
0.0
  0
LINE
  5
6E
  8
0
 10
216.82332907563941
 20
142.5
 30
0.0
 11
227.94756916169351
 21
142.5
 31
0.0
  0
LINE
  5
6F
  8
0
 10
217.512757082349
 20
153.5
 30
0.0
 11
227.25814115498389
 21
153.5
 31
0.0
  0
LINE
  5
70
  8
0
 10
163.0
 20
117.5
 30
0.0
 11
163.0
 21
152.0
 31
0.0
  0
LINE
  5
71
  8
0
 10
169.0
 20
130.0
 30
0.0
 11
169.0
 21
150.5
 31
0.0
  0
LINE
  5
72
  8
0
 10
154.5
 20
150.0
 30
0.0
 11
163.0
 21
150.0
 31
0.0
  0
LINE
  5
73
  8
0
 10
154.50000000000011
 20
130.0
 30
0.0
 11
163.0
 21
130.0
 31
0.0
  0
LINE
  5
74
  8
0
 10
163.0
 20
152.0
 30
0.0
 11
169.0
 21
152.0
 31
0.0
  0
LINE
  5
75
  8
0
 10
162.99999999999989
 20
117.5
 30
0.0
 11
167.0
 21
117.5
 31
0.0
  0
LINE
  5
76
  8
0
 10
169.0
 20
152.0
 30
0.0
 11
168.9130434782609
 21
150.49999999999989
 31
0.0
  0
LINE
  5
77
  8
0
 10
165.5
 20
152.0
 30
0.0
 11
167.0
 21
117.5
 31
0.0
  0
LINE
  5
78
  8
0
 10
166.45652173913041
 20
130.0
 30
0.0
 11
169.0
 21
130.0
 31
0.0
  0
LINE
  5
79
  8
2
 10
154.5
 20
146.0
 30
0.0
 11
163.0
 21
146.0
 31
0.0
  0
LINE
  5
7A
  8
2
 10
154.5
 20
134.0
 30
0.0
 11
163.0
 21
134.0
 31
0.0
  0
LINE
  5
7B
  8
0
 10
168.99999999999989
 20
146.0
 30
0.0
 11
200.0
 21
146.0
 31
0.0
  0
LINE
  5
7C
  8
0
 10
168.99999999999989
 20
134.0
 30
0.0
 11
200.0
 21
134.0
 31
0.0
  0
LINE
  5
7D
  8
0
 10
154.00000000000011
 20
130.5
 30
0.0
 11
154.0
 21
149.5
 31
0.0
  0
LINE
  5
7E
  8
2
 10
154.0
 20
146.5
 30
0.0
 11
154.5
 21
146.0
 31
0.0
  0
LINE
  5
7F
  8
2
 10
154.5
 20
134.0
 30
0.0
 11
154.0
 21
133.5
 31
0.0
  0
LINE
  5
80
  8
2
 10
154.0
 20
145.5
 30
0.0
 11
154.5
 21
146.0
 31
0.0
  0
LINE
  5
81
  8
2
 10
154.5
 20
134.0
 30
0.0
 11
154.0
 21
134.5
 31
0.0
  0
LINE
  5
82
  8
2
 10
154.5
 20
146.0
 30
0.0
 11
154.5
 21
134.0
 31
0.0
  0
LINE
  5
83
  8
1
 10
159.0
 20
143.5
 30
0.0
 11
159.0
 21
152.5
 31
0.0
  0
LINE
  5
84
  8
2
 10
157.5
 20
146.0
 30
0.0
 11
157.5
 21
150.0
 31
0.0
  0
LINE
  5
85
  8
2
 10
160.5
 20
146.0
 30
0.0
 11
160.5
 21
150.0
 31
0.0
  0
LINE
  5
86
  8
0
 10
154.5
 20
150.0
 30
0.0
 11
154.0
 21
149.5
 31
0.0
  0
LINE
  5
87
  8
0
 10
154.00000000000011
 20
130.5
 30
0.0
 11
154.50000000000011
 21
130.0
 31
0.0
  0
LINE
  5
88
  8
0
 10
168.9130434782609
 20
150.5
 30
0.0
 11
169.0
 21
150.5
 31
0.0
  0
LINE
  5
89
  8
0
 10
168.9130434782609
 20
150.49999999999989
 30
0.0
 11
165.56521739130429
 21
150.49999999999989
 31
0.0
  0
LINE
  5
8A
  8
5
 10
169.0
 20
147.69999999999999
 30
0.0
 11
200.0
 21
147.69999999999999
 31
0.0
  0
LINE
  5
8B
  8
5
 10
168.99999999999989
 20
146.19999999999999
 30
0.0
 11
200.0
 21
146.19999999999999
 31
0.0
  0
CIRCLE
  5
8C
  8
0
 10
169.75
 20
146.94999999999999
 30
0.0
 40
0.7499999999999929
  0
CIRCLE
  5
8D
  8
0
 10
171.25
 20
146.94999999999999
 30
0.0
 40
0.7499999999999929
  0
CIRCLE
  5
8E
  8
0
 10
199.25
 20
146.94999999999999
 30
0.0
 40
0.75
  0
CIRCLE
  5
8F
  8
0
 10
197.75
 20
133.05000000000001
 30
0.0
 40
0.7499999999999929
  0
CIRCLE
  5
90
  8
0
 10
199.25
 20
133.05000000000001
 30
0.0
 40
0.7499999999999929
  0
LINE
  5
91
  8
5
 10
200.0
 20
133.80000000000001
 30
0.0
 11
168.99999999999989
 21
133.80000000000001
 31
0.0
  0
LINE
  5
92
  8
5
 10
200.0
 20
132.30000000000001
 30
0.0
 11
169.0
 21
132.30000000000001
 31
0.0
  0
CIRCLE
  5
93
  8
0
 10
169.75
 20
133.05000000000001
 30
0.0
 40
0.75
  0
ARC
  5
94
  8
0
 10
306.1679607770177
 20
145.2532889043741
 30
0.0
 40
7.9999999999999707
 50
316.24970371102319
 51
79.750301244660392
  0
ARC
  5
95
  8
0
 10
299.99234928897209
 20
126.2467110956258
 30
0.0
 40
7.9999999999999636
 50
244.24970027719601
 51
7.7502938312651359
  0
ARC
  5
96
  8
0
 10
280.00765071102802
 20
126.2467110956258
 30
0.0
 40
7.9999999999999547
 50
172.2496985720872
 51
295.75027503113029
  0
ARC
  5
97
  8
0
 10
269.73945607341523
 20
167.88624635946331
 30
0.0
 40
15.0
 50
280.24968705080192
 51
331.75030012390721
  0
ARC
  5
98
  8
0
 10
257.21775129622557
 20
129.34840170933799
 30
0.0
 40
15.0
 50
352.249701186599
 51
43.750299722796349
  0
ARC
  5
99
  8
0
 10
290.0
 20
105.5307038623973
 30
0.0
 40
15.0
 50
64.249700277202834
 51
115.7503128916765
  0
ARC
  5
9A
  8
0
 10
310.26054392658477
 20
167.88624635946331
 30
0.0
 40
15.0
 50
208.2496997099469
 51
259.75030019805621
  0
ARC
  5
9B
  8
0
 10
273.83203922298242
 20
145.2532889043741
 30
0.0
 40
7.9999999999999867
 50
100.2496991858184
 51
223.7502997227966
  0
ARC
  5
9C
  8
0
 10
290.0
 20
157.0
 30
0.0
 40
8.0
 50
28.249675486956502
 51
151.75029972279671
  0
LINE
  5
9D
  8
1
 10
290.0
 20
170.0
 30
0.0
 11
290.0
 21
110.0
 31
0.0
  0
LINE
  5
9E
  8
1
 10
320.0
 20
140.0
 30
0.0
 11
260.0
 21
140.0
 31
0.0
  0
ARC
  5
9F
  8
0
 10
322.78224870377443
 20
129.34840170933799
 30
0.0
 40
15.0
 50
136.2497002772036
 51
187.750298813401
  0
LINE
  5
A0
  8
0
 10
154.50000000000011
 20
130.0
 30
0.0
 11
154.5
 21
150.0
 31
0.0
  0
LINE
  5
A1
  8
0
 10
154.50000000000011
 20
200.0
 30
0.0
 11
154.5
 21
220.0
 31
0.0
  0
CIRCLE
  5
A2
  8
0
 10
169.75
 20
203.05000000000001
 30
0.0
 40
0.75
  0
LINE
  5
A3
  8
5
 10
200.0
 20
202.30000000000001
 30
0.0
 11
169.0
 21
202.30000000000001
 31
0.0
  0
LINE
  5
A4
  8
5
 10
200.0
 20
203.80000000000001
 30
0.0
 11
168.99999999999989
 21
203.80000000000001
 31
0.0
  0
CIRCLE
  5
A5
  8
0
 10
199.25
 20
203.05000000000001
 30
0.0
 40
0.7499999999999929
  0
CIRCLE
  5
A6
  8
0
 10
197.75
 20
203.05000000000001
 30
0.0
 40
0.7499999999999929
  0
CIRCLE
  5
A7
  8
0
 10
199.25
 20
216.94999999999999
 30
0.0
 40
0.75
  0
CIRCLE
  5
A8
  8
0
 10
171.25
 20
216.94999999999999
 30
0.0
 40
0.7499999999999929
  0
CIRCLE
  5
A9
  8
0
 10
169.75
 20
216.94999999999999
 30
0.0
 40
0.7499999999999929
  0
LINE
  5
AA
  8
5
 10
168.99999999999989
 20
216.19999999999999
 30
0.0
 11
200.0
 21
216.19999999999999
 31
0.0
  0
LINE
  5
AB
  8
5
 10
169.0
 20
217.69999999999999
 30
0.0
 11
200.0
 21
217.69999999999999
 31
0.0
  0
LINE
  5
AC
  8
0
 10
154.00000000000011
 20
200.5
 30
0.0
 11
154.50000000000011
 21
200.0
 31
0.0
  0
LINE
  5
AD
  8
0
 10
154.5
 20
220.0
 30
0.0
 11
154.0
 21
219.5
 31
0.0
  0
LINE
  5
AE
  8
1
 10
159.0
 20
206.0
 30
0.0
 11
159.0
 21
214.0
 31
0.0
  0
LINE
  5
AF
  8
2
 10
154.5
 20
216.0
 30
0.0
 11
154.5
 21
204.0
 31
0.0
  0
LINE
  5
B0
  8
2
 10
154.5
 20
204.0
 30
0.0
 11
154.0
 21
204.5
 31
0.0
  0
LINE
  5
B1
  8
2
 10
154.0
 20
215.5
 30
0.0
 11
154.5
 21
216.0
 31
0.0
  0
LINE
  5
B2
  8
2
 10
154.5
 20
204.0
 30
0.0
 11
154.0
 21
203.5
 31
0.0
  0
LINE
  5
B3
  8
2
 10
154.0
 20
216.5
 30
0.0
 11
154.5
 21
216.0
 31
0.0
  0
LINE
  5
B4
  8
0
 10
154.00000000000011
 20
200.5
 30
0.0
 11
154.0
 21
219.5
 31
0.0
  0
LINE
  5
B5
  8
0
 10
168.99999999999989
 20
204.0
 30
0.0
 11
200.0
 21
204.0
 31
0.0
  0
LINE
  5
B6
  8
0
 10
168.99999999999989
 20
216.0
 30
0.0
 11
200.0
 21
216.0
 31
0.0
  0
LINE
  5
B7
  8
2
 10
154.5
 20
204.0
 30
0.0
 11
163.0
 21
204.0
 31
0.0
  0
LINE
  5
B8
  8
2
 10
154.5
 20
216.0
 30
0.0
 11
163.0
 21
216.0
 31
0.0
  0
LINE
  5
B9
  8
0
 10
168.5458937198068
 20
220.0
 30
0.0
 11
169.0
 21
220.0
 31
0.0
  0
LINE
  5
BA
  8
0
 10
162.99999999999989
 20
232.49999999999989
 30
0.0
 11
167.9782608695653
 21
232.49999999999989
 31
0.0
  0
LINE
  5
BB
  8
0
 10
154.50000000000011
 20
200.0
 30
0.0
 11
163.0
 21
200.0
 31
0.0
  0
LINE
  5
BC
  8
0
 10
154.5
 20
220.0
 30
0.0
 11
163.0
 21
220.0
 31
0.0
  0
LINE
  5
BD
  8
0
 10
169.0
 20
220.0
 30
0.0
 11
169.0
 21
199.99999999999989
 31
0.0
  0
LINE
  5
BE
  8
0
 10
163.0
 20
232.49999999999989
 30
0.0
 11
163.0
 21
187.49999999999989
 31
0.0
  0
ARC
  5
BF
  8
0
 10
213.20456408333209
 20
196.5
 30
0.0
 40
1.0
 50
13.0
 51
89.999999999999915
  0
ARC
  5
C0
  8
0
 10
213.20456408333209
 20
223.5
 30
0.0
 40
1.0
 50
270.0
 51
347.0
  0
LINE
  5
C1
  8
0
 10
214.17893414811741
 20
196.7249510543439
 30
0.0
 11
216.51482685059671
 21
186.60708816863851
 31
0.0
  0
LINE
  5
C2
  8
0
 10
214.17893414811741
 20
223.2750489456561
 30
0.0
 11
216.51482685059659
 21
233.39291183136149
 31
0.0
  0
ARC
  5
C3
  8
0
 10
154.0
 20
210.0
 30
0.0
 40
78.0
 50
342.48937772079961
 51
17.510622279200359
  0
LINE
  5
C4
  8
0
 10
201.80000000000001
 20
222.5
 30
0.0
 11
201.80000000000001
 21
197.5
 31
0.0
  0
LINE
  5
C5
  8
0
 10
200.30000000000001
 20
199.0
 30
0.0
 11
201.80000000000001
 21
197.5
 31
0.0
  0
LINE
  5
C6
  8
0
 10
201.80000000000001
 20
222.5
 30
0.0
 11
200.30000000000001
 21
221.0
 31
0.0
  0
LINE
  5
C7
  8
0
 10
200.0
 20
203.0
 30
0.0
 11
200.30000000000001
 21
203.0
 31
0.0
  0
LINE
  5
C8
  8
0
 10
200.0
 20
217.0
 30
0.0
 11
200.30000000000001
 21
217.0
 31
0.0
  0
LINE
  5
C9
  8
0
 10
200.30000000000001
 20
199.0
 30
0.0
 11
200.30000000000001
 21
221.0
 31
0.0
  0
LINE
  5
CA
  8
0
 10
201.80000000000001
 20
197.5
 30
0.0
 11
213.20456408333209
 21
197.5
 31
0.0
  0
LINE
  5
CB
  8
0
 10
201.80000000000001
 20
222.5
 30
0.0
 11
213.20456408333209
 21
222.5
 31
0.0
  0
LINE
  5
CC
  8
0
 10
214.0
 20
197.5
 30
0.0
 11
214.0
 21
222.5
 31
0.0
  0
LINE
  5
CD
  8
1
 10
149.0
 20
210.0
 30
0.0
 11
237.0
 21
210.0
 31
0.0
  0
LINE
  5
CE
  8
0
 10
200.0
 20
203.0
 30
0.0
 11
200.0
 21
217.0
 31
0.0
  0
LINE
  5
CF
  8
0
 10
227.4319112745581
 20
234.16796077701761
 30
0.0
 11
217.48919691538191
 21
234.16796077701761
 31
0.0
  0
LINE
  5
D0
  8
0
 10
227.4319112745581
 20
185.83203922298239
 30
0.0
 11
217.48919691538191
 21
185.83203922298239
 31
0.0
  0
ARC
  5
D1
  8
0
 10
217.48919691538191
 20
233.16796077701761
 30
0.0
 40
1.0
 50
90.0
 51
167.0
  0
ARC
  5
D2
  8
0
 10
227.4319112745581
 20
233.16796077701761
 30
0.0
 40
1.0
 50
17.51062227919985
 51
90.0
  0
ARC
  5
D3
  8
0
 10
227.4319112745581
 20
186.83203922298239
 30
0.0
 40
1.0
 50
270.0
 51
342.48937772080041
  0
ARC
  5
D4
  8
0
 10
217.48919691538191
 20
186.83203922298239
 30
0.0
 40
1.0
 50
193.0
 51
269.99999999999989
  0
ARC
  5
D5
  8
0
 10
222.0484107818888
 20
222.3193077169131
 30
0.0
 40
7.8655382180298128
 50
341.29910064974302
 51
19.60630515860889
  0
ARC
  5
D6
  8
0
 10
222.0484107818888
 20
197.68069228308681
 30
0.0
 40
7.8655382180298128
 50
340.39362788346978
 51
18.70089935025214
  0
ARC
  5
D7
  8
0
 10
258.44243087042281
 20
210.0
 30
0.0
 40
30.556981751756229
 50
161.29914535023639
 51
198.70085464976361
  0
ARC
  5
D8
  8
0
 10
255.0063137308442
 20
234.0591976740119
 30
0.0
 40
27.12086461217773
 50
179.9999997423381
 51
199.60634834706991
  0
ARC
  5
D9
  8
0
 10
255.0063137308442
 20
185.9408023259881
 30
0.0
 40
27.12086461217773
 50
160.39365165293009
 51
180.0000002576619
  0
ARC
  5
DA
  8
0
 10
186.32846736691019
 20
210.0
 30
0.0
 40
30.556981751756229
 50
341.29914535023647
 51
18.700854649763581
  0
ARC
  5
DB
  8
0
 10
222.72248745544411
 20
197.68069228308681
 30
0.0
 40
7.8655382180298128
 50
161.29910064974791
 51
199.6063721165302
  0
ARC
  5
DC
  8
0
 10
222.72248745544411
 20
222.3193077169131
 30
0.0
 40
7.8655382180298128
 50
160.3936948413911
 51
198.70089935025709
  0
ARC
  5
DD
  8
0
 10
189.76458450648869
 20
234.0591976740119
 30
0.0
 40
27.12086461217773
 50
340.39365165293009
 51
0.0000002576619
  0
ARC
  5
DE
  8
0
 10
189.76458450648869
 20
185.9408023259881
 30
0.0
 40
27.12086461217773
 50
359.9999997423381
 51
19.6063483470699
  0
LINE
  5
DF
  8
0
 10
227.63933552404691
 20
227.59146775037451
 30
0.0
 11
217.131562713286
 21
227.59146775037451
 31
0.0
  0
LINE
  5
E0
  8
0
 10
227.68237866823861
 20
217.04714735191331
 30
0.0
 11
217.08851956909439
 21
217.04714735191331
 31
0.0
  0
LINE
  5
E1
  8
0
 10
227.6823782928987
 20
202.9528542864052
 30
0.0
 11
217.0885199444341
 21
202.9528542864052
 31
0.0
  0
LINE
  5
E2
  8
0
 10
227.63933466934611
 20
192.40852863311869
 30
0.0
 11
217.13156356798689
 21
192.40852863311869
 31
0.0
  0
CIRCLE
  5
E3
  8
0
 10
159.0
 20
210.0
 30
0.0
 40
1.5
  0
LINE
  5
E4
  8
0
 10
163.0
 20
187.49999999999989
 30
0.0
 11
166.02173913043481
 21
187.49999999999989
 31
0.0
  0
LINE
  5
E5
  8
0
 10
169.0
 20
210.00000000000011
 30
0.0
 11
165.5
 21
210.0
 31
0.0
  0
LINE
  5
E6
  8
0
 10
165.5
 20
210.0
 30
0.0
 11
166.02173913043481
 21
187.49999999999989
 31
0.0
  0
LINE
  5
E7
  8
0
 10
166.02173913043481
 20
187.49999999999989
 30
0.0
 11
166.5652173913044
 21
199.99999999999989
 31
0.0
  0
LINE
  5
E8
  8
0
 10
167.9782608695653
 20
232.49999999999989
 30
0.0
 11
169.0
 21
210.00000000000011
 31
0.0
  0
LINE
  5
E9
  8
0
 10
163.0
 20
190.96713368932561
 30
0.0
 11
165.94134182749389
 21
190.96713368932561
 31
0.0
  0
LINE
  5
EA
  8
0
 10
163.0
 20
229.03286631067419
 30
0.0
 11
168.13570558782459
 21
229.03286631067419
 31
0.0
  0
LINE
  5
EB
  8
2
 10
163.0
 20
89.032866310674251
 30
0.0
 11
168.13570558782459
 21
89.032866310674251
 31
0.0
  0
LINE
  5
EC
  8
2
 10
163.0
 20
50.967133689325692
 30
0.0
 11
165.94134182749389
 21
50.967133689325692
 31
0.0
  0
LINE
  5
ED
  8
0
 10
167.9782608695653
 20
92.5
 30
0.0
 11
168.5458937198068
 21
80.000000000000028
 31
0.0
  0
LINE
  5
EE
  8
0
 10
166.02173913043481
 20
47.499999999999972
 30
0.0
 11
167.9782608695653
 21
92.5
 31
0.0
  0
LINE
  5
EF
  8
2
 10
165.5
 20
70.000000000000028
 30
0.0
 11
166.02173913043481
 21
47.499999999999972
 31
0.0
  0
LINE
  5
F0
  8
2
 10
169.0
 20
70.000000000000142
 30
0.0
 11
165.5
 21
70.000000000000043
 31
0.0
  0
LINE
  5
F1
  8
0
 10
163.0
 20
47.5
 30
0.0
 11
166.02173913043481
 21
47.5
 31
0.0
  0
ARC
  5
F2
  8
0
 10
217.48919691538191
 20
46.832039222982402
 30
0.0
 40
1.0
 50
193.0
 51
269.99999999999989
  0
ARC
  5
F3
  8
0
 10
227.4319112745581
 20
46.832039222982402
 30
0.0
 40
1.0
 50
270.0
 51
342.48937772080041
  0
ARC
  5
F4
  8
0
 10
227.4319112745581
 20
93.167960777017612
 30
0.0
 40
1.0
 50
17.51062227919985
 51
90.0
  0
ARC
  5
F5
  8
0
 10
217.48919691538191
 20
93.167960777017612
 30
0.0
 40
1.0
 50
90.0
 51
167.0
  0
LINE
  5
F6
  8
0
 10
227.4319112745581
 20
45.832039222982402
 30
0.0
 11
217.48919691538191
 21
45.832039222982402
 31
0.0
  0
LINE
  5
F7
  8
0
 10
227.4319112745581
 20
94.167960777017612
 30
0.0
 11
217.48919691538191
 21
94.167960777017612
 31
0.0
  0
LINE
  5
F8
  8
0
 10
200.0
 20
63.0
 30
0.0
 11
200.0
 21
77.0
 31
0.0
  0
LINE
  5
F9
  8
1
 10
149.0
 20
70.0
 30
0.0
 11
237.0
 21
70.0
 31
0.0
  0
LINE
  5
FA
  8
0
 10
214.0
 20
57.5
 30
0.0
 11
214.0
 21
82.499999999999943
 31
0.0
  0
LINE
  5
FB
  8
0
 10
201.80000000000001
 20
82.5
 30
0.0
 11
213.20456408333209
 21
82.5
 31
0.0
  0
LINE
  5
FC
  8
0
 10
201.80000000000001
 20
57.5
 30
0.0
 11
213.20456408333209
 21
57.5
 31
0.0
  0
LINE
  5
FD
  8
0
 10
200.30000000000001
 20
59.0
 30
0.0
 11
200.30000000000001
 21
81.0
 31
0.0
  0
LINE
  5
FE
  8
0
 10
200.0
 20
77.0
 30
0.0
 11
200.30000000000001
 21
77.0
 31
0.0
  0
LINE
  5
FF
  8
0
 10
200.0
 20
63.0
 30
0.0
 11
200.30000000000001
 21
63.0
 31
0.0
  0
LINE
  5
100
  8
0
 10
201.80000000000001
 20
82.5
 30
0.0
 11
200.30000000000001
 21
81.0
 31
0.0
  0
LINE
  5
101
  8
0
 10
200.30000000000001
 20
59.0
 30
0.0
 11
201.80000000000001
 21
57.5
 31
0.0
  0
LINE
  5
102
  8
0
 10
201.80000000000001
 20
82.5
 30
0.0
 11
201.80000000000001
 21
57.5
 31
0.0
  0
ARC
  5
103
  8
0
 10
154.0
 20
70.000000000000028
 30
0.0
 40
78.0
 50
342.48937772079961
 51
17.510622279200359
  0
LINE
  5
104
  8
0
 10
214.17893414811741
 20
83.275048945656124
 30
0.0
 11
216.51482685059659
 21
93.392911831361488
 31
0.0
  0
LINE
  5
105
  8
0
 10
214.17893414811741
 20
56.724951054343869
 30
0.0
 11
216.51482685059671
 21
46.607088168638541
 31
0.0
  0
ARC
  5
106
  8
0
 10
213.20456408333209
 20
83.499999999999986
 30
0.0
 40
1.0
 50
270.0
 51
347.0
  0
ARC
  5
107
  8
0
 10
213.20456408333209
 20
56.5
 30
0.0
 40
1.0
 50
13.0
 51
89.999999999999915
  0
LINE
  5
108
  8
0
 10
163.0
 20
92.499999999999986
 30
0.0
 11
163.0
 21
47.5
 31
0.0
  0
LINE
  5
109
  8
0
 10
169.0
 20
80.000000000000028
 30
0.0
 11
169.0
 21
59.999999999999972
 31
0.0
  0
LINE
  5
10A
  8
0
 10
154.5
 20
80.0
 30
0.0
 11
163.0
 21
80.0
 31
0.0
  0
LINE
  5
10B
  8
0
 10
154.50000000000011
 20
60.0
 30
0.0
 11
163.0
 21
59.999999999999972
 31
0.0
  0
LINE
  5
10C
  8
0
 10
162.99999999999989
 20
92.5
 30
0.0
 11
167.9782608695653
 21
92.5
 31
0.0
  0
LINE
  5
10D
  8
0
 10
167.43478260869571
 20
80.000000000000028
 30
0.0
 11
169.0
 21
80.000000000000028
 31
0.0
  0
LINE
  5
10E
  8
2
 10
154.5
 20
76.0
 30
0.0
 11
163.0
 21
76.0
 31
0.0
  0
LINE
  5
10F
  8
2
 10
154.5
 20
64.0
 30
0.0
 11
163.0
 21
64.0
 31
0.0
  0
LINE
  5
110
  8
0
 10
168.99999999999989
 20
76.0
 30
0.0
 11
200.0
 21
76.0
 31
0.0
  0
LINE
  5
111
  8
0
 10
168.99999999999989
 20
64.0
 30
0.0
 11
200.0
 21
64.0
 31
0.0
  0
LINE
  5
112
  8
0
 10
154.00000000000011
 20
60.5
 30
0.0
 11
154.0
 21
79.5
 31
0.0
  0
LINE
  5
113
  8
2
 10
154.0
 20
76.5
 30
0.0
 11
154.5
 21
76.0
 31
0.0
  0
LINE
  5
114
  8
2
 10
154.5
 20
64.0
 30
0.0
 11
154.0
 21
63.5
 31
0.0
  0
LINE
  5
115
  8
2
 10
154.0
 20
75.5
 30
0.0
 11
154.5
 21
76.0
 31
0.0
  0
LINE
  5
116
  8
2
 10
154.5
 20
64.0
 30
0.0
 11
154.0
 21
64.5
 31
0.0
  0
LINE
  5
117
  8
2
 10
154.5
 20
76.0
 30
0.0
 11
154.5
 21
64.0
 31
0.0
  0
LINE
  5
118
  8
0
 10
154.5
 20
80.0
 30
0.0
 11
154.0
 21
79.5
 31
0.0
  0
LINE
  5
119
  8
0
 10
154.00000000000011
 20
60.5
 30
0.0
 11
154.50000000000011
 21
60.0
 31
0.0
  0
LINE
  5
11A
  8
5
 10
169.0
 20
77.699999999999989
 30
0.0
 11
200.0
 21
77.699999999999989
 31
0.0
  0
LINE
  5
11B
  8
5
 10
168.99999999999989
 20
76.199999999999989
 30
0.0
 11
200.0
 21
76.199999999999989
 31
0.0
  0
CIRCLE
  5
11C
  8
0
 10
169.75
 20
76.950000000000017
 30
0.0
 40
0.7499999999999929
  0
CIRCLE
  5
11D
  8
0
 10
171.25
 20
76.950000000000017
 30
0.0
 40
0.7499999999999929
  0
CIRCLE
  5
11E
  8
0
 10
199.25
 20
76.949999999999989
 30
0.0
 40
0.75
  0
CIRCLE
  5
11F
  8
0
 10
197.75
 20
63.049999999999983
 30
0.0
 40
0.7499999999999929
  0
CIRCLE
  5
120
  8
0
 10
199.25
 20
63.049999999999983
 30
0.0
 40
0.7499999999999929
  0
LINE
  5
121
  8
5
 10
200.0
 20
63.800000000000011
 30
0.0
 11
168.99999999999989
 21
63.800000000000011
 31
0.0
  0
LINE
  5
122
  8
5
 10
200.0
 20
62.300000000000011
 30
0.0
 11
169.0
 21
62.300000000000011
 31
0.0
  0
CIRCLE
  5
123
  8
0
 10
169.75
 20
63.050000000000011
 30
0.0
 40
0.75
  0
LINE
  5
124
  8
0
 10
154.50000000000011
 20
60.0
 30
0.0
 11
154.5
 21
80.0
 31
0.0
  0
ARC
  5
125
  8
0
 10
218.4318540405967
 20
70.000001552621711
 30
0.0
 40
11.48209495932212
 50
337.68847059658589
 51
22.302324208271941
  0
ARC
  5
126
  8
0
 10
243.52022983186501
 20
80.290694060001314
 30
0.0
 40
15.63478082173601
 50
160.68857812897909
 51
202.30236082440521
  0
ARC
  5
127
  8
0
 10
243.52022983186501
 20
59.709309719591701
 30
0.0
 40
15.63478082173601
 50
157.69763917559479
 51
199.29704626749819
  0
ARC
  5
128
  8
0
 10
219.15483425021139
 20
51.178079091332393
 30
0.0
 40
10.180997258403551
 50
343.8870607157582
 51
19.297049823922428
  0
ARC
  5
129
  8
0
 10
219.15483425021139
 20
88.821920908667607
 30
0.0
 40
10.180997258403551
 50
340.70295017607759
 51
16.112939284241811
  0
ARC
  5
12A
  8
0
 10
201.25066840546799
 20
59.709309719591701
 30
0.0
 40
15.63478082173601
 50
343.94699288663429
 51
22.302360824405248
  0
ARC
  5
12B
  8
0
 10
201.25066840546799
 20
80.290694060001314
 30
0.0
 40
15.63478082173601
 50
337.69763917559482
 51
16.067357947848091
  0
ARC
  5
12C
  8
0
 10
226.3390441967363
 20
70.000001552621711
 30
0.0
 40
11.48209495932212
 50
157.6976757917281
 51
202.31152940341411
  0
ARC
  5
12D
  8
0
 10
229.5792663141423
 20
51.55784369972195
 30
0.0
 40
13.84327640299367
 50
163.94699020469841
 51
193.0000131218759
  0
ARC
  5
12E
  8
0
 10
229.5792663141423
 20
88.442156300278057
 30
0.0
 40
13.84327640299367
 50
166.99998687812399
 51
196.05300979530151
  0
LINE
  5
12F
  8
0
 10
228.29827570223651
 20
87.992349288972022
 30
0.0
 11
216.74386906994789
 21
87.992349288972022
 31
0.0
  0
LINE
  5
130
  8
0
 10
226.888124631837
 20
79.992349288972065
 30
0.0
 11
217.88277360549591
 21
79.992349288972065
 31
0.0
  0
LINE
  5
131
  8
0
 10
226.8881245640396
 20
60.0076507110279
 30
0.0
 11
217.8827736732934
 21
60.0076507110279
 31
0.0
  0
LINE
  5
132
  8
0
 10
228.29827570223651
 20
52.007650711027942
 30
0.0
 11
216.74386906994789
 21
52.007650711027942
 31
0.0
  0
LINE
  5
133
  8
0
 10
165.731884057971
 20
199.99999999999989
 30
0.0
 11
169.0
 21
199.99999999999989
 31
0.0
  0
LINE
  5
134
  8
2
 10
166.5652173913044
 20
199.99999999999989
 30
0.0
 11
167.9782608695653
 21
232.49999999999989
 31
0.0
  0
LINE
  5
135
  8
0
 10
166.56521739130429
 20
59.999999999999972
 30
0.0
 11
169.0
 21
59.999999999999972
 31
0.0
  0
LINE
  5
13F
  8
0
 10
167.72463768115941
 20
130.0
 30
0.0
 11
167.0
 21
117.5
 31
0.0
  0
LINE
  5
140
  8
2
 10
168.91304347826079
 20
150.49999999999989
 30
0.0
 11
167.72463768115941
 21
130.0
 31
0.0
  0
TEXT
  5
28D
  8
0
 62
     3
 10
0.0
 20
0.0
 30
0.0
 40
10.0
  1
SL50X46L
  7
STANDARD1
  0
ENDSEC
  0
EOF
