  0
SECTION
  2
HEADER
  9
$ACADVER
  1
AC1009
  9
$INSBASE
 10
0.0
 20
0.0
 30
0.0
  9
$EXTMIN
 10
0.0
 20
-2.960436562073669
 30
0.0
  9
$EXTMAX
 10
345.0
 20
258.99665858404961
 30
0.0
  9
$LIMMIN
 10
0.0
 20
0.0
  9
$LIMMAX
 10
375.0
 20
270.0
  9
$ORTHOMODE
 70
     1
  9
$REGENMODE
 70
     1
  9
$FILLMODE
 70
     1
  9
$QTEXTMODE
 70
     0
  9
$MIRRTEXT
 70
     0
  9
$DRAGMODE
 70
     2
  9
$LTSCALE
 40
10.0
  9
$OSMODE
 70
    55
  9
$ATTMODE
 70
     1
  9
$TEXTSIZE
 40
5.0
  9
$TRACEWID
 40
0.05
  9
$TEXTSTYLE
  7
STANDARD
  9
$CLAYER
  8
0
  9
$CELTYPE
  6
BYLAYER
  9
$CECOLOR
 62
   256
  9
$DIMSCALE
 40
1.0
  9
$DIMASZ
 40
3.0
  9
$DIMEXO
 40
2.0
  9
$DIMDLI
 40
0.38
  9
$DIMRND
 40
0.0
  9
$DIMDLE
 40
0.0
  9
$DIMEXE
 40
2.0
  9
$DIMTP
 40
0.0
  9
$DIMTM
 40
0.0
  9
$DIMTXT
 40
3.2000000000000002
  9
$DIMCEN
 40
0.0
  9
$DIMTSZ
 40
0.0
  9
$DIMTOL
 70
     0
  9
$DIMLIM
 70
     0
  9
$DIMTIH
 70
     0
  9
$DIMTOH
 70
     0
  9
$DIMSE1
 70
     0
  9
$DIMSE2
 70
     0
  9
$DIMTAD
 70
     1
  9
$DIMZIN
 70
     0
  9
$DIMBLK
  1

  9
$DIMASO
 70
     1
  9
$DIMSHO
 70
     0
  9
$DIMPOST
  1

  9
$DIMAPOST
  1

  9
$DIMALT
 70
     0
  9
$DIMALTD
 70
     2
  9
$DIMALTF
 40
25.399999999999999
  9
$DIMLFAC
 40
1.0
  9
$DIMTOFL
 70
     1
  9
$DIMTVP
 40
1.6000000000000001
  9
$DIMTIX
 70
     1
  9
$DIMSOXD
 70
     0
  9
$DIMSAH
 70
     0
  9
$DIMBLK1
  1

  9
$DIMBLK2
  1

  9
$DIMSTYLE
  2
STANDARD
  9
$DIMCLRD
 70
     0
  9
$DIMCLRE
 70
     0
  9
$DIMCLRT
 70
     0
  9
$DIMTFAC
 40
1.0
  9
$DIMGAP
 40
0.09
  9
$LUNITS
 70
     2
  9
$LUPREC
 70
     4
  9
$SKETCHINC
 40
0.1
  9
$FILLETRAD
 40
1.1999999999999991
  9
$AUNITS
 70
     0
  9
$AUPREC
 70
     4
  9
$MENU
  1
E:\r13\win\SUPPORT\ACAD
  9
$ELEVATION
 40
0.0
  9
$PELEVATION
 40
0.0
  9
$THICKNESS
 40
0.0
  9
$LIMCHECK
 70
     0
  9
$BLIPMODE
 70
     0
  9
$CHAMFERA
 40
0.0
  9
$CHAMFERB
 40
0.0
  9
$SKPOLY
 70
     0
  9
$TDCREATE
 40
2449839.784814815
  9
$TDUPDATE
 40
2456598.5438427082
  9
$TDINDWG
 40
0.0001470139
  9
$TDUSRTIMER
 40
0.0001470139
  9
$USRTIMER
 70
     1
  9
$ANGBASE
 50
0.0
  9
$ANGDIR
 70
     0
  9
$PDMODE
 70
     0
  9
$PDSIZE
 40
0.0
  9
$PLINEWID
 40
0.0
  9
$COORDS
 70
     1
  9
$SPLFRAME
 70
     0
  9
$SPLINETYPE
 70
     6
  9
$SPLINESEGS
 70
     8
  9
$ATTDIA
 70
     0
  9
$ATTREQ
 70
     1
  9
$HANDLING
 70
     1
  9
$HANDSEED
  5
301
  9
$SURFTAB1
 70
     6
  9
$SURFTAB2
 70
     6
  9
$SURFTYPE
 70
     6
  9
$SURFU
 70
     6
  9
$SURFV
 70
     6
  9
$UCSNAME
  2

  9
$UCSORG
 10
0.0
 20
0.0
 30
0.0
  9
$UCSXDIR
 10
1.0
 20
0.0
 30
0.0
  9
$UCSYDIR
 10
0.0
 20
1.0
 30
0.0
  9
$PUCSNAME
  2

  9
$PUCSORG
 10
0.0
 20
0.0
 30
0.0
  9
$PUCSXDIR
 10
1.0
 20
0.0
 30
0.0
  9
$PUCSYDIR
 10
0.0
 20
1.0
 30
0.0
  9
$USERI1
 70
     0
  9
$USERI2
 70
     1
  9
$USERI3
 70
     1
  9
$USERI4
 70
     0
  9
$USERI5
 70
     0
  9
$USERR1
 40
0.0
  9
$USERR2
 40
0.0
  9
$USERR3
 40
0.0
  9
$USERR4
 40
0.0
  9
$USERR5
 40
0.0
  9
$WORLDVIEW
 70
     1
  9
$SHADEDGE
 70
     3
  9
$SHADEDIF
 70
    70
  9
$TILEMODE
 70
     1
  9
$MAXACTVP
 70
    16
  9
$PLIMCHECK
 70
     0
  9
$PEXTMIN
 10
1.0000000000000000E+020
 20
1.0000000000000000E+020
 30
1.0000000000000000E+020
  9
$PEXTMAX
 10
-1.0000000000000000E+020
 20
-1.0000000000000000E+020
 30
-1.0000000000000000E+020
  9
$PLIMMIN
 10
0.0
 20
0.0
  9
$PLIMMAX
 10
12.0
 20
9.0
  9
$UNITMODE
 70
     0
  9
$VISRETAIN
 70
     0
  9
$PLINEGEN
 70
     0
  9
$PSLTSCALE
 70
     0
  0
ENDSEC
  0
SECTION
  2
TABLES
  0
TABLE
  2
VPORT
 70
     1
  0
VPORT
  2
*ACTIVE
 70
     0
 10
0.0
 20
0.0
 11
1.0
 21
1.0
 12
187.49427839065231
 22
174.91677254346851
 13
0.0
 23
0.0
 14
10.0
 24
10.0
 15
10.0
 25
10.0
 16
0.0
 26
0.0
 36
1.0
 17
0.0
 27
0.0
 37
0.0
 40
358.92027899574339
 41
1.7807262569832401
 42
50.0
 43
0.0
 44
0.0
 50
0.0
 51
0.0
 71
     0
 72
   500
 73
     1
 74
     0
 75
     0
 76
     0
 77
     0
 78
     2
  0
ENDTAB
  0
TABLE
  2
LTYPE
 70
     5
  0
LTYPE
  2
CONTINUOUS
 70
     0
  3
Solid Line
 72
    65
 73
     0
 40
0.0
  0
LTYPE
  2
CENTER
 70
     0
  3
____ _ ____ _ ____ _ ____ _ ____ _ ____ _ ____
 72
    65
 73
     4
 40
2.0
 49
1.25
 49
-0.25
 49
0.25
 49
-0.25
  0
LTYPE
  2
HIDDEN
 70
     0
  3
_ _ _ _ _ _ _ _ _ _ _ _ _ _ _ _ _ _ _ _ _ _ _
 72
    65
 73
     2
 40
0.375
 49
0.25
 49
-0.125
  0
LTYPE
  2
PHANTOM
 70
     0
  3
_____ _ _ _____ _ _ _____ _ _ _____ _ _ ____
 72
    65
 73
     6
 40
2.5
 49
1.25
 49
-0.25
 49
0.25
 49
-0.25
 49
0.25
 49
-0.25
  0
LTYPE
  2
PHANTOM2
 70
     0
  3
___ _ _ ___ _ _ ___ _ _ ___ _ _
 72
    65
 73
     6
 40
1.25
 49
0.625
 49
-0.125
 49
0.125
 49
-0.125
 49
0.125
 49
-0.125
  0
ENDTAB
  0
TABLE
  2
LAYER
 70
     4
  0
LAYER
  2
0
 70
     0
 62
     7
  6
CONTINUOUS
  0
LAYER
  2
1
 70
     0
 62
     1
  6
CENTER
  0
LAYER
  2
2
 70
     0
 62
     2
  6
HIDDEN
  0
LAYER
  2
5
 70
     0
 62
     3
  6
PHANTOM
  0
ENDTAB
  0
TABLE
  2
STYLE
 70
     2
  0
STYLE
  2
STANDARD
 70
     0
 40
0.0
 41
1.0
 50
0.0
 71
     0
 42
5.0
  3
TXT
  4
BIGFONT
  0
STYLE
  2
STANDARD1
 70
     0
 40
0.0
 41
1.0
 50
0.0
 71
     0
 42
3.0
  3
txt
  4

  0
ENDTAB
  0
TABLE
  2
VIEW
 70
     1
  0
VIEW
  2
ALL
 70
     0
 40
270.0
 10
220.99159663865549
 20
135.0
 41
0.0
 11
0.0
 21
0.0
 31
1.0
 12
0.0
 22
0.0
 32
0.0
 42
0.0
 43
0.0
 44
0.0
 50
0.0
 71
     0
  0
ENDTAB
  0
TABLE
  2
UCS
 70
     0
  0
ENDTAB
  0
TABLE
  2
APPID
 70
     3
  0
APPID
  2
ACAD
 70
     0
  0
APPID
  2
ACAD_MLEADERVER
 70
     0
  0
APPID
  2
ACAD_NAV_VCDISPLAY
 70
     0
  0
ENDTAB
  0
TABLE
  2
DIMSTYLE
 70
     1
  0
DIMSTYLE
  2
STANDARD
 70
     0
  3

  4

  5

  6

  7

 40
1.0
 41
0.18
 42
0.0625
 43
0.38
 44
0.18
 45
0.0
 46
0.0
 47
0.0
 48
0.0
140
0.18
141
0.09
142
0.0
143
25.399999999999999
144
1.0
145
0.0
146
1.0
147
0.09
 71
     0
 72
     0
 73
     1
 74
     1
 75
     0
 76
     0
 77
     0
 78
     0
170
     0
171
     2
172
     0
173
     0
174
     0
175
     0
176
     0
177
     0
178
     0
  0
ENDTAB
  0
ENDSEC
  0
SECTION
  2
BLOCKS
  0
BLOCK
  8
0
  2
$MODEL_SPACE
 70
     0
 10
0.0
 20
0.0
 30
0.0
  3
$MODEL_SPACE
  1

  0
ENDBLK
  5
180
  8
0
  0
BLOCK
 67
     1
  8
0
  2
$PAPER_SPACE
 70
     0
 10
0.0
 20
0.0
 30
0.0
  3
$PAPER_SPACE
  1

  0
ENDBLK
  5
17E
 67
     1
  8
0
  0
ENDSEC
  0
SECTION
  2
ENTITIES
  0
ARC
  5
37
  8
0
 10
222.16019666092589
 20
160.4327102421141
 30
0.0
 40
15.558158542749039
 50
162.02318771441179
 51
197.9768122855883
  0
ARC
  5
38
  8
0
 10
177.17051256180949
 20
147.81548174673691
 30
0.0
 40
31.186236522963359
 50
345.48657988407581
 51
14.51342011592447
  0
ARC
  5
39
  8
0
 10
251.17051256180949
 20
132.21300476982111
 30
0.0
 40
44.4956319119621
 50
169.92100231345259
 51
190.07899768654619
  0
ARC
  5
3A
  8
0
 10
147.04326140795979
 20
113.77772987393971
 30
0.0
 40
61.250987751940478
 50
1.8260368490445309
 51
10.011547861940469
  0
ARC
  5
3B
  8
0
 10
204.17051256180949
 20
115.7294901687532
 30
0.0
 40
4.0926323182703754
 50
340.18252565342817
 51
359.99996467607042
  0
ARC
  5
3C
  8
0
 10
186.1499070096994
 20
171.7154909738241
 30
0.0
 40
22.179679853264261
 50
343.00993190590191
 51
353.00313957949032
  0
ARC
  5
3D
  8
0
 10
208.3467329416211
 20
115.1151516153156
 30
0.0
 40
1.1999999999999991
 50
192.0
 51
269.99999999999989
  0
LINE
  5
3E
  8
0
 10
220.66936751167549
 20
113.91515161531559
 30
0.0
 11
208.3467329416211
 21
113.91515161531559
 31
0.0
  0
ARC
  5
3F
  8
0
 10
112.7
 20
140.0
 30
0.0
 40
112.0
 50
347.02108346450001
 51
15.065777968384349
  0
ARC
  5
40
  8
0
 10
220.66936751167549
 20
115.1151516153156
 30
0.0
 40
1.200000000000002
 50
270.0
 51
347.02108346450223
  0
ARC
  5
41
  8
0
 10
242.72060555210999
 20
171.7154909738241
 30
0.0
 40
22.179679853264261
 50
186.99686042050959
 51
196.99006809409809
  0
ARC
  5
42
  8
0
 10
224.6999999999999
 20
115.7294901687532
 30
0.0
 40
4.0926323182703754
 50
180.00003532392961
 51
199.8174743465718
  0
ARC
  5
43
  8
0
 10
281.8272511538496
 20
113.77772987393971
 30
0.0
 40
61.250987751940478
 50
169.9884521380595
 51
178.1739631509555
  0
ARC
  5
44
  8
0
 10
177.69999999999999
 20
132.21300476982111
 30
0.0
 40
44.4956319119621
 50
349.92100231345393
 51
10.0789976865474
  0
ARC
  5
45
  8
0
 10
251.6999999999999
 20
147.81548174673691
 30
0.0
 40
31.186236522963359
 50
165.4865798840755
 51
194.51342011592411
  0
ARC
  5
46
  8
0
 10
206.71031590088359
 20
160.4327102421141
 30
0.0
 40
15.558158542749039
 50
342.02318771441168
 51
17.976812285588171
  0
LINE
  5
47
  8
0
 10
189.99999999999989
 20
126.5000000000001
 30
0.0
 11
203.728259160166
 21
126.5000000000001
 31
0.0
  0
LINE
  5
48
  8
0
 10
204.90203628104661
 20
125.5494940289814
 30
0.0
 11
207.1729558207405
 21
114.86565758633429
 31
0.0
  0
LINE
  5
49
  8
0
 10
189.99999999999989
 20
126.5000000000001
 30
0.0
 11
187.99999999999989
 21
128.50000000000011
 31
0.0
  0
ARC
  5
4A
  8
0
 10
203.728259160166
 20
125.3000000000001
 30
0.0
 40
1.1999999999999991
 50
12.00000000000008
 51
89.999999999999915
  0
ARC
  5
4B
  8
0
 10
209.17892410738941
 20
168.80000000000001
 30
0.0
 40
1.1999999999999991
 50
90.000000000000156
 51
167.99999999999989
  0
LINE
  5
4C
  8
0
 10
219.6915884544201
 20
170.0
 30
0.0
 11
209.17892410738941
 21
170.0
 31
0.0
  0
ARC
  5
4D
  8
0
 10
219.6915884544201
 20
168.80000000000001
 30
0.0
 40
1.2000000000000031
 50
15.065777968384481
 51
90.0
  0
ARC
  5
4E
  8
0
 10
203.728259160166
 20
154.69999999999979
 30
0.0
 40
1.1999999999999991
 50
270.00000000000011
 51
347.99999999999989
  0
LINE
  5
4F
  8
0
 10
204.69999999999999
 20
153.49999999999989
 30
0.0
 11
204.69999999999999
 21
126.5000000000001
 31
0.0
  0
LINE
  5
50
  8
0
 10
189.99999999999989
 20
153.4999999999998
 30
0.0
 11
190.0
 21
126.5000000000001
 31
0.0
  0
LINE
  5
51
  8
0
 10
188.0
 20
128.50000000000011
 30
0.0
 11
190.0
 21
126.5000000000001
 31
0.0
  0
LINE
  5
52
  8
0
 10
189.99999999999989
 20
153.4999999999998
 30
0.0
 11
187.99999999999989
 21
151.4999999999998
 31
0.0
  0
LINE
  5
53
  8
0
 10
204.90203628104661
 20
154.45050597101849
 30
0.0
 11
208.00514698650889
 21
169.04949402898129
 31
0.0
  0
LINE
  5
54
  8
0
 10
189.99999999999989
 20
153.4999999999998
 30
0.0
 11
203.728259160166
 21
153.49999999999989
 31
0.0
  0
LINE
  5
55
  8
0
 10
187.69999999999999
 20
133.0
 30
0.0
 11
188.0
 21
133.0
 31
0.0
  0
LINE
  5
56
  8
0
 10
187.99999999999989
 20
151.4999999999998
 30
0.0
 11
188.0
 21
128.50000000000011
 31
0.0
  0
LINE
  5
57
  8
0
 10
187.69999999999999
 20
147.0
 30
0.0
 11
188.0
 21
147.0
 31
0.0
  0
LINE
  5
58
  8
0
 10
187.69999999999999
 20
147.0
 30
0.0
 11
187.69999999999999
 21
133.0
 31
0.0
  0
LINE
  5
59
  8
5
 10
156.69999999999999
 20
133.75
 30
0.0
 11
187.69999999999999
 21
133.75
 31
0.0
  0
LINE
  5
5A
  8
5
 10
156.69999999999999
 20
132.25
 30
0.0
 11
187.69999999999999
 21
132.25
 31
0.0
  0
LINE
  5
5B
  8
5
 10
156.69999999999999
 20
147.75
 30
0.0
 11
187.69999999999999
 21
147.75
 31
0.0
  0
LINE
  5
5C
  8
5
 10
156.69999999999999
 20
146.25
 30
0.0
 11
187.69999999999999
 21
146.25
 31
0.0
  0
CIRCLE
  5
5D
  8
0
 10
159.4499999999997
 20
147.0
 30
0.0
 40
0.75
  0
CIRCLE
  5
5E
  8
0
 10
184.95000000000019
 20
133.0
 30
0.0
 40
0.75
  0
CIRCLE
  5
5F
  8
0
 10
157.44999999999999
 20
133.0
 30
0.0
 40
0.75
  0
CIRCLE
  5
60
  8
0
 10
186.94999999999999
 20
133.0
 30
0.0
 40
0.75
  0
CIRCLE
  5
61
  8
0
 10
157.44999999999999
 20
147.0
 30
0.0
 40
0.75
  0
CIRCLE
  5
62
  8
0
 10
186.94999999999999
 20
147.0
 30
0.0
 40
0.75
  0
LINE
  5
63
  8
0
 10
187.69999999999999
 20
134.0
 30
0.0
 11
156.69999999999999
 21
134.0
 31
0.0
  0
LINE
  5
64
  8
0
 10
156.69999999999999
 20
146.0
 30
0.0
 11
187.69999999999999
 21
146.0
 31
0.0
  0
LINE
  5
65
  8
1
 10
136.69999999999999
 20
140.0
 30
0.0
 11
229.69999999999999
 21
140.0
 31
0.0
  0
LINE
  5
66
  8
1
 10
35.000000000000028
 20
140.0
 30
0.0
 11
105.0
 21
140.0
 31
0.0
  0
LINE
  5
67
  8
1
 10
70.000000000000057
 20
174.99999999999969
 30
0.0
 11
70.000000000000028
 21
105.0
 31
0.0
  0
ARC
  5
68
  8
0
 10
70.000000000000028
 20
140.0000000000002
 30
0.0
 40
13.499999999999581
 50
62.733955549268352
 51
117.2660444507316
  0
ARC
  5
69
  8
0
 10
95.575555841594138
 20
175.2017326663721
 30
0.0
 40
19.999999999999549
 50
209.89181005923629
 51
258.10818994076351
  0
ARC
  5
6A
  8
0
 10
89.496658584049584
 20
146.33484838468709
 30
0.0
 40
9.5
 50
317.89181005922882
 51
78.108189940763353
  0
ARC
  5
6B
  8
0
 10
111.3821186328702
 20
126.5541345843348
 30
0.0
 40
19.999999999999549
 50
137.89181005923621
 51
186.10818994076351
  0
ARC
  5
6C
  8
0
 10
82.049597671995016
 20
123.41515161531559
 30
0.0
 40
9.5
 50
245.89181005922879
 51
6.1081899407633449
  0
ARC
  5
6D
  8
0
 10
69.999999999999915
 20
96.488265498591645
 30
0.0
 40
19.999999999999549
 50
65.89181005923632
 51
114.10818994076349
  0
ARC
  5
6E
  8
0
 10
57.950402328004969
 20
123.41515161531559
 30
0.0
 40
9.5
 50
173.89181005922879
 51
294.10818994076328
  0
ARC
  5
6F
  8
0
 10
28.617881367129879
 20
126.5541345843349
 30
0.0
 40
19.999999999999549
 50
353.89181005923632
 51
42.108189940763502
  0
ARC
  5
70
  8
0
 10
50.50334141595048
 20
146.33484838468709
 30
0.0
 40
9.5
 50
101.8918100592288
 51
222.1081899407634
  0
ARC
  5
71
  8
0
 10
70.000000000000028
 20
160.5
 30
0.0
 40
9.5
 50
29.891810059228781
 51
150.10818994076331
  0
ARC
  5
72
  8
0
 10
44.424444158405969
 20
175.20173266637221
 30
0.0
 40
19.999999999999549
 50
281.89181005923632
 51
330.10818994076351
  0
CIRCLE
  5
73
  8
0
 10
70.000000000000028
 20
140.0
 30
0.0
 40
6.0
  0
CIRCLE
  5
74
  8
0
 10
70.000000000000028
 20
140.0
 30
0.0
 40
10.0
  0
LINE
  5
75
  8
0
 10
50.967133689325749
 20
152.0
 30
0.0
 11
89.032866310674294
 21
152.0
 31
0.0
  0
ARC
  5
76
  8
0
 10
70.000000000000028
 20
140.0
 30
0.0
 40
22.5
 50
147.76904736449791
 51
32.230952635502121
  0
LINE
  5
77
  8
2
 10
154.69999999999999
 20
117.5
 30
0.0
 11
153.19999999999919
 21
152.0
 31
0.0
  0
LINE
  5
78
  8
0
 10
142.19999999999999
 20
150.0
 30
0.0
 11
141.6999999999999
 21
149.5
 31
0.0
  0
LINE
  5
79
  8
0
 10
142.19999999999999
 20
130.0
 30
0.0
 11
141.6999999999999
 21
130.5
 31
0.0
  0
LINE
  5
7A
  8
0
 10
141.6999999999999
 20
149.5
 30
0.0
 11
141.6999999999999
 21
130.5
 31
0.0
  0
LINE
  5
7B
  8
0
 10
142.19999999999999
 20
150.0
 30
0.0
 11
150.69999999999999
 21
150.0
 31
0.0
  0
LINE
  5
7C
  8
0
 10
150.69999999999999
 20
152.0
 30
0.0
 11
150.69999999999999
 21
117.5
 31
0.0
  0
LINE
  5
7D
  8
0
 10
150.69999999999999
 20
117.5
 30
0.0
 11
154.69999999999999
 21
117.5
 31
0.0
  0
LINE
  5
7E
  8
0
 10
154.69999999999999
 20
117.5
 30
0.0
 11
156.69999999999999
 21
152.0
 31
0.0
  0
LINE
  5
7F
  8
0
 10
156.69999999999999
 20
152.0
 30
0.0
 11
150.69999999999999
 21
152.0
 31
0.0
  0
LINE
  5
80
  8
0
 10
142.19999999999999
 20
130.0
 30
0.0
 11
150.69999999999999
 21
130.0
 31
0.0
  0
LINE
  5
81
  8
0
 10
155.4246376811594
 20
130.0
 30
0.0
 11
156.69999999999999
 21
130.0
 31
0.0
  0
LINE
  5
82
  8
0
 10
156.69999999999999
 20
130.0
 30
0.0
 11
156.69999999999999
 21
152.0
 31
0.0
  0
LINE
  5
83
  8
1
 10
146.69999999999999
 20
153.0
 30
0.0
 11
146.69999999999999
 21
143.0
 31
0.0
  0
LINE
  5
84
  8
0
 10
220.19812846779729
 20
258.99665858404961
 30
0.0
 11
209.2071506802171
 21
258.99665858404938
 31
0.0
  0
LINE
  5
85
  8
0
 10
220.1981284677972
 20
201.0033414159503
 30
0.0
 11
209.2071506802171
 21
201.0033414159503
 31
0.0
  0
ARC
  5
86
  8
0
 10
112.9414933743831
 20
230.0
 30
0.0
 40
112.0
 50
345.47085946405718
 51
14.52914053594281
  0
LINE
  5
87
  8
0
 10
204.94149337438321
 20
216.5000000000004
 30
0.0
 11
204.94149337438321
 21
243.49999999999949
 31
0.0
  0
LINE
  5
88
  8
0
 10
205.1435296554298
 20
215.54949402898129
 30
0.0
 11
208.0333735593365
 21
201.95384738696899
 31
0.0
  0
LINE
  5
89
  8
0
 10
205.1435296554298
 20
244.4505059710184
 30
0.0
 11
208.0333735593365
 21
258.04615261303081
 31
0.0
  0
ARC
  5
8A
  8
0
 10
220.19812846779729
 20
257.79665858404951
 30
0.0
 40
1.1999999999999991
 50
14.529140535942
 51
89.999999999999986
  0
ARC
  5
8B
  8
0
 10
209.2071506802171
 20
257.79665858404951
 30
0.0
 40
1.1999999999999991
 50
90.000000000000298
 51
167.99999999999989
  0
ARC
  5
8C
  8
0
 10
209.2071506802171
 20
202.2033414159504
 30
0.0
 40
1.1999999999999991
 50
191.99999999999989
 51
269.99999999999949
  0
ARC
  5
8D
  8
0
 10
220.1981284677972
 20
202.20334141595029
 30
0.0
 40
1.1999999999999991
 50
270.0
 51
345.47085946405781
  0
ARC
  5
8E
  8
0
 10
177.69999999999999
 20
216.18014920425509
 30
0.0
 40
44.4956319119621
 50
354.99637272823873
 51
5.6328266708812889
  0
ARC
  5
8F
  8
0
 10
251.6999999999999
 20
229.99999999999989
 30
0.0
 40
31.186236522963359
 50
180.0
 51
197.64373577083799
  0
ARC
  5
90
  8
0
 10
281.82725115385011
 20
199.05158112113679
 30
0.0
 40
61.250987751940478
 50
167.50903326472829
 51
177.28412714681849
  0
ARC
  5
91
  8
0
 10
251.6999999999999
 20
229.99999999999989
 30
0.0
 40
31.186236522963359
 50
162.35626422916189
 51
180.0
  0
ARC
  5
92
  8
0
 10
281.82725115385011
 20
260.94841887886298
 30
0.0
 40
61.250987751940478
 50
182.71587285318151
 51
192.4909667352716
  0
ARC
  5
93
  8
0
 10
177.69999999999999
 20
243.81985079574471
 30
0.0
 40
44.4956319119621
 50
354.36717332911871
 51
5.0036272717612951
  0
ARC
  5
94
  8
0
 10
251.17051256180949
 20
243.81985079574471
 30
0.0
 40
44.4956319119621
 50
174.99637272823861
 51
185.6328266708812
  0
ARC
  5
95
  8
0
 10
147.04326140795939
 20
260.94841887886298
 30
0.0
 40
61.250987751940478
 50
347.50903326472832
 51
357.28412714681849
  0
ARC
  5
96
  8
0
 10
177.1705125618096
 20
229.99999999999989
 30
0.0
 40
31.186236522963359
 50
360.0
 51
17.643735770838049
  0
ARC
  5
97
  8
0
 10
147.04326140795939
 20
199.05158112113679
 30
0.0
 40
61.250987751940478
 50
2.7158728531815051
 51
12.4909667352716
  0
ARC
  5
98
  8
0
 10
177.1705125618096
 20
229.99999999999989
 30
0.0
 40
31.186236522963359
 50
342.35626422916181
 51
360.0
  0
ARC
  5
99
  8
0
 10
251.17051256180949
 20
216.18014920425509
 30
0.0
 40
44.4956319119621
 50
174.3671733291186
 51
185.0036272717613
  0
LINE
  5
9A
  8
0
 10
187.69999999999999
 20
236.99999999999989
 30
0.0
 11
187.69999999999999
 21
222.99999999999989
 31
0.0
  0
LINE
  5
9B
  8
0
 10
187.69999999999999
 20
236.99999999999989
 30
0.0
 11
188.0
 21
236.99999999999989
 31
0.0
  0
LINE
  5
9C
  8
0
 10
187.99999999999989
 20
241.49999999999969
 30
0.0
 11
188.0
 21
218.5
 31
0.0
  0
LINE
  5
9D
  8
0
 10
187.69999999999999
 20
222.99999999999989
 30
0.0
 11
188.0
 21
222.99999999999989
 31
0.0
  0
LINE
  5
9E
  8
0
 10
189.99999999999989
 20
243.49999999999969
 30
0.0
 11
187.99999999999989
 21
241.49999999999969
 31
0.0
  0
LINE
  5
9F
  8
0
 10
188.0
 20
218.5
 30
0.0
 11
190.0
 21
216.5
 31
0.0
  0
LINE
  5
A0
  8
0
 10
189.99999999999989
 20
243.49999999999969
 30
0.0
 11
190.0
 21
216.5
 31
0.0
  0
LINE
  5
A1
  8
0
 10
189.99999999999989
 20
216.5
 30
0.0
 11
187.99999999999989
 21
218.5
 31
0.0
  0
LINE
  5
A2
  8
0
 10
189.99999999999989
 20
243.49999999999969
 30
0.0
 11
203.9697525345492
 21
243.49999999999969
 31
0.0
  0
LINE
  5
A3
  8
0
 10
189.99999999999989
 20
216.5
 30
0.0
 11
203.96975253454929
 21
216.5
 31
0.0
  0
LINE
  5
A4
  8
1
 10
136.69999999999999
 20
229.99999999999989
 30
0.0
 11
229.69999999999999
 21
229.99999999999989
 31
0.0
  0
ARC
  5
A5
  8
0
 10
203.9697525345492
 20
244.6999999999997
 30
0.0
 40
1.1999999999999991
 50
270.00000000000011
 51
348.0
  0
ARC
  5
A6
  8
0
 10
203.96975253454929
 20
215.30000000000001
 30
0.0
 40
1.1999999999999991
 50
11.999999999999959
 51
89.999999999999758
  0
LINE
  5
A7
  8
5
 10
156.69999999999999
 20
237.74999999999989
 30
0.0
 11
187.69999999999999
 21
237.74999999999989
 31
0.0
  0
LINE
  5
A8
  8
5
 10
156.69999999999999
 20
236.24999999999989
 30
0.0
 11
187.69999999999999
 21
236.24999999999989
 31
0.0
  0
CIRCLE
  5
A9
  8
0
 10
186.94999999999999
 20
236.99999999999989
 30
0.0
 40
0.75
  0
LINE
  5
AA
  8
0
 10
156.69999999999999
 20
235.99999999999989
 30
0.0
 11
187.69999999999999
 21
235.99999999999989
 31
0.0
  0
LINE
  5
AB
  8
0
 10
187.69999999999999
 20
223.99999999999989
 30
0.0
 11
156.69999999999999
 21
223.99999999999989
 31
0.0
  0
LINE
  5
AC
  8
5
 10
156.69999999999999
 20
223.74999999999989
 30
0.0
 11
187.69999999999999
 21
223.74999999999989
 31
0.0
  0
CIRCLE
  5
AD
  8
0
 10
184.95000000000019
 20
222.99999999999989
 30
0.0
 40
0.75
  0
CIRCLE
  5
AE
  8
0
 10
186.94999999999999
 20
222.99999999999989
 30
0.0
 40
0.75
  0
LINE
  5
AF
  8
5
 10
156.69999999999999
 20
222.24999999999989
 30
0.0
 11
187.69999999999999
 21
222.24999999999989
 31
0.0
  0
CIRCLE
  5
B0
  8
0
 10
157.44999999999999
 20
222.99999999999989
 30
0.0
 40
0.75
  0
CIRCLE
  5
B1
  8
0
 10
157.44999999999999
 20
236.99999999999989
 30
0.0
 40
0.75
  0
CIRCLE
  5
B2
  8
0
 10
159.4499999999997
 20
236.99999999999989
 30
0.0
 40
0.75
  0
LINE
  5
B3
  8
0
 10
150.6999999999999
 20
252.50000000000011
 30
0.0
 11
153.7217391304342
 21
252.5
 31
0.0
  0
LINE
  5
B4
  8
0
 10
150.69999999999999
 20
207.49999999999989
 30
0.0
 11
156.0043478260869
 21
207.49999999999989
 31
0.0
  0
LINE
  5
B5
  8
0
 10
150.69999999999999
 20
207.49999999999989
 30
0.0
 11
150.69999999999999
 21
252.50000000000011
 31
0.0
  0
LINE
  5
B6
  8
0
 10
156.69999999999999
 20
219.99999999999989
 30
0.0
 11
156.69999999999999
 21
239.99999999999989
 31
0.0
  0
LINE
  5
B7
  8
0
 10
153.19999999999931
 20
229.99999999999989
 30
0.0
 11
153.72173913043429
 21
252.5
 31
0.0
  0
LINE
  5
B8
  8
0
 10
153.19999999999931
 20
229.99999999999989
 30
0.0
 11
156.69999999999999
 21
229.99999999999989
 31
0.0
  0
LINE
  5
B9
  8
0
 10
156.00434782608701
 20
207.49999999999989
 30
0.0
 11
156.69999999999999
 21
229.99999999999989
 31
0.0
  0
LINE
  5
BA
  8
0
 10
153.43188405797039
 20
239.99999999999989
 30
0.0
 11
156.69999999999999
 21
239.99999999999989
 31
0.0
  0
LINE
  5
BB
  8
0
 10
156.39082125603861
 20
219.99999999999989
 30
0.0
 11
156.69999999999999
 21
219.99999999999989
 31
0.0
  0
LINE
  5
BC
  8
0
 10
150.69999999999999
 20
249.03286631067419
 30
0.0
 11
153.64134182749331
 21
249.03286631067419
 31
0.0
  0
LINE
  5
BD
  8
0
 10
150.69999999999999
 20
210.96713368932581
 30
0.0
 11
156.11154423000809
 21
210.96713368932581
 31
0.0
  0
LINE
  5
BE
  8
0
 10
142.19999999999999
 20
150.0
 30
0.0
 11
142.19999999999999
 21
130.0
 31
0.0
  0
LINE
  5
BF
  8
0
 10
142.19999999999999
 20
239.99999999999989
 30
0.0
 11
142.19999999999999
 21
219.99999999999989
 31
0.0
  0
LINE
  5
C0
  8
0
 10
142.19999999999999
 20
219.99999999999989
 30
0.0
 11
150.69999999999999
 21
219.99999999999989
 31
0.0
  0
LINE
  5
C1
  8
0
 10
142.19999999999999
 20
239.99999999999989
 30
0.0
 11
150.69999999999999
 21
239.99999999999989
 31
0.0
  0
LINE
  5
C2
  8
0
 10
141.6999999999999
 20
239.49999999999989
 30
0.0
 11
141.6999999999999
 21
220.49999999999989
 31
0.0
  0
LINE
  5
C3
  8
0
 10
142.19999999999999
 20
219.99999999999989
 30
0.0
 11
141.6999999999999
 21
220.49999999999989
 31
0.0
  0
LINE
  5
C4
  8
0
 10
142.19999999999999
 20
239.99999999999989
 30
0.0
 11
141.6999999999999
 21
239.49999999999989
 31
0.0
  0
LINE
  5
C5
  8
1
 10
146.69999999999999
 20
235.0
 30
0.0
 11
146.69999999999999
 21
224.99999999999989
 31
0.0
  0
CIRCLE
  5
C6
  8
0
 10
146.69999999999999
 20
229.99999999999989
 30
0.0
 40
1.5
  0
ARC
  5
C7
  8
0
 10
284.424444158406
 20
175.20173266637221
 30
0.0
 40
19.999999999999549
 50
281.89181005923632
 51
330.10818994076351
  0
ARC
  5
C8
  8
0
 10
310.0
 20
160.5
 30
0.0
 40
9.5
 50
29.891810059228781
 51
150.10818994076331
  0
ARC
  5
C9
  8
0
 10
290.50334141595039
 20
146.33484838468709
 30
0.0
 40
9.5
 50
101.8918100592288
 51
222.1081899407634
  0
ARC
  5
CA
  8
0
 10
268.61788136712988
 20
126.5541345843349
 30
0.0
 40
19.999999999999549
 50
353.89181005923632
 51
42.108189940763502
  0
ARC
  5
CB
  8
0
 10
297.950402328005
 20
123.41515161531559
 30
0.0
 40
9.5
 50
173.89181005922879
 51
294.10818994076328
  0
ARC
  5
CC
  8
0
 10
309.99999999999989
 20
96.488265498591645
 30
0.0
 40
19.999999999999549
 50
65.89181005923632
 51
114.10818994076349
  0
ARC
  5
CD
  8
0
 10
322.049597671995
 20
123.41515161531559
 30
0.0
 40
9.5
 50
245.89181005922879
 51
6.1081899407633449
  0
ARC
  5
CE
  8
0
 10
351.38211863287017
 20
126.5541345843348
 30
0.0
 40
19.999999999999549
 50
137.89181005923621
 51
186.10818994076351
  0
ARC
  5
CF
  8
0
 10
329.49665858404961
 20
146.33484838468709
 30
0.0
 40
9.5
 50
317.89181005922882
 51
78.108189940763353
  0
ARC
  5
D0
  8
0
 10
335.57555584159411
 20
175.2017326663721
 30
0.0
 40
19.999999999999549
 50
209.89181005923629
 51
258.10818994076351
  0
LINE
  5
D1
  8
1
 10
310.0
 20
174.99999999999969
 30
0.0
 11
310.0
 21
105.0
 31
0.0
  0
LINE
  5
D2
  8
1
 10
275.0
 20
140.0
 30
0.0
 11
345.0
 21
140.0
 31
0.0
  0
LINE
  5
D3
  8
0
 10
142.19999999999999
 20
59.999999999999922
 30
0.0
 11
141.6999999999999
 21
59.499999999999922
 31
0.0
  0
LINE
  5
D4
  8
0
 10
142.19999999999999
 20
39.999999999999922
 30
0.0
 11
141.6999999999999
 21
40.499999999999908
 31
0.0
  0
LINE
  5
D5
  8
0
 10
141.6999999999999
 20
59.499999999999922
 30
0.0
 11
141.6999999999999
 21
40.499999999999908
 31
0.0
  0
LINE
  5
D6
  8
0
 10
142.19999999999999
 20
59.999999999999922
 30
0.0
 11
150.69999999999999
 21
59.999999999999922
 31
0.0
  0
LINE
  5
D7
  8
0
 10
142.19999999999999
 20
39.999999999999922
 30
0.0
 11
150.69999999999999
 21
39.999999999999922
 31
0.0
  0
LINE
  5
D8
  8
0
 10
142.19999999999999
 20
59.999999999999922
 30
0.0
 11
142.19999999999999
 21
39.999999999999922
 31
0.0
  0
LINE
  5
D9
  8
0
 10
155.37028985507229
 20
59.999999999999922
 30
0.0
 11
156.69999999999999
 21
59.999999999999922
 31
0.0
  0
LINE
  5
DA
  8
0
 10
154.3557971014489
 20
39.999999999999957
 30
0.0
 11
156.69999999999999
 21
39.999999999999922
 31
0.0
  0
LINE
  5
DB
  8
0
 10
156.00434782608701
 20
72.499999999999943
 30
0.0
 11
156.39082125603869
 21
59.999999999999922
 31
0.0
  0
LINE
  5
DC
  8
2
 10
153.19999999999931
 20
49.999999999999893
 30
0.0
 11
156.69999999999999
 21
49.999999999999943
 31
0.0
  0
LINE
  5
DD
  8
2
 10
153.19999999999931
 20
49.999999999999922
 30
0.0
 11
153.72173913043429
 21
27.499999999999801
 31
0.0
  0
LINE
  5
DE
  8
0
 10
156.69999999999999
 20
59.999999999999922
 30
0.0
 11
156.69999999999999
 21
39.999999999999922
 31
0.0
  0
LINE
  5
DF
  8
0
 10
150.69999999999999
 20
72.499999999999943
 30
0.0
 11
150.69999999999999
 21
27.499999999999751
 31
0.0
  0
LINE
  5
E0
  8
0
 10
150.69999999999999
 20
72.499999999999943
 30
0.0
 11
156.0043478260869
 21
72.499999999999943
 31
0.0
  0
LINE
  5
E1
  8
0
 10
150.6999999999999
 20
27.499999999999769
 30
0.0
 11
153.7217391304342
 21
27.499999999999801
 31
0.0
  0
CIRCLE
  5
E2
  8
0
 10
159.4499999999997
 20
56.999999999999922
 30
0.0
 40
0.75
  0
CIRCLE
  5
E3
  8
0
 10
157.44999999999999
 20
56.999999999999922
 30
0.0
 40
0.75
  0
CIRCLE
  5
E4
  8
0
 10
157.44999999999999
 20
42.999999999999908
 30
0.0
 40
0.75
  0
LINE
  5
E5
  8
5
 10
156.69999999999999
 20
42.249999999999908
 30
0.0
 11
187.69999999999999
 21
42.249999999999908
 31
0.0
  0
CIRCLE
  5
E6
  8
0
 10
186.94999999999999
 20
42.999999999999908
 30
0.0
 40
0.75
  0
CIRCLE
  5
E7
  8
0
 10
184.95000000000019
 20
42.999999999999908
 30
0.0
 40
0.75
  0
LINE
  5
E8
  8
5
 10
156.69999999999999
 20
43.749999999999922
 30
0.0
 11
187.69999999999999
 21
43.749999999999922
 31
0.0
  0
LINE
  5
E9
  8
0
 10
187.69999999999999
 20
43.999999999999908
 30
0.0
 11
156.69999999999999
 21
43.999999999999908
 31
0.0
  0
LINE
  5
EA
  8
0
 10
156.69999999999999
 20
55.999999999999908
 30
0.0
 11
187.69999999999999
 21
55.999999999999908
 31
0.0
  0
CIRCLE
  5
EB
  8
0
 10
186.94999999999999
 20
56.999999999999922
 30
0.0
 40
0.75
  0
LINE
  5
EC
  8
5
 10
156.69999999999999
 20
56.249999999999922
 30
0.0
 11
187.69999999999999
 21
56.249999999999922
 31
0.0
  0
LINE
  5
ED
  8
5
 10
156.69999999999999
 20
57.749999999999908
 30
0.0
 11
187.69999999999999
 21
57.749999999999908
 31
0.0
  0
ARC
  5
EE
  8
0
 10
203.96975253454929
 20
35.300000000000011
 30
0.0
 40
1.1999999999999991
 50
11.999999999999959
 51
89.999999999999758
  0
ARC
  5
EF
  8
0
 10
203.9697525345492
 20
64.699999999999733
 30
0.0
 40
1.1999999999999991
 50
270.00000000000011
 51
348.0
  0
LINE
  5
F0
  8
1
 10
136.69999999999999
 20
49.999999999999922
 30
0.0
 11
229.69999999999999
 21
49.999999999999922
 31
0.0
  0
LINE
  5
F1
  8
0
 10
189.99999999999989
 20
36.500000000000057
 30
0.0
 11
203.96975253454929
 21
36.5
 31
0.0
  0
LINE
  5
F2
  8
0
 10
189.99999999999989
 20
63.499999999999737
 30
0.0
 11
203.9697525345492
 21
63.499999999999737
 31
0.0
  0
LINE
  5
F3
  8
0
 10
189.99999999999989
 20
36.500000000000057
 30
0.0
 11
187.99999999999989
 21
38.500000000000057
 31
0.0
  0
LINE
  5
F4
  8
0
 10
189.99999999999989
 20
63.499999999999737
 30
0.0
 11
190.0
 21
36.500000000000057
 31
0.0
  0
LINE
  5
F5
  8
0
 10
188.0
 20
38.500000000000057
 30
0.0
 11
190.0
 21
36.500000000000057
 31
0.0
  0
LINE
  5
F6
  8
0
 10
189.99999999999989
 20
63.499999999999737
 30
0.0
 11
187.99999999999989
 21
61.499999999999737
 31
0.0
  0
LINE
  5
F7
  8
0
 10
187.69999999999999
 20
42.999999999999908
 30
0.0
 11
188.0
 21
42.999999999999908
 31
0.0
  0
LINE
  5
F8
  8
0
 10
187.99999999999989
 20
61.499999999999737
 30
0.0
 11
188.0
 21
38.500000000000057
 31
0.0
  0
LINE
  5
F9
  8
0
 10
187.69999999999999
 20
56.999999999999922
 30
0.0
 11
188.0
 21
56.999999999999922
 31
0.0
  0
LINE
  5
FA
  8
0
 10
187.69999999999999
 20
56.999999999999922
 30
0.0
 11
187.69999999999999
 21
42.999999999999908
 31
0.0
  0
ARC
  5
FB
  8
0
 10
251.17051256180949
 20
36.180149204255059
 30
0.0
 40
44.4956319119621
 50
174.3671733291186
 51
185.0036272717613
  0
ARC
  5
FC
  8
0
 10
177.1705125618096
 20
49.999999999999922
 30
0.0
 40
31.186236522963359
 50
342.35626422916181
 51
360.0
  0
ARC
  5
FD
  8
0
 10
147.04326140795939
 20
19.051581121136881
 30
0.0
 40
61.250987751940478
 50
2.7158728531815051
 51
12.4909667352716
  0
ARC
  5
FE
  8
0
 10
177.1705125618096
 20
49.999999999999922
 30
0.0
 40
31.186236522963359
 50
360.0
 51
17.643735770838049
  0
ARC
  5
FF
  8
0
 10
147.04326140795939
 20
80.948418878862938
 30
0.0
 40
61.250987751940478
 50
347.50903326472832
 51
357.28412714681849
  0
ARC
  5
100
  8
0
 10
251.17051256180949
 20
63.819850795744742
 30
0.0
 40
44.4956319119621
 50
174.99637272823861
 51
185.6328266708812
  0
ARC
  5
101
  8
0
 10
177.69999999999999
 20
63.819850795744742
 30
0.0
 40
44.4956319119621
 50
354.36717332911871
 51
5.0036272717612951
  0
ARC
  5
102
  8
0
 10
281.82725115385011
 20
80.948418878862938
 30
0.0
 40
61.250987751940478
 50
182.71587285318151
 51
192.4909667352716
  0
ARC
  5
103
  8
0
 10
251.6999999999999
 20
49.999999999999922
 30
0.0
 40
31.186236522963359
 50
162.35626422916189
 51
180.0
  0
ARC
  5
104
  8
0
 10
281.82725115385011
 20
19.051581121136881
 30
0.0
 40
61.250987751940478
 50
167.50903326472829
 51
177.28412714681849
  0
ARC
  5
105
  8
0
 10
251.6999999999999
 20
49.999999999999922
 30
0.0
 40
31.186236522963359
 50
180.0
 51
197.64373577083799
  0
ARC
  5
106
  8
0
 10
177.69999999999999
 20
36.180149204255059
 30
0.0
 40
44.4956319119621
 50
354.99637272823873
 51
5.6328266708812889
  0
ARC
  5
107
  8
0
 10
220.1981284677972
 20
22.203341415950291
 30
0.0
 40
1.1999999999999991
 50
270.0
 51
345.47085946405781
  0
ARC
  5
108
  8
0
 10
209.2071506802171
 20
22.20334141595038
 30
0.0
 40
1.1999999999999991
 50
191.99999999999989
 51
269.99999999999949
  0
ARC
  5
109
  8
0
 10
209.2071506802171
 20
77.796658584049482
 30
0.0
 40
1.1999999999999991
 50
90.000000000000298
 51
167.99999999999989
  0
ARC
  5
10A
  8
0
 10
220.19812846779729
 20
77.796658584049524
 30
0.0
 40
1.1999999999999991
 50
14.529140535942
 51
89.999999999999986
  0
LINE
  5
10B
  8
0
 10
205.1435296554298
 20
64.45050597101843
 30
0.0
 11
208.0333735593365
 21
78.046152613030785
 31
0.0
  0
LINE
  5
10C
  8
0
 10
205.1435296554298
 20
35.549494028981307
 30
0.0
 11
208.0333735593365
 21
21.953847386969048
 31
0.0
  0
LINE
  5
10D
  8
0
 10
204.94149337438321
 20
36.500000000000398
 30
0.0
 11
204.94149337438321
 21
63.49999999999951
 31
0.0
  0
ARC
  5
10E
  8
0
 10
112.9414933743831
 20
49.999999999999972
 30
0.0
 40
112.0
 50
345.47085946405718
 51
14.52914053594281
  0
LINE
  5
10F
  8
0
 10
220.1981284677972
 20
21.003341415950299
 30
0.0
 11
209.2071506802171
 21
21.003341415950359
 31
0.0
  0
LINE
  5
110
  8
0
 10
220.19812846779729
 20
78.996658584049527
 30
0.0
 11
209.2071506802171
 21
78.99665858404947
 31
0.0
  0
LINE
  5
111
  8
0
 10
153.72173913043429
 20
27.499999999999801
 30
0.0
 11
156.00434782608701
 21
72.499999999999943
 31
0.0
  0
LINE
  5
112
  8
2
 10
156.39082125603869
 20
59.999999999999922
 30
0.0
 11
156.69999999999999
 21
49.999999999999943
 31
0.0
  0
LINE
  5
11C
  8
2
 10
154.3557971014489
 20
239.9999999999998
 30
0.0
 11
156.00434782608701
 21
207.49999999999989
 31
0.0
  0
LINE
  5
11D
  8
0
 10
153.72173913043429
 20
252.50000000000011
 30
0.0
 11
154.3557971014489
 21
239.99999999999989
 31
0.0
  0
TEXT
  5
26A
  8
0
 62
     3
 10
0.0
 20
0.0
 30
0.0
 40
10.0
  1
SL60X46R
  7
STANDARD1
  0
ENDSEC
  0
EOF
