  0
SECTION
  2
HEADER
  9
$ACADVER
  1
AC1009
  9
$INSBASE
 10
0.0
 20
0.0
 30
0.0
  9
$EXTMIN
 10
0.0
 20
-2.960436562073669
 30
0.0
  9
$EXTMAX
 10
345.0
 20
248.99665858404961
 30
0.0
  9
$LIMMIN
 10
0.0
 20
0.0
  9
$LIMMAX
 10
375.0
 20
270.0
  9
$ORTHOMODE
 70
     1
  9
$REGENMODE
 70
     1
  9
$FILLMODE
 70
     1
  9
$QTEXTMODE
 70
     0
  9
$MIRRTEXT
 70
     0
  9
$DRAGMODE
 70
     2
  9
$LTSCALE
 40
10.0
  9
$OSMODE
 70
    55
  9
$ATTMODE
 70
     1
  9
$TEXTSIZE
 40
5.0
  9
$TRACEWID
 40
0.05
  9
$TEXTSTYLE
  7
STANDARD
  9
$CLAYER
  8
0
  9
$CELTYPE
  6
BYLAYER
  9
$CECOLOR
 62
   256
  9
$DIMSCALE
 40
1.0
  9
$DIMASZ
 40
3.0
  9
$DIMEXO
 40
2.0
  9
$DIMDLI
 40
0.38
  9
$DIMRND
 40
0.0
  9
$DIMDLE
 40
0.0
  9
$DIMEXE
 40
2.0
  9
$DIMTP
 40
0.0
  9
$DIMTM
 40
0.0
  9
$DIMTXT
 40
3.2000000000000002
  9
$DIMCEN
 40
0.0
  9
$DIMTSZ
 40
0.0
  9
$DIMTOL
 70
     0
  9
$DIMLIM
 70
     0
  9
$DIMTIH
 70
     0
  9
$DIMTOH
 70
     0
  9
$DIMSE1
 70
     0
  9
$DIMSE2
 70
     0
  9
$DIMTAD
 70
     1
  9
$DIMZIN
 70
     0
  9
$DIMBLK
  1

  9
$DIMASO
 70
     1
  9
$DIMSHO
 70
     0
  9
$DIMPOST
  1

  9
$DIMAPOST
  1

  9
$DIMALT
 70
     0
  9
$DIMALTD
 70
     2
  9
$DIMALTF
 40
25.399999999999999
  9
$DIMLFAC
 40
1.0
  9
$DIMTOFL
 70
     1
  9
$DIMTVP
 40
1.6000000000000001
  9
$DIMTIX
 70
     1
  9
$DIMSOXD
 70
     0
  9
$DIMSAH
 70
     0
  9
$DIMBLK1
  1

  9
$DIMBLK2
  1

  9
$DIMSTYLE
  2
STANDARD
  9
$DIMCLRD
 70
     0
  9
$DIMCLRE
 70
     0
  9
$DIMCLRT
 70
     0
  9
$DIMTFAC
 40
1.0
  9
$DIMGAP
 40
0.09
  9
$LUNITS
 70
     2
  9
$LUPREC
 70
     4
  9
$SKETCHINC
 40
0.1
  9
$FILLETRAD
 40
0.0
  9
$AUNITS
 70
     0
  9
$AUPREC
 70
     4
  9
$MENU
  1
E:\r13\win\SUPPORT\ACAD
  9
$ELEVATION
 40
0.0
  9
$PELEVATION
 40
0.0
  9
$THICKNESS
 40
0.0
  9
$LIMCHECK
 70
     0
  9
$BLIPMODE
 70
     0
  9
$CHAMFERA
 40
0.0
  9
$CHAMFERB
 40
0.0
  9
$SKPOLY
 70
     0
  9
$TDCREATE
 40
2449839.7848495371
  9
$TDUPDATE
 40
2456598.543965301
  9
$TDINDWG
 40
0.0001392245
  9
$TDUSRTIMER
 40
0.0001392245
  9
$USRTIMER
 70
     1
  9
$ANGBASE
 50
0.0
  9
$ANGDIR
 70
     0
  9
$PDMODE
 70
     0
  9
$PDSIZE
 40
0.0
  9
$PLINEWID
 40
0.0
  9
$COORDS
 70
     1
  9
$SPLFRAME
 70
     0
  9
$SPLINETYPE
 70
     6
  9
$SPLINESEGS
 70
     8
  9
$ATTDIA
 70
     0
  9
$ATTREQ
 70
     1
  9
$HANDLING
 70
     1
  9
$HANDSEED
  5
301
  9
$SURFTAB1
 70
     6
  9
$SURFTAB2
 70
     6
  9
$SURFTYPE
 70
     6
  9
$SURFU
 70
     6
  9
$SURFV
 70
     6
  9
$UCSNAME
  2

  9
$UCSORG
 10
0.0
 20
0.0
 30
0.0
  9
$UCSXDIR
 10
1.0
 20
0.0
 30
0.0
  9
$UCSYDIR
 10
0.0
 20
1.0
 30
0.0
  9
$PUCSNAME
  2

  9
$PUCSORG
 10
0.0
 20
0.0
 30
0.0
  9
$PUCSXDIR
 10
1.0
 20
0.0
 30
0.0
  9
$PUCSYDIR
 10
0.0
 20
1.0
 30
0.0
  9
$USERI1
 70
     0
  9
$USERI2
 70
     1
  9
$USERI3
 70
     1
  9
$USERI4
 70
     0
  9
$USERI5
 70
     0
  9
$USERR1
 40
0.0
  9
$USERR2
 40
0.0
  9
$USERR3
 40
0.0
  9
$USERR4
 40
0.0
  9
$USERR5
 40
0.0
  9
$WORLDVIEW
 70
     1
  9
$SHADEDGE
 70
     3
  9
$SHADEDIF
 70
    70
  9
$TILEMODE
 70
     1
  9
$MAXACTVP
 70
    16
  9
$PLIMCHECK
 70
     0
  9
$PEXTMIN
 10
1.0000000000000000E+020
 20
1.0000000000000000E+020
 30
1.0000000000000000E+020
  9
$PEXTMAX
 10
-1.0000000000000000E+020
 20
-1.0000000000000000E+020
 30
-1.0000000000000000E+020
  9
$PLIMMIN
 10
0.0
 20
0.0
  9
$PLIMMAX
 10
12.0
 20
9.0
  9
$UNITMODE
 70
     0
  9
$VISRETAIN
 70
     0
  9
$PLINEGEN
 70
     0
  9
$PSLTSCALE
 70
     0
  0
ENDSEC
  0
SECTION
  2
TABLES
  0
TABLE
  2
VPORT
 70
     1
  0
VPORT
  2
*ACTIVE
 70
     0
 10
0.0
 20
0.0
 11
1.0
 21
1.0
 12
187.49427839065231
 22
174.91677254346851
 13
0.0
 23
0.0
 14
10.0
 24
10.0
 15
10.0
 25
10.0
 16
0.0
 26
0.0
 36
1.0
 17
0.0
 27
0.0
 37
0.0
 40
358.92027899574339
 41
1.7807262569832401
 42
50.0
 43
0.0
 44
0.0
 50
0.0
 51
0.0
 71
     0
 72
   500
 73
     1
 74
     0
 75
     0
 76
     0
 77
     0
 78
     2
  0
ENDTAB
  0
TABLE
  2
LTYPE
 70
     5
  0
LTYPE
  2
CONTINUOUS
 70
     0
  3
Solid Line
 72
    65
 73
     0
 40
0.0
  0
LTYPE
  2
CENTER
 70
     0
  3
____ _ ____ _ ____ _ ____ _ ____ _ ____ _ ____
 72
    65
 73
     4
 40
2.0
 49
1.25
 49
-0.25
 49
0.25
 49
-0.25
  0
LTYPE
  2
HIDDEN
 70
     0
  3
_ _ _ _ _ _ _ _ _ _ _ _ _ _ _ _ _ _ _ _ _ _ _
 72
    65
 73
     2
 40
0.375
 49
0.25
 49
-0.125
  0
LTYPE
  2
PHANTOM
 70
     0
  3
_____ _ _ _____ _ _ _____ _ _ _____ _ _ ____
 72
    65
 73
     6
 40
2.5
 49
1.25
 49
-0.25
 49
0.25
 49
-0.25
 49
0.25
 49
-0.25
  0
LTYPE
  2
PHANTOM2
 70
     0
  3
___ _ _ ___ _ _ ___ _ _ ___ _ _
 72
    65
 73
     6
 40
1.25
 49
0.625
 49
-0.125
 49
0.125
 49
-0.125
 49
0.125
 49
-0.125
  0
ENDTAB
  0
TABLE
  2
LAYER
 70
     4
  0
LAYER
  2
0
 70
     0
 62
     7
  6
CONTINUOUS
  0
LAYER
  2
1
 70
     0
 62
     1
  6
CENTER
  0
LAYER
  2
2
 70
     0
 62
     2
  6
HIDDEN
  0
LAYER
  2
5
 70
     0
 62
     3
  6
PHANTOM
  0
ENDTAB
  0
TABLE
  2
STYLE
 70
     2
  0
STYLE
  2
STANDARD
 70
     0
 40
0.0
 41
1.0
 50
0.0
 71
     0
 42
5.0
  3
TXT
  4
BIGFONT
  0
STYLE
  2
STANDARD1
 70
     0
 40
0.0
 41
1.0
 50
0.0
 71
     0
 42
3.0
  3
txt
  4

  0
ENDTAB
  0
TABLE
  2
VIEW
 70
     1
  0
VIEW
  2
ALL
 70
     0
 40
270.0
 10
220.99159663865549
 20
135.0
 41
0.0
 11
0.0
 21
0.0
 31
1.0
 12
0.0
 22
0.0
 32
0.0
 42
0.0
 43
0.0
 44
0.0
 50
0.0
 71
     0
  0
ENDTAB
  0
TABLE
  2
UCS
 70
     0
  0
ENDTAB
  0
TABLE
  2
APPID
 70
     3
  0
APPID
  2
ACAD
 70
     0
  0
APPID
  2
ACAD_MLEADERVER
 70
     0
  0
APPID
  2
ACAD_NAV_VCDISPLAY
 70
     0
  0
ENDTAB
  0
TABLE
  2
DIMSTYLE
 70
     1
  0
DIMSTYLE
  2
STANDARD
 70
     0
  3

  4

  5

  6

  7

 40
1.0
 41
0.18
 42
0.0625
 43
0.38
 44
0.18
 45
0.0
 46
0.0
 47
0.0
 48
0.0
140
0.18
141
0.09
142
0.0
143
25.399999999999999
144
1.0
145
0.0
146
1.0
147
0.09
 71
     0
 72
     0
 73
     1
 74
     1
 75
     0
 76
     0
 77
     0
 78
     0
170
     0
171
     2
172
     0
173
     0
174
     0
175
     0
176
     0
177
     0
178
     0
  0
ENDTAB
  0
ENDSEC
  0
SECTION
  2
BLOCKS
  0
BLOCK
  8
0
  2
$MODEL_SPACE
 70
     0
 10
0.0
 20
0.0
 30
0.0
  3
$MODEL_SPACE
  1

  0
ENDBLK
  5
180
  8
0
  0
BLOCK
 67
     1
  8
0
  2
$PAPER_SPACE
 70
     0
 10
0.0
 20
0.0
 30
0.0
  3
$PAPER_SPACE
  1

  0
ENDBLK
  5
17E
 67
     1
  8
0
  0
ENDSEC
  0
SECTION
  2
ENTITIES
  0
ARC
  5
37
  8
0
 10
232.16019666092589
 20
150.4327102421141
 30
0.0
 40
15.558158542749039
 50
162.02318771441179
 51
197.9768122855883
  0
ARC
  5
38
  8
0
 10
187.17051256180949
 20
137.81548174673679
 30
0.0
 40
31.186236522963359
 50
345.48657988407581
 51
14.51342011592447
  0
ARC
  5
39
  8
0
 10
261.17051256180952
 20
122.2130047698211
 30
0.0
 40
44.4956319119621
 50
169.92100231345259
 51
190.07899768654619
  0
ARC
  5
3A
  8
0
 10
157.04326140795979
 20
103.77772987393971
 30
0.0
 40
61.250987751940478
 50
1.8260368490445309
 51
10.011547861940469
  0
ARC
  5
3B
  8
0
 10
214.17051256180949
 20
105.7294901687532
 30
0.0
 40
4.0926323182703754
 50
340.18252565342817
 51
359.99996467607042
  0
ARC
  5
3C
  8
0
 10
196.1499070096994
 20
161.7154909738241
 30
0.0
 40
22.179679853264261
 50
343.00993190590191
 51
353.00313957949032
  0
ARC
  5
3D
  8
0
 10
218.3467329416211
 20
105.1151516153156
 30
0.0
 40
1.1999999999999991
 50
192.0
 51
269.99999999999989
  0
LINE
  5
3E
  8
0
 10
230.6693675116756
 20
103.91515161531559
 30
0.0
 11
218.3467329416211
 21
103.91515161531559
 31
0.0
  0
ARC
  5
3F
  8
0
 10
122.6999999999999
 20
130.0
 30
0.0
 40
112.0
 50
347.02108346450001
 51
15.065777968384349
  0
ARC
  5
40
  8
0
 10
230.6693675116756
 20
105.1151516153156
 30
0.0
 40
1.200000000000002
 50
270.0
 51
347.02108346450223
  0
ARC
  5
41
  8
0
 10
252.7206055521101
 20
161.7154909738241
 30
0.0
 40
22.179679853264261
 50
186.99686042050959
 51
196.99006809409809
  0
ARC
  5
42
  8
0
 10
234.69999999999999
 20
105.7294901687532
 30
0.0
 40
4.0926323182703754
 50
180.00003532392961
 51
199.8174743465718
  0
ARC
  5
43
  8
0
 10
291.8272511538496
 20
103.77772987393971
 30
0.0
 40
61.250987751940478
 50
169.9884521380595
 51
178.1739631509555
  0
ARC
  5
44
  8
0
 10
187.6999999999999
 20
122.2130047698211
 30
0.0
 40
44.4956319119621
 50
349.92100231345393
 51
10.0789976865474
  0
ARC
  5
45
  8
0
 10
261.69999999999999
 20
137.81548174673679
 30
0.0
 40
31.186236522963359
 50
165.4865798840755
 51
194.51342011592411
  0
ARC
  5
46
  8
0
 10
216.7103159008835
 20
150.4327102421141
 30
0.0
 40
15.558158542749039
 50
342.02318771441168
 51
17.976812285588171
  0
LINE
  5
47
  8
0
 10
199.99999999999989
 20
116.5000000000001
 30
0.0
 11
213.728259160166
 21
116.5000000000001
 31
0.0
  0
LINE
  5
48
  8
0
 10
214.90203628104661
 20
115.5494940289814
 30
0.0
 11
217.1729558207405
 21
104.86565758633429
 31
0.0
  0
LINE
  5
49
  8
0
 10
199.99999999999989
 20
116.5000000000001
 30
0.0
 11
197.99999999999989
 21
118.5000000000001
 31
0.0
  0
ARC
  5
4A
  8
0
 10
213.728259160166
 20
115.3000000000001
 30
0.0
 40
1.1999999999999991
 50
12.00000000000008
 51
89.999999999999915
  0
ARC
  5
4B
  8
0
 10
219.17892410738949
 20
158.7999999999999
 30
0.0
 40
1.1999999999999991
 50
90.000000000000156
 51
167.99999999999989
  0
LINE
  5
4C
  8
0
 10
229.6915884544201
 20
160.0
 30
0.0
 11
219.17892410738949
 21
159.99999999999989
 31
0.0
  0
ARC
  5
4D
  8
0
 10
229.6915884544201
 20
158.80000000000001
 30
0.0
 40
1.2000000000000031
 50
15.065777968384481
 51
90.0
  0
ARC
  5
4E
  8
0
 10
213.728259160166
 20
144.69999999999979
 30
0.0
 40
1.1999999999999991
 50
270.00000000000011
 51
347.99999999999989
  0
LINE
  5
4F
  8
0
 10
214.69999999999999
 20
143.4999999999998
 30
0.0
 11
214.69999999999999
 21
116.5000000000001
 31
0.0
  0
LINE
  5
50
  8
0
 10
199.99999999999989
 20
143.4999999999998
 30
0.0
 11
200.0
 21
116.5000000000001
 31
0.0
  0
LINE
  5
51
  8
0
 10
198.0
 20
118.5000000000001
 30
0.0
 11
200.0
 21
116.5000000000001
 31
0.0
  0
LINE
  5
52
  8
0
 10
199.99999999999989
 20
143.4999999999998
 30
0.0
 11
197.99999999999989
 21
141.4999999999998
 31
0.0
  0
LINE
  5
53
  8
0
 10
214.90203628104661
 20
144.45050597101849
 30
0.0
 11
218.00514698650889
 21
159.0494940289812
 31
0.0
  0
LINE
  5
54
  8
0
 10
199.99999999999989
 20
143.4999999999998
 30
0.0
 11
213.728259160166
 21
143.4999999999998
 31
0.0
  0
LINE
  5
55
  8
0
 10
197.6999999999999
 20
123.0
 30
0.0
 11
198.0
 21
123.0
 31
0.0
  0
LINE
  5
56
  8
0
 10
197.99999999999989
 20
141.4999999999998
 30
0.0
 11
198.0
 21
118.5000000000001
 31
0.0
  0
LINE
  5
57
  8
0
 10
197.6999999999999
 20
137.0
 30
0.0
 11
198.0
 21
137.0
 31
0.0
  0
LINE
  5
58
  8
0
 10
197.6999999999999
 20
137.0
 30
0.0
 11
197.6999999999999
 21
123.0
 31
0.0
  0
LINE
  5
59
  8
1
 10
138.6999999999999
 20
142.99999999999989
 30
0.0
 11
138.6999999999999
 21
133.0
 31
0.0
  0
LINE
  5
5A
  8
5
 10
148.6999999999999
 20
123.75
 30
0.0
 11
197.6999999999999
 21
123.75
 31
0.0
  0
LINE
  5
5B
  8
5
 10
148.6999999999999
 20
122.25
 30
0.0
 11
197.6999999999999
 21
122.25
 31
0.0
  0
LINE
  5
5C
  8
5
 10
148.6999999999999
 20
137.75
 30
0.0
 11
197.6999999999999
 21
137.75
 31
0.0
  0
LINE
  5
5D
  8
5
 10
148.6999999999999
 20
136.25
 30
0.0
 11
197.6999999999999
 21
136.25
 31
0.0
  0
CIRCLE
  5
5E
  8
0
 10
151.4499999999997
 20
137.0
 30
0.0
 40
0.75
  0
CIRCLE
  5
5F
  8
0
 10
194.95000000000019
 20
123.0
 30
0.0
 40
0.75
  0
CIRCLE
  5
60
  8
0
 10
149.4499999999999
 20
123.0
 30
0.0
 40
0.75
  0
CIRCLE
  5
61
  8
0
 10
196.9499999999999
 20
123.0
 30
0.0
 40
0.75
  0
CIRCLE
  5
62
  8
0
 10
149.4499999999999
 20
137.0
 30
0.0
 40
0.75
  0
CIRCLE
  5
63
  8
0
 10
196.9499999999999
 20
137.0
 30
0.0
 40
0.75
  0
LINE
  5
64
  8
0
 10
197.6999999999999
 20
124.0
 30
0.0
 11
148.6999999999999
 21
124.0
 31
0.0
  0
LINE
  5
65
  8
1
 10
128.6999999999999
 20
130.0
 30
0.0
 11
239.6999999999999
 21
130.0
 31
0.0
  0
LINE
  5
66
  8
0
 10
148.6999999999999
 20
120.0
 30
0.0
 11
148.6999999999999
 21
142.0
 31
0.0
  0
LINE
  5
67
  8
0
 10
147.4246376811594
 20
120.0
 30
0.0
 11
148.6999999999999
 21
120.0
 31
0.0
  0
LINE
  5
68
  8
0
 10
134.1999999999999
 20
120.0
 30
0.0
 11
142.6999999999999
 21
120.0
 31
0.0
  0
LINE
  5
69
  8
0
 10
148.6999999999999
 20
142.0
 30
0.0
 11
142.6999999999999
 21
142.0
 31
0.0
  0
LINE
  5
6A
  8
0
 10
146.6999999999999
 20
107.5
 30
0.0
 11
148.6999999999999
 21
142.0
 31
0.0
  0
LINE
  5
6B
  8
0
 10
142.6999999999999
 20
107.5
 30
0.0
 11
146.6999999999999
 21
107.5
 31
0.0
  0
LINE
  5
6C
  8
0
 10
142.6999999999999
 20
142.0
 30
0.0
 11
142.6999999999999
 21
107.5
 31
0.0
  0
LINE
  5
6D
  8
0
 10
134.1999999999999
 20
140.0
 30
0.0
 11
142.6999999999999
 21
140.0
 31
0.0
  0
LINE
  5
6E
  8
0
 10
133.6999999999999
 20
139.5
 30
0.0
 11
133.6999999999999
 21
120.5
 31
0.0
  0
LINE
  5
6F
  8
0
 10
134.1999999999999
 20
120.0
 30
0.0
 11
133.6999999999999
 21
120.5
 31
0.0
  0
LINE
  5
70
  8
0
 10
134.1999999999999
 20
140.0
 30
0.0
 11
133.6999999999999
 21
139.5
 31
0.0
  0
LINE
  5
71
  8
1
 10
25.00000000000005
 20
130.0
 30
0.0
 11
94.999999999999986
 21
130.0
 31
0.0
  0
LINE
  5
72
  8
1
 10
60.0
 20
165.0
 30
0.0
 11
60.0
 21
95.000000000000014
 31
0.0
  0
ARC
  5
73
  8
0
 10
60.0
 20
130.0000000000002
 30
0.0
 40
13.499999999999581
 50
62.733955549268352
 51
117.2660444507316
  0
ARC
  5
74
  8
0
 10
85.57555584159411
 20
165.2017326663721
 30
0.0
 40
19.999999999999549
 50
209.89181005923629
 51
258.10818994076351
  0
ARC
  5
75
  8
0
 10
79.496658584049555
 20
136.33484838468721
 30
0.0
 40
9.5
 50
317.89181005922882
 51
78.108189940763353
  0
ARC
  5
76
  8
0
 10
101.3821186328701
 20
116.5541345843348
 30
0.0
 40
19.999999999999549
 50
137.89181005923621
 51
186.10818994076351
  0
ARC
  5
77
  8
0
 10
72.049597671995002
 20
113.41515161531559
 30
0.0
 40
9.5
 50
245.89181005922879
 51
6.1081899407633449
  0
ARC
  5
78
  8
0
 10
59.999999999999893
 20
86.488265498591645
 30
0.0
 40
19.999999999999549
 50
65.89181005923632
 51
114.10818994076349
  0
ARC
  5
79
  8
0
 10
47.950402328004941
 20
113.41515161531559
 30
0.0
 40
9.5
 50
173.89181005922879
 51
294.10818994076328
  0
ARC
  5
7A
  8
0
 10
18.617881367129861
 20
116.5541345843349
 30
0.0
 40
19.999999999999549
 50
353.89181005923632
 51
42.108189940763502
  0
ARC
  5
7B
  8
0
 10
40.503341415950452
 20
136.33484838468721
 30
0.0
 40
9.5
 50
101.8918100592288
 51
222.1081899407634
  0
ARC
  5
7C
  8
0
 10
60.0
 20
150.5
 30
0.0
 40
9.5
 50
29.891810059228781
 51
150.10818994076331
  0
ARC
  5
7D
  8
0
 10
34.424444158405962
 20
165.2017326663721
 30
0.0
 40
19.999999999999549
 50
281.89181005923632
 51
330.10818994076351
  0
CIRCLE
  5
7E
  8
0
 10
60.0
 20
130.0
 30
0.0
 40
6.0
  0
CIRCLE
  5
7F
  8
0
 10
60.0
 20
130.0
 30
0.0
 40
10.0
  0
LINE
  5
80
  8
0
 10
40.967133689325721
 20
142.0
 30
0.0
 11
79.032866310674279
 21
142.0
 31
0.0
  0
ARC
  5
81
  8
0
 10
60.0
 20
130.0
 30
0.0
 40
22.5
 50
147.76904736449791
 51
32.230952635502121
  0
LINE
  5
82
  8
0
 10
148.6999999999999
 20
136.0
 30
0.0
 11
197.6999999999999
 21
136.0
 31
0.0
  0
LINE
  5
83
  8
2
 10
145.1999999999999
 20
142.0
 30
0.0
 11
146.6999999999999
 21
107.5
 31
0.0
  0
LINE
  5
84
  8
0
 10
134.1999999999999
 20
140.0
 30
0.0
 11
134.1999999999999
 21
120.0
 31
0.0
  0
CIRCLE
  5
85
  8
0
 10
138.69999999999999
 20
220.0
 30
0.0
 40
1.5
  0
LINE
  5
86
  8
1
 10
138.69999999999999
 20
225.0
 30
0.0
 11
138.69999999999999
 21
214.99999999999989
 31
0.0
  0
LINE
  5
87
  8
0
 10
134.1999999999999
 20
230.0
 30
0.0
 11
133.6999999999999
 21
229.5
 31
0.0
  0
LINE
  5
88
  8
0
 10
134.1999999999999
 20
210.0
 30
0.0
 11
133.6999999999999
 21
210.49999999999989
 31
0.0
  0
LINE
  5
89
  8
0
 10
133.6999999999999
 20
229.5
 30
0.0
 11
133.6999999999999
 21
210.49999999999989
 31
0.0
  0
LINE
  5
8A
  8
0
 10
134.1999999999999
 20
230.0
 30
0.0
 11
142.6999999999999
 21
230.0
 31
0.0
  0
LINE
  5
8B
  8
0
 10
134.1999999999999
 20
210.0
 30
0.0
 11
142.6999999999999
 21
210.0
 31
0.0
  0
LINE
  5
8C
  8
0
 10
134.1999999999999
 20
230.0
 30
0.0
 11
134.1999999999999
 21
210.0
 31
0.0
  0
LINE
  5
8D
  8
0
 10
142.6999999999999
 20
200.96713368932589
 30
0.0
 11
148.11154423000809
 21
200.96713368932589
 31
0.0
  0
LINE
  5
8E
  8
0
 10
142.6999999999999
 20
239.03286631067419
 30
0.0
 11
145.64134182749331
 21
239.03286631067419
 31
0.0
  0
LINE
  5
8F
  8
0
 10
148.39082125603861
 20
210.0
 30
0.0
 11
148.69999999999999
 21
210.0
 31
0.0
  0
LINE
  5
90
  8
0
 10
145.43188405797031
 20
229.99999999999989
 30
0.0
 11
148.6999999999999
 21
230.0
 31
0.0
  0
LINE
  5
91
  8
0
 10
148.0043478260869
 20
197.49999999999989
 30
0.0
 11
148.69999999999999
 21
219.99999999999989
 31
0.0
  0
LINE
  5
92
  8
0
 10
145.19999999999931
 20
220.0
 30
0.0
 11
148.6999999999999
 21
219.99999999999989
 31
0.0
  0
LINE
  5
93
  8
0
 10
145.19999999999919
 20
220.0
 30
0.0
 11
145.7217391304342
 21
242.50000000000011
 31
0.0
  0
LINE
  5
94
  8
0
 10
148.69999999999999
 20
210.0
 30
0.0
 11
148.69999999999999
 21
230.0
 31
0.0
  0
LINE
  5
95
  8
0
 10
142.6999999999999
 20
197.49999999999989
 30
0.0
 11
142.6999999999999
 21
242.5000000000002
 31
0.0
  0
LINE
  5
96
  8
0
 10
142.6999999999999
 20
197.49999999999989
 30
0.0
 11
148.0043478260869
 21
197.49999999999989
 31
0.0
  0
LINE
  5
97
  8
0
 10
142.6999999999999
 20
242.50000000000011
 30
0.0
 11
145.7217391304342
 21
242.50000000000011
 31
0.0
  0
CIRCLE
  5
98
  8
0
 10
151.4499999999997
 20
227.0
 30
0.0
 40
0.75
  0
CIRCLE
  5
99
  8
0
 10
149.4499999999999
 20
227.0
 30
0.0
 40
0.75
  0
CIRCLE
  5
9A
  8
0
 10
149.4499999999999
 20
213.0
 30
0.0
 40
0.75
  0
LINE
  5
9B
  8
5
 10
148.6999999999999
 20
212.25
 30
0.0
 11
197.6999999999999
 21
212.25
 31
0.0
  0
CIRCLE
  5
9C
  8
0
 10
196.9499999999999
 20
213.0
 30
0.0
 40
0.75
  0
CIRCLE
  5
9D
  8
0
 10
194.9500000000001
 20
213.0
 30
0.0
 40
0.75
  0
LINE
  5
9E
  8
5
 10
148.6999999999999
 20
213.75
 30
0.0
 11
197.6999999999999
 21
213.75
 31
0.0
  0
LINE
  5
9F
  8
0
 10
197.6999999999999
 20
214.0
 30
0.0
 11
148.6999999999999
 21
214.0
 31
0.0
  0
LINE
  5
A0
  8
0
 10
148.6999999999999
 20
226.0
 30
0.0
 11
197.6999999999999
 21
226.0
 31
0.0
  0
CIRCLE
  5
A1
  8
0
 10
196.9499999999999
 20
227.0
 30
0.0
 40
0.75
  0
LINE
  5
A2
  8
5
 10
148.6999999999999
 20
226.25
 30
0.0
 11
197.6999999999999
 21
226.25
 31
0.0
  0
LINE
  5
A3
  8
5
 10
148.6999999999999
 20
227.75
 30
0.0
 11
197.6999999999999
 21
227.75
 31
0.0
  0
ARC
  5
A4
  8
0
 10
213.9697525345492
 20
205.3000000000001
 30
0.0
 40
1.1999999999999991
 50
11.999999999999959
 51
89.999999999999758
  0
ARC
  5
A5
  8
0
 10
213.9697525345492
 20
234.69999999999979
 30
0.0
 40
1.1999999999999991
 50
270.00000000000011
 51
348.0
  0
LINE
  5
A6
  8
1
 10
128.6999999999999
 20
220.0
 30
0.0
 11
239.6999999999999
 21
220.0
 31
0.0
  0
LINE
  5
A7
  8
0
 10
199.99999999999989
 20
206.50000000000011
 30
0.0
 11
213.9697525345492
 21
206.5
 31
0.0
  0
LINE
  5
A8
  8
0
 10
199.99999999999989
 20
233.4999999999998
 30
0.0
 11
213.9697525345492
 21
233.4999999999998
 31
0.0
  0
LINE
  5
A9
  8
0
 10
199.99999999999989
 20
206.50000000000011
 30
0.0
 11
197.99999999999989
 21
208.50000000000011
 31
0.0
  0
LINE
  5
AA
  8
0
 10
199.99999999999989
 20
233.4999999999998
 30
0.0
 11
199.99999999999989
 21
206.50000000000011
 31
0.0
  0
LINE
  5
AB
  8
0
 10
197.99999999999989
 20
208.50000000000011
 30
0.0
 11
199.99999999999989
 21
206.50000000000011
 31
0.0
  0
LINE
  5
AC
  8
0
 10
199.99999999999989
 20
233.4999999999998
 30
0.0
 11
197.99999999999989
 21
231.4999999999998
 31
0.0
  0
LINE
  5
AD
  8
0
 10
197.6999999999999
 20
213.0
 30
0.0
 11
197.99999999999989
 21
213.0
 31
0.0
  0
LINE
  5
AE
  8
0
 10
197.99999999999989
 20
231.4999999999998
 30
0.0
 11
197.99999999999989
 21
208.50000000000011
 31
0.0
  0
LINE
  5
AF
  8
0
 10
197.6999999999999
 20
227.0
 30
0.0
 11
197.99999999999989
 21
227.0
 31
0.0
  0
LINE
  5
B0
  8
0
 10
197.6999999999999
 20
227.0
 30
0.0
 11
197.6999999999999
 21
213.0
 31
0.0
  0
ARC
  5
B1
  8
0
 10
261.17051256180952
 20
206.18014920425509
 30
0.0
 40
44.4956319119621
 50
174.3671733291186
 51
185.0036272717613
  0
ARC
  5
B2
  8
0
 10
187.17051256180949
 20
220.0
 30
0.0
 40
31.186236522963359
 50
342.35626422916181
 51
360.0
  0
ARC
  5
B3
  8
0
 10
157.04326140795931
 20
189.05158112113691
 30
0.0
 40
61.250987751940478
 50
2.715872853181502
 51
12.4909667352716
  0
ARC
  5
B4
  8
0
 10
187.17051256180949
 20
220.0
 30
0.0
 40
31.186236522963359
 50
360.0
 51
17.643735770838049
  0
ARC
  5
B5
  8
0
 10
157.04326140795931
 20
250.94841887886301
 30
0.0
 40
61.250987751940478
 50
347.50903326472832
 51
357.28412714681849
  0
ARC
  5
B6
  8
0
 10
261.17051256180952
 20
233.8198507957448
 30
0.0
 40
44.4956319119621
 50
174.99637272823861
 51
185.6328266708812
  0
ARC
  5
B7
  8
0
 10
187.6999999999999
 20
233.8198507957448
 30
0.0
 40
44.4956319119621
 50
354.36717332911871
 51
5.0036272717612951
  0
ARC
  5
B8
  8
0
 10
291.82725115385
 20
250.94841887886301
 30
0.0
 40
61.250987751940478
 50
182.71587285318151
 51
192.4909667352716
  0
ARC
  5
B9
  8
0
 10
261.69999999999987
 20
220.0
 30
0.0
 40
31.186236522963359
 50
162.35626422916189
 51
180.0
  0
ARC
  5
BA
  8
0
 10
291.82725115385
 20
189.05158112113691
 30
0.0
 40
61.250987751940478
 50
167.50903326472829
 51
177.28412714681849
  0
ARC
  5
BB
  8
0
 10
261.69999999999987
 20
220.0
 30
0.0
 40
31.186236522963359
 50
180.0
 51
197.64373577083799
  0
ARC
  5
BC
  8
0
 10
187.6999999999999
 20
206.18014920425509
 30
0.0
 40
44.4956319119621
 50
354.99637272823873
 51
5.6328266708812889
  0
ARC
  5
BD
  8
0
 10
230.19812846779709
 20
192.20334141595029
 30
0.0
 40
1.1999999999999991
 50
270.0
 51
345.47085946405781
  0
ARC
  5
BE
  8
0
 10
219.20715068021701
 20
192.2033414159504
 30
0.0
 40
1.1999999999999991
 50
191.99999999999989
 51
269.99999999999949
  0
ARC
  5
BF
  8
0
 10
219.20715068021701
 20
247.7966585840496
 30
0.0
 40
1.1999999999999991
 50
90.000000000000298
 51
167.99999999999989
  0
ARC
  5
C0
  8
0
 10
230.1981284677972
 20
247.7966585840496
 30
0.0
 40
1.1999999999999991
 50
14.529140535942
 51
89.999999999999986
  0
LINE
  5
C1
  8
0
 10
215.14352965542969
 20
234.45050597101849
 30
0.0
 11
218.03337355933641
 21
248.0461526130309
 31
0.0
  0
LINE
  5
C2
  8
0
 10
215.1435296554298
 20
205.5494940289814
 30
0.0
 11
218.03337355933641
 21
191.9538473869691
 31
0.0
  0
LINE
  5
C3
  8
0
 10
214.9414933743831
 20
206.5000000000004
 30
0.0
 11
214.9414933743831
 21
233.4999999999996
 31
0.0
  0
ARC
  5
C4
  8
0
 10
122.9414933743831
 20
220.0
 30
0.0
 40
112.0
 50
345.47085946405718
 51
14.52914053594281
  0
LINE
  5
C5
  8
0
 10
230.19812846779709
 20
191.0033414159503
 30
0.0
 11
219.20715068021701
 21
191.00334141595039
 31
0.0
  0
LINE
  5
C6
  8
0
 10
230.1981284677972
 20
248.99665858404961
 30
0.0
 11
219.20715068021701
 21
248.9966585840495
 31
0.0
  0
LINE
  5
C7
  8
2
 10
148.39082125603861
 20
60.0
 30
0.0
 11
148.69999999999999
 21
50.000000000000028
 31
0.0
  0
LINE
  5
C8
  8
0
 10
145.7217391304342
 20
27.49999999999989
 30
0.0
 11
148.0043478260869
 21
72.500000000000028
 31
0.0
  0
LINE
  5
C9
  8
0
 10
230.1981284677972
 20
78.996658584049612
 30
0.0
 11
219.20715068021701
 21
78.996658584049555
 31
0.0
  0
LINE
  5
CA
  8
0
 10
230.1981284677972
 20
21.003341415950391
 30
0.0
 11
219.2071506802171
 21
21.003341415950452
 31
0.0
  0
ARC
  5
CB
  8
0
 10
122.9414933743831
 20
50.000000000000057
 30
0.0
 40
112.0
 50
345.47085946405718
 51
14.52914053594281
  0
LINE
  5
CC
  8
0
 10
214.94149337438321
 20
36.500000000000483
 30
0.0
 11
214.94149337438321
 21
63.499999999999602
 31
0.0
  0
LINE
  5
CD
  8
0
 10
215.1435296554298
 20
35.5494940289814
 30
0.0
 11
218.0333735593365
 21
21.95384738696913
 31
0.0
  0
LINE
  5
CE
  8
0
 10
215.1435296554298
 20
64.450505971018515
 30
0.0
 11
218.03337355933641
 21
78.04615261303087
 31
0.0
  0
ARC
  5
CF
  8
0
 10
230.1981284677972
 20
77.796658584049624
 30
0.0
 40
1.1999999999999991
 50
14.529140535942
 51
89.999999999999986
  0
ARC
  5
D0
  8
0
 10
219.20715068021701
 20
77.796658584049567
 30
0.0
 40
1.1999999999999991
 50
90.000000000000298
 51
167.99999999999989
  0
ARC
  5
D1
  8
0
 10
219.2071506802171
 20
22.203341415950462
 30
0.0
 40
1.1999999999999991
 50
191.99999999999989
 51
269.99999999999949
  0
ARC
  5
D2
  8
0
 10
230.1981284677972
 20
22.20334141595038
 30
0.0
 40
1.1999999999999991
 50
270.0
 51
345.47085946405781
  0
ARC
  5
D3
  8
0
 10
187.6999999999999
 20
36.180149204255137
 30
0.0
 40
44.4956319119621
 50
354.99637272823873
 51
5.6328266708812889
  0
ARC
  5
D4
  8
0
 10
261.69999999999987
 20
50.0
 30
0.0
 40
31.186236522963359
 50
180.0
 51
197.64373577083799
  0
ARC
  5
D5
  8
0
 10
291.82725115385
 20
19.051581121136959
 30
0.0
 40
61.250987751940478
 50
167.50903326472829
 51
177.28412714681849
  0
ARC
  5
D6
  8
0
 10
261.69999999999987
 20
50.0
 30
0.0
 40
31.186236522963359
 50
162.35626422916189
 51
180.0
  0
ARC
  5
D7
  8
0
 10
291.82725115385
 20
80.948418878863023
 30
0.0
 40
61.250987751940478
 50
182.71587285318151
 51
192.4909667352716
  0
ARC
  5
D8
  8
0
 10
187.6999999999999
 20
63.819850795744827
 30
0.0
 40
44.4956319119621
 50
354.36717332911871
 51
5.0036272717612951
  0
ARC
  5
D9
  8
0
 10
261.17051256180952
 20
63.819850795744827
 30
0.0
 40
44.4956319119621
 50
174.99637272823861
 51
185.6328266708812
  0
ARC
  5
DA
  8
0
 10
157.04326140795939
 20
80.948418878863023
 30
0.0
 40
61.250987751940478
 50
347.50903326472832
 51
357.28412714681849
  0
ARC
  5
DB
  8
0
 10
187.17051256180949
 20
50.0
 30
0.0
 40
31.186236522963359
 50
360.0
 51
17.643735770838049
  0
ARC
  5
DC
  8
0
 10
157.04326140795931
 20
19.051581121136959
 30
0.0
 40
61.250987751940478
 50
2.7158728531815051
 51
12.4909667352716
  0
ARC
  5
DD
  8
0
 10
187.17051256180949
 20
50.0
 30
0.0
 40
31.186236522963359
 50
342.35626422916181
 51
360.0
  0
ARC
  5
DE
  8
0
 10
261.17051256180952
 20
36.180149204255137
 30
0.0
 40
44.4956319119621
 50
174.3671733291186
 51
185.0036272717613
  0
LINE
  5
DF
  8
0
 10
197.6999999999999
 20
57.0
 30
0.0
 11
197.6999999999999
 21
43.0
 31
0.0
  0
LINE
  5
E0
  8
0
 10
197.6999999999999
 20
57.0
 30
0.0
 11
198.0
 21
57.0
 31
0.0
  0
LINE
  5
E1
  8
0
 10
197.99999999999989
 20
61.499999999999829
 30
0.0
 11
198.0
 21
38.500000000000142
 31
0.0
  0
LINE
  5
E2
  8
0
 10
197.6999999999999
 20
43.0
 30
0.0
 11
198.0
 21
43.0
 31
0.0
  0
LINE
  5
E3
  8
0
 10
199.99999999999989
 20
63.499999999999829
 30
0.0
 11
197.99999999999989
 21
61.499999999999829
 31
0.0
  0
LINE
  5
E4
  8
0
 10
198.0
 20
38.500000000000142
 30
0.0
 11
200.0
 21
36.500000000000149
 31
0.0
  0
LINE
  5
E5
  8
0
 10
199.99999999999989
 20
63.499999999999829
 30
0.0
 11
200.0
 21
36.500000000000149
 31
0.0
  0
LINE
  5
E6
  8
0
 10
199.99999999999989
 20
36.500000000000149
 30
0.0
 11
197.99999999999989
 21
38.500000000000142
 31
0.0
  0
LINE
  5
E7
  8
0
 10
199.99999999999989
 20
63.499999999999829
 30
0.0
 11
213.9697525345492
 21
63.499999999999829
 31
0.0
  0
LINE
  5
E8
  8
0
 10
199.99999999999989
 20
36.500000000000149
 30
0.0
 11
213.9697525345492
 21
36.500000000000092
 31
0.0
  0
LINE
  5
E9
  8
1
 10
128.6999999999999
 20
50.0
 30
0.0
 11
239.69999999999999
 21
50.0
 31
0.0
  0
ARC
  5
EA
  8
0
 10
213.9697525345492
 20
64.699999999999804
 30
0.0
 40
1.1999999999999991
 50
270.00000000000011
 51
348.0
  0
ARC
  5
EB
  8
0
 10
213.9697525345492
 20
35.300000000000097
 30
0.0
 40
1.1999999999999991
 50
11.999999999999959
 51
89.999999999999758
  0
LINE
  5
EC
  8
5
 10
148.6999999999999
 20
57.75
 30
0.0
 11
197.6999999999999
 21
57.75
 31
0.0
  0
LINE
  5
ED
  8
5
 10
148.6999999999999
 20
56.25
 30
0.0
 11
197.6999999999999
 21
56.25
 31
0.0
  0
CIRCLE
  5
EE
  8
0
 10
196.9499999999999
 20
57.0
 30
0.0
 40
0.75
  0
LINE
  5
EF
  8
0
 10
148.6999999999999
 20
56.0
 30
0.0
 11
197.6999999999999
 21
56.0
 31
0.0
  0
LINE
  5
F0
  8
0
 10
197.6999999999999
 20
44.0
 30
0.0
 11
148.6999999999999
 21
44.0
 31
0.0
  0
LINE
  5
F1
  8
5
 10
148.6999999999999
 20
43.75
 30
0.0
 11
197.6999999999999
 21
43.75
 31
0.0
  0
CIRCLE
  5
F2
  8
0
 10
194.95000000000019
 20
43.0
 30
0.0
 40
0.75
  0
CIRCLE
  5
F3
  8
0
 10
196.9499999999999
 20
43.0
 30
0.0
 40
0.75
  0
LINE
  5
F4
  8
5
 10
148.6999999999999
 20
42.25
 30
0.0
 11
197.6999999999999
 21
42.25
 31
0.0
  0
CIRCLE
  5
F5
  8
0
 10
149.4499999999999
 20
43.0
 30
0.0
 40
0.75
  0
CIRCLE
  5
F6
  8
0
 10
149.4499999999999
 20
57.0
 30
0.0
 40
0.75
  0
CIRCLE
  5
F7
  8
0
 10
151.4499999999997
 20
57.0
 30
0.0
 40
0.75
  0
LINE
  5
F8
  8
0
 10
142.6999999999999
 20
27.499999999999869
 30
0.0
 11
145.7217391304342
 21
27.49999999999989
 31
0.0
  0
LINE
  5
F9
  8
0
 10
142.6999999999999
 20
72.500000000000028
 30
0.0
 11
148.0043478260869
 21
72.500000000000028
 31
0.0
  0
LINE
  5
FA
  8
0
 10
142.6999999999999
 20
72.500000000000028
 30
0.0
 11
142.6999999999999
 21
27.49999999999984
 31
0.0
  0
LINE
  5
FB
  8
0
 10
148.69999999999999
 20
60.0
 30
0.0
 11
148.6999999999999
 21
40.0
 31
0.0
  0
LINE
  5
FC
  8
2
 10
145.19999999999919
 20
50.0
 30
0.0
 11
145.7217391304342
 21
27.49999999999989
 31
0.0
  0
LINE
  5
FD
  8
2
 10
145.19999999999919
 20
49.999999999999972
 30
0.0
 11
148.6999999999999
 21
50.000000000000028
 31
0.0
  0
LINE
  5
FE
  8
0
 10
148.0043478260869
 20
72.500000000000028
 30
0.0
 11
148.39082125603861
 21
60.0
 31
0.0
  0
LINE
  5
FF
  8
0
 10
146.3557971014489
 20
40.00000000000005
 30
0.0
 11
148.6999999999999
 21
40.0
 31
0.0
  0
LINE
  5
100
  8
0
 10
147.37028985507229
 20
60.0
 30
0.0
 11
148.69999999999999
 21
60.0
 31
0.0
  0
LINE
  5
101
  8
0
 10
134.1999999999999
 20
60.0
 30
0.0
 11
134.1999999999999
 21
40.0
 31
0.0
  0
LINE
  5
102
  8
0
 10
134.1999999999999
 20
40.0
 30
0.0
 11
142.6999999999999
 21
40.0
 31
0.0
  0
LINE
  5
103
  8
0
 10
134.1999999999999
 20
60.0
 30
0.0
 11
142.6999999999999
 21
60.0
 31
0.0
  0
LINE
  5
104
  8
0
 10
133.6999999999999
 20
59.5
 30
0.0
 11
133.6999999999999
 21
40.5
 31
0.0
  0
LINE
  5
105
  8
0
 10
134.1999999999999
 20
40.0
 30
0.0
 11
133.6999999999999
 21
40.5
 31
0.0
  0
LINE
  5
106
  8
0
 10
134.1999999999999
 20
60.0
 30
0.0
 11
133.6999999999999
 21
59.5
 31
0.0
  0
ARC
  5
110
  8
0
 10
284.42444415840589
 20
165.2017326663721
 30
0.0
 40
19.999999999999549
 50
281.89181005923632
 51
330.10818994076351
  0
ARC
  5
111
  8
0
 10
310.0
 20
150.5
 30
0.0
 40
9.5
 50
29.891810059228781
 51
150.10818994076331
  0
ARC
  5
112
  8
0
 10
290.50334141595039
 20
136.33484838468721
 30
0.0
 40
9.5
 50
101.8918100592288
 51
222.1081899407634
  0
ARC
  5
113
  8
0
 10
268.61788136712988
 20
116.5541345843349
 30
0.0
 40
19.999999999999549
 50
353.89181005923632
 51
42.108189940763502
  0
ARC
  5
114
  8
0
 10
297.95040232800488
 20
113.41515161531559
 30
0.0
 40
9.5
 50
173.89181005922879
 51
294.10818994076328
  0
ARC
  5
115
  8
0
 10
309.99999999999989
 20
86.488265498591645
 30
0.0
 40
19.999999999999549
 50
65.89181005923632
 51
114.10818994076349
  0
ARC
  5
116
  8
0
 10
322.049597671995
 20
113.41515161531559
 30
0.0
 40
9.5
 50
245.89181005922879
 51
6.1081899407633449
  0
ARC
  5
117
  8
0
 10
351.38211863287017
 20
116.5541345843348
 30
0.0
 40
19.999999999999549
 50
137.89181005923621
 51
186.10818994076351
  0
ARC
  5
118
  8
0
 10
329.49665858404961
 20
136.33484838468721
 30
0.0
 40
9.5
 50
317.89181005922882
 51
78.108189940763353
  0
ARC
  5
119
  8
0
 10
335.57555584159411
 20
165.2017326663721
 30
0.0
 40
19.999999999999549
 50
209.89181005923629
 51
258.10818994076351
  0
LINE
  5
11A
  8
1
 10
310.0
 20
165.0
 30
0.0
 11
310.0
 21
95.000000000000014
 31
0.0
  0
LINE
  5
11B
  8
1
 10
275.0
 20
130.0
 30
0.0
 11
345.0
 21
130.0
 31
0.0
  0
LINE
  5
11C
  8
2
 10
146.3557971014489
 20
229.99999999999989
 30
0.0
 11
148.0043478260869
 21
197.49999999999989
 31
0.0
  0
LINE
  5
11D
  8
0
 10
145.7217391304342
 20
242.50000000000011
 30
0.0
 11
146.35579710144879
 21
229.99999999999989
 31
0.0
  0
TEXT
  5
26A
  8
0
 62
     3
 10
0.0
 20
0.0
 30
0.0
 40
10.0
  1
SL60X64R
  7
STANDARD1
  0
ENDSEC
  0
EOF
