  0
SECTION
  2
HEADER
  9
$ACADVER
  1
AC1009
  9
$INSBASE
 10
0.0
 20
0.0
 30
0.0
  9
$EXTMIN
 10
0.0
 20
-2.960436562073669
 30
0.0
  9
$EXTMAX
 10
354.26649011554809
 20
233.84720219234291
 30
0.0
  9
$LIMMIN
 10
0.0
 20
0.0
  9
$LIMMAX
 10
375.0
 20
270.0
  9
$ORTHOMODE
 70
     1
  9
$REGENMODE
 70
     1
  9
$FILLMODE
 70
     1
  9
$QTEXTMODE
 70
     0
  9
$MIRRTEXT
 70
     0
  9
$DRAGMODE
 70
     2
  9
$LTSCALE
 40
10.0
  9
$OSMODE
 70
    55
  9
$ATTMODE
 70
     1
  9
$TEXTSIZE
 40
0.2
  9
$TRACEWID
 40
0.05
  9
$TEXTSTYLE
  7
STANDARD
  9
$CLAYER
  8
0
  9
$CELTYPE
  6
BYLAYER
  9
$CECOLOR
 62
   256
  9
$DIMSCALE
 40
1.0
  9
$DIMASZ
 40
3.0
  9
$DIMEXO
 40
2.0
  9
$DIMDLI
 40
0.38
  9
$DIMRND
 40
0.0
  9
$DIMDLE
 40
0.0
  9
$DIMEXE
 40
2.0
  9
$DIMTP
 40
0.0
  9
$DIMTM
 40
0.0
  9
$DIMTXT
 40
3.2000000000000002
  9
$DIMCEN
 40
0.0
  9
$DIMTSZ
 40
0.0
  9
$DIMTOL
 70
     0
  9
$DIMLIM
 70
     0
  9
$DIMTIH
 70
     0
  9
$DIMTOH
 70
     0
  9
$DIMSE1
 70
     0
  9
$DIMSE2
 70
     0
  9
$DIMTAD
 70
     1
  9
$DIMZIN
 70
     0
  9
$DIMBLK
  1

  9
$DIMASO
 70
     1
  9
$DIMSHO
 70
     0
  9
$DIMPOST
  1

  9
$DIMAPOST
  1

  9
$DIMALT
 70
     0
  9
$DIMALTD
 70
     2
  9
$DIMALTF
 40
25.399999999999999
  9
$DIMLFAC
 40
1.0
  9
$DIMTOFL
 70
     1
  9
$DIMTVP
 40
1.6000000000000001
  9
$DIMTIX
 70
     1
  9
$DIMSOXD
 70
     0
  9
$DIMSAH
 70
     0
  9
$DIMBLK1
  1

  9
$DIMBLK2
  1

  9
$DIMSTYLE
  2
STANDARD
  9
$DIMCLRD
 70
     0
  9
$DIMCLRE
 70
     0
  9
$DIMCLRT
 70
     0
  9
$DIMTFAC
 40
1.0
  9
$DIMGAP
 40
0.09
  9
$LUNITS
 70
     2
  9
$LUPREC
 70
     4
  9
$SKETCHINC
 40
0.1
  9
$FILLETRAD
 40
0.0
  9
$AUNITS
 70
     0
  9
$AUPREC
 70
     4
  9
$MENU
  1
E:\r13\win\SUPPORT\ACAD
  9
$ELEVATION
 40
0.0
  9
$PELEVATION
 40
0.0
  9
$THICKNESS
 40
0.0
  9
$LIMCHECK
 70
     0
  9
$BLIPMODE
 70
     0
  9
$CHAMFERA
 40
0.0
  9
$CHAMFERB
 40
0.0
  9
$SKPOLY
 70
     0
  9
$TDCREATE
 40
2449840.631990741
  9
$TDUPDATE
 40
2456598.5440241671
  9
$TDINDWG
 40
0.0001435995
  9
$TDUSRTIMER
 40
0.0001435995
  9
$USRTIMER
 70
     1
  9
$ANGBASE
 50
0.0
  9
$ANGDIR
 70
     0
  9
$PDMODE
 70
     0
  9
$PDSIZE
 40
0.0
  9
$PLINEWID
 40
0.0
  9
$COORDS
 70
     1
  9
$SPLFRAME
 70
     0
  9
$SPLINETYPE
 70
     6
  9
$SPLINESEGS
 70
     8
  9
$ATTDIA
 70
     0
  9
$ATTREQ
 70
     1
  9
$HANDLING
 70
     1
  9
$HANDSEED
  5
3BC
  9
$SURFTAB1
 70
     6
  9
$SURFTAB2
 70
     6
  9
$SURFTYPE
 70
     6
  9
$SURFU
 70
     6
  9
$SURFV
 70
     6
  9
$UCSNAME
  2

  9
$UCSORG
 10
0.0
 20
0.0
 30
0.0
  9
$UCSXDIR
 10
1.0
 20
0.0
 30
0.0
  9
$UCSYDIR
 10
0.0
 20
1.0
 30
0.0
  9
$PUCSNAME
  2

  9
$PUCSORG
 10
0.0
 20
0.0
 30
0.0
  9
$PUCSXDIR
 10
1.0
 20
0.0
 30
0.0
  9
$PUCSYDIR
 10
0.0
 20
1.0
 30
0.0
  9
$USERI1
 70
     0
  9
$USERI2
 70
     1
  9
$USERI3
 70
     1
  9
$USERI4
 70
     0
  9
$USERI5
 70
     0
  9
$USERR1
 40
0.0
  9
$USERR2
 40
0.0
  9
$USERR3
 40
0.0
  9
$USERR4
 40
0.0
  9
$USERR5
 40
0.0
  9
$WORLDVIEW
 70
     1
  9
$SHADEDGE
 70
     3
  9
$SHADEDIF
 70
    70
  9
$TILEMODE
 70
     1
  9
$MAXACTVP
 70
    16
  9
$PLIMCHECK
 70
     0
  9
$PEXTMIN
 10
1.0000000000000000E+020
 20
1.0000000000000000E+020
 30
1.0000000000000000E+020
  9
$PEXTMAX
 10
-1.0000000000000000E+020
 20
-1.0000000000000000E+020
 30
-1.0000000000000000E+020
  9
$PLIMMIN
 10
0.0
 20
0.0
  9
$PLIMMAX
 10
12.0
 20
9.0
  9
$UNITMODE
 70
     0
  9
$VISRETAIN
 70
     0
  9
$PLINEGEN
 70
     0
  9
$PSLTSCALE
 70
     0
  0
ENDSEC
  0
SECTION
  2
TABLES
  0
TABLE
  2
VPORT
 70
     1
  0
VPORT
  2
*ACTIVE
 70
     0
 10
0.0
 20
0.0
 11
1.0
 21
1.0
 12
187.49427839065231
 22
174.91677254346851
 13
0.0
 23
0.0
 14
10.0
 24
10.0
 15
10.0
 25
10.0
 16
0.0
 26
0.0
 36
1.0
 17
0.0
 27
0.0
 37
0.0
 40
358.92027899574339
 41
1.7807262569832401
 42
50.0
 43
0.0
 44
0.0
 50
0.0
 51
0.0
 71
     0
 72
   500
 73
     1
 74
     0
 75
     0
 76
     0
 77
     0
 78
     2
  0
ENDTAB
  0
TABLE
  2
LTYPE
 70
     5
  0
LTYPE
  2
CONTINUOUS
 70
     0
  3
Solid Line
 72
    65
 73
     0
 40
0.0
  0
LTYPE
  2
CENTER
 70
     0
  3
____ _ ____ _ ____ _ ____ _ ____ _ ____ _ ____
 72
    65
 73
     4
 40
2.0
 49
1.25
 49
-0.25
 49
0.25
 49
-0.25
  0
LTYPE
  2
HIDDEN
 70
     0
  3
_ _ _ _ _ _ _ _ _ _ _ _ _ _ _ _ _ _ _ _ _ _ _
 72
    65
 73
     2
 40
0.375
 49
0.25
 49
-0.125
  0
LTYPE
  2
PHANTOM
 70
     0
  3
_____ _ _ _____ _ _ _____ _ _ _____ _ _ ____
 72
    65
 73
     6
 40
2.5
 49
1.25
 49
-0.25
 49
0.25
 49
-0.25
 49
0.25
 49
-0.25
  0
LTYPE
  2
PHANTOM2
 70
     0
  3
___ _ _ ___ _ _ ___ _ _ ___ _ _
 72
    65
 73
     6
 40
1.25
 49
0.625
 49
-0.125
 49
0.125
 49
-0.125
 49
0.125
 49
-0.125
  0
ENDTAB
  0
TABLE
  2
LAYER
 70
     4
  0
LAYER
  2
0
 70
     0
 62
     7
  6
CONTINUOUS
  0
LAYER
  2
1
 70
     0
 62
     1
  6
CENTER
  0
LAYER
  2
2
 70
     0
 62
     2
  6
HIDDEN
  0
LAYER
  2
5
 70
     0
 62
     3
  6
PHANTOM
  0
ENDTAB
  0
TABLE
  2
STYLE
 70
     2
  0
STYLE
  2
STANDARD
 70
     0
 40
0.0
 41
1.0
 50
0.0
 71
     0
 42
0.2
  3
TXT
  4
BIGFONT
  0
STYLE
  2
STANDARD1
 70
     0
 40
0.0
 41
1.0
 50
0.0
 71
     0
 42
3.0
  3
txt
  4

  0
ENDTAB
  0
TABLE
  2
VIEW
 70
     1
  0
VIEW
  2
ALL
 70
     0
 40
270.0
 10
220.99159663865549
 20
135.0
 41
0.0
 11
0.0
 21
0.0
 31
1.0
 12
0.0
 22
0.0
 32
0.0
 42
0.0
 43
0.0
 44
0.0
 50
0.0
 71
     0
  0
ENDTAB
  0
TABLE
  2
UCS
 70
     0
  0
ENDTAB
  0
TABLE
  2
APPID
 70
     3
  0
APPID
  2
ACAD
 70
     0
  0
APPID
  2
ACAD_MLEADERVER
 70
     0
  0
APPID
  2
ACAD_NAV_VCDISPLAY
 70
     0
  0
ENDTAB
  0
TABLE
  2
DIMSTYLE
 70
     1
  0
DIMSTYLE
  2
STANDARD
 70
     0
  3

  4

  5

  6

  7

 40
1.0
 41
0.18
 42
0.0625
 43
0.38
 44
0.18
 45
0.0
 46
0.0
 47
0.0
 48
0.0
140
0.18
141
0.09
142
0.0
143
25.399999999999999
144
1.0
145
0.0
146
1.0
147
0.09
 71
     0
 72
     0
 73
     1
 74
     1
 75
     0
 76
     0
 77
     0
 78
     0
170
     0
171
     2
172
     0
173
     0
174
     0
175
     0
176
     0
177
     0
178
     0
  0
ENDTAB
  0
ENDSEC
  0
SECTION
  2
BLOCKS
  0
BLOCK
  8
0
  2
$MODEL_SPACE
 70
     0
 10
0.0
 20
0.0
 30
0.0
  3
$MODEL_SPACE
  1

  0
ENDBLK
  5
23B
  8
0
  0
BLOCK
 67
     1
  8
0
  2
$PAPER_SPACE
 70
     0
 10
0.0
 20
0.0
 30
0.0
  3
$PAPER_SPACE
  1

  0
ENDBLK
  5
239
 67
     1
  8
0
  0
ENDSEC
  0
SECTION
  2
ENTITIES
  0
ARC
  5
37
  8
0
 10
66.297630904037149
 20
144.85940382670921
 30
0.0
 40
2.4999999999999711
 50
180.0
 51
0.0
  0
LINE
  5
38
  8
0
 10
122.29763090403721
 20
149.8594038267093
 30
0.0
 11
121.79763090403711
 21
149.8594038267093
 31
0.0
  0
LINE
  5
39
  8
0
 10
122.29763090403721
 20
154.8594038267093
 30
0.0
 11
121.79763090403711
 21
154.85940382670921
 31
0.0
  0
ARC
  5
3A
  8
0
 10
122.29763090403721
 20
152.3594038267093
 30
0.0
 40
2.4999999999999711
 50
270.0
 51
90.0
  0
LINE
  5
3B
  8
0
 10
121.79763090403711
 20
155.85940382670921
 30
0.0
 11
87.797630904037106
 21
156.34511811242359
 31
0.0
  0
LINE
  5
3C
  8
0
 10
121.79763090403711
 20
148.8594038267093
 30
0.0
 11
121.79763090403711
 21
155.85940382670921
 31
0.0
  0
LINE
  5
3D
  8
0
 10
87.570786384546651
 20
148.37044890500221
 30
0.0
 11
121.79763090403711
 21
148.8594038267093
 31
0.0
  0
LINE
  5
3E
  8
1
 10
68.797630904036467
 20
152.35940382670921
 30
0.0
 11
129.797630904035
 21
152.35940382670921
 31
0.0
  0
LINE
  5
3F
  8
1
 10
77.797630904036467
 20
161.3594038267093
 30
0.0
 11
77.797630904036467
 21
143.35940382670921
 31
0.0
  0
LINE
  5
40
  8
0
 10
57.797630904037149
 20
151.3594038267093
 30
0.0
 11
57.797630904037149
 21
156.35940382670921
 31
0.0
  0
LINE
  5
41
  8
0
 10
87.797630904037149
 20
149.8594038267093
 30
0.0
 11
87.797630904037106
 21
156.3594038267093
 31
0.0
  0
LINE
  5
42
  8
0
 10
87.797630904037106
 20
156.3594038267093
 30
0.0
 11
57.797630904037149
 21
156.35940382670921
 31
0.0
  0
LINE
  5
43
  8
0
 10
82.797630904037149
 20
144.85940382670921
 30
0.0
 11
61.465700942852109
 21
144.8594038267093
 31
0.0
  0
ARC
  5
44
  8
0
 10
82.797630904037149
 20
149.8594038267093
 30
0.0
 40
5.0
 50
270.0
 51
0.0
  0
LINE
  5
45
  8
0
 10
57.797630904037149
 20
151.3594038267093
 30
0.0
 11
60.559393155815471
 21
145.4367855649686
 31
0.0
  0
ARC
  5
46
  8
0
 10
61.465700942852109
 20
145.8594038267093
 30
0.0
 40
1.0
 50
205.00000000000011
 51
269.99999999999989
  0
LINE
  5
47
  8
1
 10
66.297630904037149
 20
137.35940382670941
 30
0.0
 11
66.297630904037149
 21
161.3594038267093
 31
0.0
  0
LINE
  5
48
  8
1
 10
85.297630904037149
 20
151.3594038267093
 30
0.0
 11
85.297630904037149
 21
163.3594038267093
 31
0.0
  0
LINE
  5
49
  8
0
 10
84.297630904037078
 20
156.3594038267093
 30
0.0
 11
84.297630904037078
 21
157.8594038267093
 31
0.0
  0
LINE
  5
4A
  8
0
 10
86.297630904037092
 20
156.3594038267093
 30
0.0
 11
86.297630904037149
 21
157.8594038267093
 31
0.0
  0
LINE
  5
4B
  8
0
 10
85.797630904037135
 20
158.3594038267093
 30
0.0
 11
84.797630904037092
 21
158.3594038267093
 31
0.0
  0
LINE
  5
4C
  8
0
 10
86.297630904037149
 20
157.8594038267093
 30
0.0
 11
84.297630904037078
 21
157.8594038267093
 31
0.0
  0
LINE
  5
4D
  8
0
 10
84.797630904037092
 20
158.3594038267093
 30
0.0
 11
84.297630904037078
 21
157.8594038267093
 31
0.0
  0
LINE
  5
4E
  8
0
 10
85.797630904037135
 20
158.3594038267093
 30
0.0
 11
86.297630904037149
 21
157.8594038267093
 31
0.0
  0
LINE
  5
4F
  8
1
 10
66.297630904037121
 20
233.84720219234279
 30
0.0
 11
66.297630904037121
 21
205.84720219234279
 31
0.0
  0
ARC
  5
50
  8
0
 10
85.797630904037121
 20
212.84720219234279
 30
0.0
 40
2.0
 50
270.0
 51
0.0
  0
ARC
  5
51
  8
0
 10
59.797630904037121
 20
212.84720219234279
 30
0.0
 40
2.0
 50
180.0
 51
269.99999999999989
  0
ARC
  5
52
  8
0
 10
59.797630904037121
 20
226.84720219234279
 30
0.0
 40
2.0
 50
90.0
 51
179.99999999999989
  0
ARC
  5
53
  8
0
 10
85.797630904037121
 20
226.84720219234279
 30
0.0
 40
2.0
 50
0.0
 51
90.0
  0
LINE
  5
54
  8
0
 10
59.797630904037121
 20
210.84720219234279
 30
0.0
 11
85.797630904037121
 21
210.84720219234279
 31
0.0
  0
LINE
  5
55
  8
0
 10
59.797630904037121
 20
228.84720219234279
 30
0.0
 11
85.797630904037121
 21
228.84720219234279
 31
0.0
  0
LINE
  5
56
  8
0
 10
57.797630904037121
 20
226.84720219234279
 30
0.0
 11
57.797630904037121
 21
212.84720219234279
 31
0.0
  0
LINE
  5
57
  8
0
 10
87.797630904037121
 20
226.84720219234279
 30
0.0
 11
87.797630904037121
 21
225.84720219234279
 31
0.0
  0
LINE
  5
58
  8
1
 10
52.797630904037121
 20
219.84720219234279
 30
0.0
 11
129.797630904035
 21
219.84720219234279
 31
0.0
  0
CIRCLE
  5
59
  8
0
 10
66.297630904037121
 20
219.84720219234279
 30
0.0
 40
2.5
  0
LINE
  5
5A
  8
0
 10
86.797630904037121
 20
225.84720219234279
 30
0.0
 11
86.797630904037121
 21
213.84720219234279
 31
0.0
  0
LINE
  5
5B
  8
0
 10
83.797630904037149
 20
225.84720219234279
 30
0.0
 11
83.797630904037106
 21
213.84720219234279
 31
0.0
  0
LINE
  5
5C
  8
0
 10
71.797630904037121
 20
213.84720219234279
 30
0.0
 11
73.797630904036438
 21
213.84720219234279
 31
0.0
  0
LINE
  5
5D
  8
0
 10
71.797630904037092
 20
225.84720219234279
 30
0.0
 11
73.797630904036467
 21
225.84720219234279
 31
0.0
  0
LINE
  5
5E
  8
0
 10
87.797630904037121
 20
213.84720219234279
 30
0.0
 11
87.797630904037121
 21
212.84720219234279
 31
0.0
  0
LINE
  5
5F
  8
1
 10
85.297630904037149
 20
215.8472021923437
 30
0.0
 11
85.297630904037149
 21
223.84720219234191
 31
0.0
  0
CIRCLE
  5
60
  8
0
 10
85.297630904037149
 20
219.84720219234279
 30
0.0
 40
1.0
  0
LINE
  5
61
  8
0
 10
72.797630904037121
 20
215.84720219234279
 30
0.0
 11
74.797630904037092
 21
215.84720219234279
 31
0.0
  0
LINE
  5
62
  8
0
 10
72.797630904037121
 20
223.84720219234279
 30
0.0
 11
74.797630904037092
 21
223.84720219234279
 31
0.0
  0
LINE
  5
63
  8
0
 10
74.797630904037092
 20
223.84720219234279
 30
0.0
 11
74.797630904037121
 21
215.84720219234279
 31
0.0
  0
LINE
  5
64
  8
0
 10
86.797630904037121
 20
213.84720219234279
 30
0.0
 11
87.797630904037121
 21
213.84720219234279
 31
0.0
  0
LINE
  5
65
  8
0
 10
86.797630904037078
 20
225.84720219234279
 30
0.0
 11
87.797630904037121
 21
225.84720219234279
 31
0.0
  0
LINE
  5
66
  8
0
 10
73.797630904036467
 20
227.84720219234279
 30
0.0
 11
73.797630904036467
 21
223.84720219234279
 31
0.0
  0
LINE
  5
67
  8
0
 10
81.797630904036467
 20
227.84720219234279
 30
0.0
 11
81.797630904036467
 21
225.84720219234279
 31
0.0
  0
LINE
  5
68
  8
0
 10
81.797630904036467
 20
213.84720219234279
 30
0.0
 11
83.797630904037106
 21
213.84720219234279
 31
0.0
  0
LINE
  5
69
  8
0
 10
81.797630904036467
 20
225.84720219234279
 30
0.0
 11
83.797630904037177
 21
225.84720219234279
 31
0.0
  0
LINE
  5
6A
  8
0
 10
73.797630904036467
 20
227.84720219234279
 30
0.0
 11
81.797630904036467
 21
227.84720219234279
 31
0.0
  0
LINE
  5
6B
  8
0
 10
73.797630904036467
 20
211.84720219234279
 30
0.0
 11
81.797630904036467
 21
211.84720219234279
 31
0.0
  0
LINE
  5
6C
  8
0
 10
73.797630904036467
 20
215.84720219234279
 30
0.0
 11
73.797630904036467
 21
211.84720219234279
 31
0.0
  0
LINE
  5
6D
  8
0
 10
71.797630904037092
 20
225.84720219234279
 30
0.0
 11
71.797630904037121
 21
213.84720219234279
 31
0.0
  0
LINE
  5
6E
  8
0
 10
73.297630904037092
 20
223.84720219234279
 30
0.0
 11
73.297630904037121
 21
215.84720219234279
 31
0.0
  0
LINE
  5
6F
  8
0
 10
68.797630904037121
 20
77.057293733197582
 30
0.0
 11
68.797630904037092
 21
62.057293733197341
 31
0.0
  0
ARC
  5
70
  8
0
 10
85.797630904037121
 20
62.557293733197447
 30
0.0
 40
2.0
 50
270.0
 51
0.0
  0
ARC
  5
71
  8
0
 10
59.797630904037121
 20
62.557293733197447
 30
0.0
 40
2.0
 50
180.0
 51
269.99999999999989
  0
ARC
  5
72
  8
0
 10
59.797630904037121
 20
76.55729373319744
 30
0.0
 40
2.0
 50
90.0
 51
179.99999999999989
  0
ARC
  5
73
  8
0
 10
85.797630904037121
 20
76.55729373319744
 30
0.0
 40
2.0
 50
0.0
 51
90.0
  0
LINE
  5
74
  8
0
 10
63.797630904037121
 20
62.057293733197582
 30
0.0
 11
68.797630904037121
 21
62.057293733197341
 31
0.0
  0
LINE
  5
75
  8
0
 10
63.797630904037121
 20
77.057293733197582
 30
0.0
 11
63.797630904037149
 21
62.057293733197582
 31
0.0
  0
LINE
  5
76
  8
0
 10
68.797630904037121
 20
77.057293733197582
 30
0.0
 11
63.797630904037121
 21
77.057293733197582
 31
0.0
  0
LINE
  5
77
  8
0
 10
59.797630904037121
 20
60.557293733197447
 30
0.0
 11
85.797630904037121
 21
60.557293733197447
 31
0.0
  0
LINE
  5
78
  8
0
 10
59.797630904037121
 20
78.55729373319744
 30
0.0
 11
85.797630904037121
 21
78.55729373319744
 31
0.0
  0
LINE
  5
79
  8
0
 10
57.797630904037121
 20
76.55729373319744
 30
0.0
 11
57.797630904037121
 21
62.557293733197447
 31
0.0
  0
LINE
  5
7A
  8
0
 10
87.797630904037121
 20
76.55729373319744
 30
0.0
 11
87.797630904037121
 21
75.55729373319744
 31
0.0
  0
CIRCLE
  5
7B
  8
2
 10
66.297630904037121
 20
69.55729373319744
 30
0.0
 40
2.5
  0
ARC
  5
7C
  8
0
 10
66.297630904037121
 20
69.55729373319744
 30
0.0
 40
3.5
 50
135.5846914027959
 51
224.41530859720399
  0
LINE
  5
7D
  8
0
 10
86.797630904037121
 20
75.55729373319744
 30
0.0
 11
86.797630904037121
 21
75.43229373319744
 31
0.0
  0
LINE
  5
7E
  8
0
 10
83.797630904037149
 20
75.55729373319744
 30
0.0
 11
83.797630904037177
 21
75.507293733197457
 31
0.0
  0
LINE
  5
7F
  8
0
 10
72.797630904037121
 20
63.557293733197447
 30
0.0
 11
87.797630904037121
 21
63.557293733197447
 31
0.0
  0
LINE
  5
80
  8
0
 10
72.797630904037121
 20
75.55729373319744
 30
0.0
 11
87.797630904037121
 21
75.55729373319744
 31
0.0
  0
LINE
  5
81
  8
0
 10
72.797630904037121
 20
75.55729373319744
 30
0.0
 11
72.797630904037121
 21
63.557293733197447
 31
0.0
  0
LINE
  5
82
  8
0
 10
87.797630904037121
 20
63.557293733197447
 30
0.0
 11
87.797630904037121
 21
62.557293733197447
 31
0.0
  0
LINE
  5
83
  8
0
 10
72.797630904037121
 20
65.55729373319744
 30
0.0
 11
74.797630904037092
 21
65.55729373319744
 31
0.0
  0
LINE
  5
84
  8
0
 10
72.797630904037121
 20
73.55729373319744
 30
0.0
 11
74.797630904037092
 21
73.55729373319744
 31
0.0
  0
LINE
  5
85
  8
0
 10
74.797630904037092
 20
73.55729373319744
 30
0.0
 11
74.797630904037121
 21
65.55729373319744
 31
0.0
  0
LINE
  5
86
  8
2
 10
73.297630904037092
 20
73.55729373319744
 30
0.0
 11
73.297630904037121
 21
65.55729373319744
 31
0.0
  0
LINE
  5
87
  8
0
 10
72.797630904037121
 20
225.84720219234279
 30
0.0
 11
72.797630904037121
 21
223.84720219234279
 31
0.0
  0
LINE
  5
88
  8
0
 10
72.797630904037121
 20
215.84720219234279
 30
0.0
 11
72.797630904037121
 21
213.84720219234279
 31
0.0
  0
CIRCLE
  5
89
  8
0
 10
85.297630904037149
 20
219.84720219234279
 30
0.0
 40
0.5
  0
LINE
  5
8A
  8
0
 10
124.797630904035
 20
215.84720219234279
 30
0.0
 11
124.797630904035
 21
223.84720219234291
 31
0.0
  0
LINE
  5
8B
  8
0
 10
81.505730147583805
 20
213.8399046734315
 30
0.0
 11
83.797630904037106
 21
213.8972021923428
 31
0.0
  0
LINE
  5
8C
  8
0
 10
121.79763090403711
 20
214.84720219234279
 30
0.0
 11
121.79763090403711
 21
224.84720219234279
 31
0.0
  0
LINE
  5
8D
  8
0
 10
121.79763090403711
 20
224.84720219234279
 30
0.0
 11
86.797630904037078
 21
225.72220219234279
 31
0.0
  0
LINE
  5
8E
  8
0
 10
86.797630904037078
 20
213.97220219234279
 30
0.0
 11
121.79763090403711
 21
214.84720219234279
 31
0.0
  0
LINE
  5
8F
  8
0
 10
83.797630904037149
 20
225.79720219234281
 30
0.0
 11
81.505730147583805
 21
225.85449971125411
 31
0.0
  0
LINE
  5
90
  8
0
 10
121.79763090403711
 20
215.84720219234279
 30
0.0
 11
124.797630904035
 21
215.84720219234279
 31
0.0
  0
LINE
  5
91
  8
0
 10
121.79763090403711
 20
223.84720219234291
 30
0.0
 11
124.797630904035
 21
223.84720219234291
 31
0.0
  0
ARC
  5
92
  8
0
 10
108.7976309040381
 20
219.84720219234279
 30
0.0
 40
4.0
 50
270.0
 51
90.0
  0
ARC
  5
93
  8
0
 10
92.297630904038513
 20
219.84720219234271
 30
0.0
 40
4.0
 50
90.0
 51
270.0
  0
LINE
  5
94
  8
0
 10
92.297630904038513
 20
215.84720219234271
 30
0.0
 11
108.7976309040381
 21
215.84720219234279
 31
0.0
  0
LINE
  5
95
  8
0
 10
108.7976309040381
 20
223.84720219234279
 30
0.0
 11
92.297630904038513
 21
223.84720219234271
 31
0.0
  0
LINE
  5
96
  8
1
 10
77.797630904036467
 20
233.84720219234291
 30
0.0
 11
77.797630904036467
 21
205.84720219234279
 31
0.0
  0
LINE
  5
97
  8
0
 10
121.79763090403721
 20
73.557293733197497
 30
0.0
 11
124.797630904035
 21
73.557293733197454
 31
0.0
  0
LINE
  5
98
  8
0
 10
121.79763090403721
 20
65.557293733197412
 30
0.0
 11
124.797630904035
 21
65.55729373319744
 31
0.0
  0
LINE
  5
99
  8
0
 10
81.797630904036936
 20
63.557293733197447
 30
0.0
 11
121.79763090403721
 21
64.557293733197412
 31
0.0
  0
LINE
  5
9A
  8
0
 10
121.79763090403721
 20
74.557293733197412
 30
0.0
 11
81.797630904037774
 21
75.55729373319744
 31
0.0
  0
LINE
  5
9B
  8
0
 10
121.79763090403721
 20
64.557293733197412
 30
0.0
 11
121.79763090403721
 21
74.557293733197412
 31
0.0
  0
LINE
  5
9C
  8
0
 10
124.797630904035
 20
65.557293733197412
 30
0.0
 11
124.797630904035
 21
73.557293733197454
 31
0.0
  0
LINE
  5
9D
  8
0
 10
73.797630904036438
 20
75.55729373319744
 30
0.0
 11
73.797630904036438
 21
73.55729373319744
 31
0.0
  0
LINE
  5
9E
  8
0
 10
73.797630904036438
 20
65.55729373319744
 30
0.0
 11
73.797630904036438
 21
63.557293733197447
 31
0.0
  0
LINE
  5
9F
  8
0
 10
81.505730147583833
 20
213.8399046734315
 30
0.0
 11
81.505730147583805
 21
225.85449971125411
 31
0.0
  0
LINE
  5
A0
  8
0
 10
81.797630904036467
 20
213.84720219234279
 30
0.0
 11
81.797630904036467
 21
211.84720219234279
 31
0.0
  0
LINE
  5
A1
  8
0
 10
81.505730147583861
 20
63.557293733197447
 30
0.0
 11
81.505730147583861
 21
75.55729373319744
 31
0.0
  0
LINE
  5
A2
  8
0
 10
86.797630904037121
 20
63.682293733197433
 30
0.0
 11
86.797630904037121
 21
63.557293733197447
 31
0.0
  0
LINE
  5
A3
  8
0
 10
83.797630904037106
 20
63.607293733197437
 30
0.0
 11
83.797630904037106
 21
63.557293733197447
 31
0.0
  0
LINE
  5
A4
  8
0
 10
85.297630904037163
 20
63.64479373319746
 30
0.0
 11
85.297630904037121
 21
75.469793733197463
 31
0.0
  0
LINE
  5
A5
  8
0
 10
81.129687560638715
 20
73.55729373319744
 30
0.0
 11
81.129687560638715
 21
65.55729373319744
 31
0.0
  0
LINE
  5
A6
  8
0
 10
76.018488518049153
 20
73.55729373319744
 30
0.0
 11
76.018488518049182
 21
65.55729373319744
 31
0.0
  0
LINE
  5
A7
  8
0
 10
76.018488518049125
 20
65.55729373319744
 30
0.0
 11
81.129687560638715
 21
65.55729373319744
 31
0.0
  0
LINE
  5
A8
  8
0
 10
76.018488518049125
 20
73.55729373319744
 30
0.0
 11
81.129687560638715
 21
73.55729373319744
 31
0.0
  0
ARC
  5
A9
  8
0
 10
66.297630904037121
 20
69.55729373319744
 30
0.0
 40
3.5
 50
315.58469140280499
 51
44.415308597195228
  0
LINE
  5
AA
  8
1
 10
52.797630904037121
 20
69.55729373319744
 30
0.0
 11
129.797630904035
 21
69.55729373319744
 31
0.0
  0
LINE
  5
AB
  8
1
 10
77.797630904036467
 20
83.557293733197454
 30
0.0
 11
77.797630904036467
 21
55.557293733197447
 31
0.0
  0
LINE
  5
AC
  8
1
 10
66.297630904037121
 20
83.557293733197454
 30
0.0
 11
66.297630904037121
 21
55.557293733197447
 31
0.0
  0
LINE
  5
AD
  8
0
 10
26.506113633880581
 20
142.35940382670989
 30
0.0
 11
11.506113633880579
 21
142.35940382670989
 31
0.0
  0
LINE
  5
AE
  8
0
 10
10.006113633880579
 20
156.3594038267093
 30
0.0
 11
10.422934262078501
 21
146.77252937815669
 31
0.0
  0
LINE
  5
AF
  8
0
 10
12.421046578788619
 20
144.8594038267093
 30
0.0
 11
25.591180688972521
 21
144.85940382670921
 31
0.0
  0
LINE
  5
B0
  8
0
 10
27.589293005682642
 20
146.77252937815661
 30
0.0
 11
28.006113633880581
 21
156.3594038267093
 31
0.0
  0
LINE
  5
B1
  8
0
 10
28.006113633880581
 20
156.3594038267093
 30
0.0
 11
10.006113633880579
 21
156.3594038267093
 31
0.0
  0
LINE
  5
B2
  8
1
 10
19.006113633880581
 20
161.3594038267093
 30
0.0
 11
19.006113633880581
 21
137.35940382670989
 31
0.0
  0
LINE
  5
B3
  8
0
 10
11.506113633880579
 20
145.08095008642729
 30
0.0
 11
11.506113633880579
 21
142.35940382670989
 31
0.0
  0
LINE
  5
B4
  8
0
 10
26.506113633880581
 20
145.08095008642621
 30
0.0
 11
26.506113633880581
 21
142.35940382670989
 31
0.0
  0
LINE
  5
B5
  8
0
 10
27.78872232953276
 20
151.3594038267093
 30
0.0
 11
10.2235049382284
 21
151.3594038267093
 31
0.0
  0
ARC
  5
B6
  8
0
 10
12.421046578788619
 20
146.8594038267093
 30
0.0
 40
2.0
 50
182.48955292199909
 51
269.99999999999977
  0
ARC
  5
B7
  8
0
 10
25.591180688972521
 20
146.85940382670921
 30
0.0
 40
2.0
 50
269.99999999999989
 51
357.51044707800088
  0
ARC
  5
B8
  8
0
 10
164.4477695797934
 20
146.85940382670921
 30
0.0
 40
2.0
 50
269.99999999999989
 51
357.51044707800088
  0
ARC
  5
B9
  8
0
 10
151.27763546960949
 20
146.8594038267093
 30
0.0
 40
2.0
 50
182.48955292199909
 51
269.99999999999977
  0
LINE
  5
BA
  8
0
 10
165.36270252470149
 20
145.08095008642621
 30
0.0
 11
165.36270252470149
 21
142.35940382670989
 31
0.0
  0
LINE
  5
BB
  8
0
 10
150.36270252470149
 20
145.08095008642729
 30
0.0
 11
150.36270252470149
 21
142.35940382670989
 31
0.0
  0
LINE
  5
BC
  8
1
 10
157.86270252470149
 20
163.3594038267093
 30
0.0
 11
157.86270252470149
 21
137.35940382670989
 31
0.0
  0
LINE
  5
BD
  8
0
 10
166.86270252470149
 20
156.3594038267093
 30
0.0
 11
148.86270252470149
 21
156.3594038267093
 31
0.0
  0
LINE
  5
BE
  8
0
 10
166.44588189650361
 20
146.77252937815661
 30
0.0
 11
166.86270252470149
 21
156.3594038267093
 31
0.0
  0
LINE
  5
BF
  8
0
 10
151.27763546960949
 20
144.8594038267093
 30
0.0
 11
164.4477695797934
 21
144.85940382670921
 31
0.0
  0
LINE
  5
C0
  8
0
 10
148.86270252470149
 20
156.3594038267093
 30
0.0
 11
149.2795231528994
 21
146.77252937815669
 31
0.0
  0
LINE
  5
C1
  8
0
 10
165.36270252470149
 20
142.35940382670989
 30
0.0
 11
150.36270252470149
 21
142.35940382670989
 31
0.0
  0
ARC
  5
C2
  8
0
 10
212.9949682798192
 20
146.85940382670921
 30
0.0
 40
2.0
 50
269.99999999999989
 51
357.51044707800088
  0
ARC
  5
C3
  8
0
 10
199.8248341696353
 20
146.8594038267093
 30
0.0
 40
2.0
 50
182.48955292199909
 51
269.99999999999977
  0
LINE
  5
C4
  8
0
 10
215.19250992037939
 20
151.3594038267093
 30
0.0
 11
197.62729252907499
 21
151.3594038267093
 31
0.0
  0
LINE
  5
C5
  8
0
 10
213.90990122472721
 20
145.08095008642621
 30
0.0
 11
213.90990122472721
 21
142.35940382670989
 31
0.0
  0
LINE
  5
C6
  8
0
 10
198.90990122472721
 20
145.08095008642729
 30
0.0
 11
198.90990122472721
 21
142.35940382670989
 31
0.0
  0
LINE
  5
C7
  8
1
 10
206.40990122472721
 20
161.3594038267093
 30
0.0
 11
206.40990122472721
 21
101.87570455684499
 31
0.0
  0
LINE
  5
C8
  8
0
 10
215.40990122472721
 20
156.3594038267093
 30
0.0
 11
197.40990122472721
 21
156.3594038267093
 31
0.0
  0
LINE
  5
C9
  8
0
 10
214.9930805965293
 20
146.77252937815661
 30
0.0
 11
215.40990122472721
 21
156.3594038267093
 31
0.0
  0
LINE
  5
CA
  8
0
 10
199.8248341696353
 20
144.8594038267093
 30
0.0
 11
212.9949682798192
 21
144.85940382670921
 31
0.0
  0
LINE
  5
CB
  8
0
 10
197.40990122472721
 20
156.3594038267093
 30
0.0
 11
197.82672185292509
 21
146.77252937815669
 31
0.0
  0
LINE
  5
CC
  8
0
 10
213.90990122472721
 20
142.35940382670989
 30
0.0
 11
198.90990122472721
 21
142.35940382670989
 31
0.0
  0
LINE
  5
CD
  8
1
 10
240.2014184948838
 20
69.55729373319744
 30
0.0
 11
317.20141849488169
 21
69.55729373319744
 31
0.0
  0
LINE
  5
CE
  8
0
 10
261.20141849488311
 20
75.55729373319744
 30
0.0
 11
261.20141849488311
 21
75.469793733197434
 31
0.0
  0
LINE
  5
CF
  8
1
 10
265.20141849488311
 20
233.84720219234291
 30
0.0
 11
265.20141849488311
 21
205.84720219234279
 31
0.0
  0
CIRCLE
  5
D0
  8
0
 10
272.7014184948838
 20
219.84720219234279
 30
0.0
 40
0.5
  0
LINE
  5
D1
  8
0
 10
260.2014184948838
 20
215.84720219234279
 30
0.0
 11
260.2014184948838
 21
213.84720219234279
 31
0.0
  0
LINE
  5
D2
  8
0
 10
260.2014184948838
 20
225.84720219234279
 30
0.0
 11
260.2014184948838
 21
223.84720219234279
 31
0.0
  0
LINE
  5
D3
  8
0
 10
275.2014184948838
 20
63.557293733197447
 30
0.0
 11
275.2014184948838
 21
62.557293733197447
 31
0.0
  0
LINE
  5
D4
  8
0
 10
260.2014184948838
 20
75.55729373319744
 30
0.0
 11
260.2014184948838
 21
75.469793733197434
 31
0.0
  0
LINE
  5
D5
  8
0
 10
260.2014184948838
 20
75.55729373319744
 30
0.0
 11
275.2014184948838
 21
75.55729373319744
 31
0.0
  0
LINE
  5
D6
  8
0
 10
260.2014184948838
 20
63.557293733197447
 30
0.0
 11
275.2014184948838
 21
63.557293733197447
 31
0.0
  0
ARC
  5
D7
  8
0
 10
253.7014184948838
 20
69.55729373319744
 30
0.0
 40
3.5
 50
159.0570315163657
 51
200.94296848363359
  0
LINE
  5
D8
  8
0
 10
275.2014184948838
 20
76.55729373319744
 30
0.0
 11
275.2014184948838
 21
75.55729373319744
 31
0.0
  0
LINE
  5
D9
  8
0
 10
245.2014184948838
 20
76.55729373319744
 30
0.0
 11
245.2014184948838
 21
62.557293733197447
 31
0.0
  0
LINE
  5
DA
  8
0
 10
247.2014184948838
 20
78.55729373319744
 30
0.0
 11
273.2014184948838
 21
78.55729373319744
 31
0.0
  0
LINE
  5
DB
  8
0
 10
247.2014184948838
 20
60.557293733197447
 30
0.0
 11
273.2014184948838
 21
60.557293733197447
 31
0.0
  0
LINE
  5
DC
  8
0
 10
256.2014184948838
 20
77.057293733197582
 30
0.0
 11
251.2014184948838
 21
77.057293733197582
 31
0.0
  0
LINE
  5
DD
  8
0
 10
251.2014184948838
 20
77.057293733197582
 30
0.0
 11
251.2014184948838
 21
74.635734069489445
 31
0.0
  0
ARC
  5
DE
  8
0
 10
273.2014184948838
 20
76.55729373319744
 30
0.0
 40
2.0
 50
0.0
 51
90.0
  0
ARC
  5
DF
  8
0
 10
247.2014184948838
 20
76.55729373319744
 30
0.0
 40
2.0
 50
90.0
 51
179.99999999999989
  0
ARC
  5
E0
  8
0
 10
247.2014184948838
 20
62.557293733197447
 30
0.0
 40
2.0
 50
180.0
 51
269.99999999999989
  0
ARC
  5
E1
  8
0
 10
273.2014184948838
 20
62.557293733197447
 30
0.0
 40
2.0
 50
270.0
 51
0.0
  0
LINE
  5
E2
  8
0
 10
256.2014184948838
 20
77.057293733197582
 30
0.0
 11
256.2014184948838
 21
75.145896287154386
 31
0.0
  0
LINE
  5
E3
  8
0
 10
260.70141849488368
 20
223.84720219234279
 30
0.0
 11
260.7014184948838
 21
215.84720219234279
 31
0.0
  0
LINE
  5
E4
  8
0
 10
259.20141849488368
 20
225.84720219234279
 30
0.0
 11
259.2014184948838
 21
213.84720219234279
 31
0.0
  0
LINE
  5
E5
  8
0
 10
261.20141849488311
 20
215.84720219234279
 30
0.0
 11
261.20141849488311
 21
211.84720219234279
 31
0.0
  0
LINE
  5
E6
  8
0
 10
261.20141849488311
 20
211.84720219234279
 30
0.0
 11
269.20141849488311
 21
211.84720219234279
 31
0.0
  0
LINE
  5
E7
  8
0
 10
261.20141849488311
 20
227.84720219234279
 30
0.0
 11
269.20141849488311
 21
227.84720219234279
 31
0.0
  0
LINE
  5
E8
  8
0
 10
269.20141849488311
 20
225.84720219234279
 30
0.0
 11
271.2014184948838
 21
225.84720219234279
 31
0.0
  0
LINE
  5
E9
  8
0
 10
269.20141849488311
 20
213.84720219234279
 30
0.0
 11
271.2014184948838
 21
213.84720219234279
 31
0.0
  0
LINE
  5
EA
  8
0
 10
269.20141849488311
 20
227.84720219234279
 30
0.0
 11
269.20141849488311
 21
211.84720219234279
 31
0.0
  0
LINE
  5
EB
  8
0
 10
261.20141849488311
 20
227.84720219234279
 30
0.0
 11
261.20141849488311
 21
223.84720219234279
 31
0.0
  0
LINE
  5
EC
  8
0
 10
274.20141849488368
 20
225.84720219234279
 30
0.0
 11
275.2014184948838
 21
225.84720219234279
 31
0.0
  0
LINE
  5
ED
  8
0
 10
274.2014184948838
 20
213.84720219234279
 30
0.0
 11
275.2014184948838
 21
213.84720219234279
 31
0.0
  0
LINE
  5
EE
  8
0
 10
262.2014184948838
 20
223.84720219234279
 30
0.0
 11
262.2014184948838
 21
215.84720219234279
 31
0.0
  0
LINE
  5
EF
  8
0
 10
260.2014184948838
 20
223.84720219234279
 30
0.0
 11
262.2014184948838
 21
223.84720219234279
 31
0.0
  0
LINE
  5
F0
  8
0
 10
260.2014184948838
 20
215.84720219234279
 30
0.0
 11
262.2014184948838
 21
215.84720219234279
 31
0.0
  0
CIRCLE
  5
F1
  8
0
 10
272.7014184948838
 20
219.84720219234279
 30
0.0
 40
1.0
  0
LINE
  5
F2
  8
1
 10
272.7014184948838
 20
215.8472021923437
 30
0.0
 11
272.7014184948838
 21
223.84720219234191
 31
0.0
  0
LINE
  5
F3
  8
0
 10
275.2014184948838
 20
213.84720219234279
 30
0.0
 11
275.2014184948838
 21
212.84720219234279
 31
0.0
  0
LINE
  5
F4
  8
0
 10
259.20141849488368
 20
225.84720219234279
 30
0.0
 11
261.20141849488311
 21
225.84720219234279
 31
0.0
  0
LINE
  5
F5
  8
0
 10
259.2014184948838
 20
213.84720219234279
 30
0.0
 11
261.20141849488311
 21
213.84720219234279
 31
0.0
  0
LINE
  5
F6
  8
0
 10
271.2014184948838
 20
225.84720219234279
 30
0.0
 11
271.2014184948838
 21
213.84720219234279
 31
0.0
  0
LINE
  5
F7
  8
0
 10
274.2014184948838
 20
225.84720219234279
 30
0.0
 11
274.2014184948838
 21
213.84720219234279
 31
0.0
  0
CIRCLE
  5
F8
  8
0
 10
253.7014184948838
 20
219.84720219234279
 30
0.0
 40
2.5
  0
LINE
  5
F9
  8
0
 10
275.2014184948838
 20
226.84720219234279
 30
0.0
 11
275.2014184948838
 21
225.84720219234279
 31
0.0
  0
LINE
  5
FA
  8
0
 10
245.2014184948838
 20
226.84720219234279
 30
0.0
 11
245.2014184948838
 21
212.84720219234279
 31
0.0
  0
LINE
  5
FB
  8
0
 10
247.2014184948838
 20
228.84720219234279
 30
0.0
 11
273.2014184948838
 21
228.84720219234279
 31
0.0
  0
LINE
  5
FC
  8
0
 10
247.2014184948838
 20
210.84720219234279
 30
0.0
 11
273.2014184948838
 21
210.84720219234279
 31
0.0
  0
ARC
  5
FD
  8
0
 10
273.2014184948838
 20
226.84720219234279
 30
0.0
 40
2.0
 50
0.0
 51
90.0
  0
ARC
  5
FE
  8
0
 10
247.2014184948838
 20
226.84720219234279
 30
0.0
 40
2.0
 50
90.0
 51
179.99999999999989
  0
ARC
  5
FF
  8
0
 10
247.2014184948838
 20
212.84720219234279
 30
0.0
 40
2.0
 50
180.0
 51
269.99999999999989
  0
ARC
  5
100
  8
0
 10
273.2014184948838
 20
212.84720219234279
 30
0.0
 40
2.0
 50
270.0
 51
0.0
  0
LINE
  5
101
  8
1
 10
253.7014184948838
 20
233.84720219234279
 30
0.0
 11
253.7014184948838
 21
205.84720219234279
 31
0.0
  0
LINE
  5
102
  8
0
 10
264.74471382226483
 20
144.8594038267093
 30
0.0
 11
264.32093582839377
 21
143.27784282245321
 31
0.0
  0
LINE
  5
103
  8
0
 10
264.32093582839377
 20
143.27784282245321
 30
0.0
 11
266.73575039411651
 21
142.63079520969691
 31
0.0
  0
LINE
  5
104
  8
0
 10
251.26915642209809
 20
110.0227521696013
 30
0.0
 11
251.39856594464939
 21
110.50571508274589
 31
0.0
  0
LINE
  5
105
  8
0
 10
256.09878555354339
 20
108.7286569440887
 30
0.0
 11
256.22819507609472
 21
109.2116198572333
 31
0.0
  0
ARC
  5
106
  8
0
 10
253.6839709878208
 20
109.37570455684499
 30
0.0
 40
2.4999999999999711
 50
165.0
 51
345.0
  0
LINE
  5
107
  8
0
 10
257.19412090238382
 20
108.9528008121308
 30
0.0
 11
266.73575039411651
 21
142.63079520969691
 31
0.0
  0
LINE
  5
108
  8
0
 10
250.4326401183603
 20
110.76453412784841
 30
0.0
 11
257.19412090238382
 21
108.9528008121308
 31
0.0
  0
LINE
  5
109
  8
0
 10
259.04828399851709
 20
144.8594038267093
 30
0.0
 11
250.4326401183603
 21
110.76453412784841
 31
0.0
  0
LINE
  5
10A
  8
1
 10
267.53078990080581
 20
161.05273626331089
 30
0.0
 11
251.7428281495518
 21
102.1312608596769
 31
0.0
  0
LINE
  5
10B
  8
0
 10
273.2014184948838
 20
158.3594038267093
 30
0.0
 11
273.7014184948838
 21
157.8594038267093
 31
0.0
  0
LINE
  5
10C
  8
0
 10
272.20141849488368
 20
158.3594038267093
 30
0.0
 11
271.70141849488368
 21
157.8594038267093
 31
0.0
  0
LINE
  5
10D
  8
0
 10
273.7014184948838
 20
157.8594038267093
 30
0.0
 11
271.70141849488368
 21
157.8594038267093
 31
0.0
  0
LINE
  5
10E
  8
0
 10
273.2014184948838
 20
158.3594038267093
 30
0.0
 11
272.20141849488368
 21
158.3594038267093
 31
0.0
  0
LINE
  5
10F
  8
0
 10
273.70141849488368
 20
156.3594038267093
 30
0.0
 11
273.7014184948838
 21
157.8594038267093
 31
0.0
  0
LINE
  5
110
  8
0
 10
271.70141849488368
 20
156.3594038267093
 30
0.0
 11
271.70141849488368
 21
157.8594038267093
 31
0.0
  0
LINE
  5
111
  8
1
 10
272.7014184948838
 20
151.3594038267093
 30
0.0
 11
272.7014184948838
 21
163.3594038267093
 31
0.0
  0
LINE
  5
112
  8
2
 10
257.7014184948838
 20
144.85940382670921
 30
0.0
 11
257.7014184948838
 21
154.8594038267093
 31
0.0
  0
LINE
  5
113
  8
2
 10
249.7014184948838
 20
144.8594038267093
 30
0.0
 11
249.7014184948838
 21
154.8594038267093
 31
0.0
  0
LINE
  5
114
  8
2
 10
257.7014184948838
 20
154.8594038267093
 30
0.0
 11
249.7014184948838
 21
154.8594038267093
 31
0.0
  0
LINE
  5
115
  8
2
 10
256.2014184948838
 20
154.8594038267093
 30
0.0
 11
256.2014184948838
 21
156.35940382670921
 31
0.0
  0
LINE
  5
116
  8
2
 10
251.2014184948838
 20
154.8594038267093
 30
0.0
 11
251.2014184948838
 21
156.3594038267093
 31
0.0
  0
LINE
  5
117
  8
2
 10
256.2014184948838
 20
152.3594038267093
 30
0.0
 11
251.2014184948838
 21
152.3594038267093
 31
0.0
  0
LINE
  5
118
  8
2
 10
256.2014184948838
 20
144.85940382670921
 30
0.0
 11
256.2014184948838
 21
152.3594038267093
 31
0.0
  0
LINE
  5
119
  8
2
 10
251.2014184948838
 20
144.8594038267093
 30
0.0
 11
251.2014184948838
 21
152.3594038267093
 31
0.0
  0
LINE
  5
11A
  8
1
 10
253.7014184948838
 20
137.35940382670941
 30
0.0
 11
253.7014184948838
 21
161.3594038267093
 31
0.0
  0
ARC
  5
11B
  8
0
 10
248.8694885336987
 20
145.8594038267093
 30
0.0
 40
1.0
 50
205.00000000000011
 51
269.99999999999989
  0
LINE
  5
11C
  8
0
 10
245.2014184948838
 20
151.3594038267093
 30
0.0
 11
247.96318074666209
 21
145.4367855649686
 31
0.0
  0
ARC
  5
11D
  8
0
 10
270.2014184948838
 20
149.8594038267093
 30
0.0
 40
5.0
 50
270.0
 51
0.0
  0
LINE
  5
11E
  8
0
 10
270.2014184948838
 20
144.85940382670921
 30
0.0
 11
248.8694885336987
 21
144.8594038267093
 31
0.0
  0
LINE
  5
11F
  8
0
 10
275.20141849488368
 20
156.3594038267093
 30
0.0
 11
245.2014184948838
 21
156.35940382670921
 31
0.0
  0
LINE
  5
120
  8
0
 10
275.2014184948838
 20
149.8594038267093
 30
0.0
 11
275.20141849488368
 21
156.3594038267093
 31
0.0
  0
LINE
  5
121
  8
0
 10
245.2014184948838
 20
151.3594038267093
 30
0.0
 11
245.2014184948838
 21
156.35940382670921
 31
0.0
  0
LINE
  5
122
  8
1
 10
265.20141849488311
 20
161.3594038267093
 30
0.0
 11
265.20141849488311
 21
143.35940382670921
 31
0.0
  0
ARC
  5
123
  8
0
 10
253.7014184948838
 20
144.85940382670921
 30
0.0
 40
2.4999999999999711
 50
180.0
 51
0.0
  0
LINE
  5
124
  8
0
 10
151.8627025247014
 20
156.3594038267093
 30
0.0
 11
151.86270252470149
 21
144.8594038267093
 31
0.0
  0
LINE
  5
125
  8
0
 10
163.86270252470149
 20
156.3594038267093
 30
0.0
 11
163.86270252470149
 21
144.85940382670921
 31
0.0
  0
LINE
  5
126
  8
0
 10
152.86270252470149
 20
148.8594038267093
 30
0.0
 11
152.86270252470149
 21
155.85940382670921
 31
0.0
  0
LINE
  5
127
  8
0
 10
161.86270252470149
 20
154.85940382670969
 30
0.0
 11
153.86270252470149
 21
154.8594038267093
 31
0.0
  0
LINE
  5
128
  8
0
 10
161.86270252470149
 20
149.85940382670881
 30
0.0
 11
153.86270252470149
 21
149.8594038267093
 31
0.0
  0
LINE
  5
129
  8
0
 10
162.86270252470149
 20
148.8594038267093
 30
0.0
 11
162.86270252470149
 21
155.85940382670921
 31
0.0
  0
LINE
  5
12A
  8
0
 10
153.86270252470149
 20
149.8594038267093
 30
0.0
 11
153.86270252470149
 21
154.85940382670921
 31
0.0
  0
LINE
  5
12B
  8
0
 10
161.86270252470149
 20
149.8594038267087
 30
0.0
 11
161.86270252470149
 21
154.85940382670981
 31
0.0
  0
LINE
  5
12C
  8
0
 10
152.86270252470149
 20
155.85940382670921
 30
0.0
 11
162.86270252470149
 21
155.85940382670921
 31
0.0
  0
LINE
  5
12D
  8
0
 10
152.86270252470149
 20
148.8594038267093
 30
0.0
 11
162.86270252470149
 21
148.8594038267093
 31
0.0
  0
LINE
  5
12E
  8
0
 10
152.86270252470149
 20
148.8594038267093
 30
0.0
 11
151.95020252470141
 21
148.3379752552807
 31
0.0
  0
LINE
  5
12F
  8
0
 10
151.95020252470141
 20
148.3379752552807
 30
0.0
 11
163.77520252470151
 21
148.3379752552807
 31
0.0
  0
LINE
  5
130
  8
0
 10
163.77520252470151
 20
148.3379752552807
 30
0.0
 11
162.8627025247014
 21
148.8594038267093
 31
0.0
  0
LINE
  5
131
  8
0
 10
163.77520252470151
 20
148.3379752552807
 30
0.0
 11
163.77520252470151
 21
150.8594038267093
 31
0.0
  0
LINE
  5
132
  8
0
 10
163.77520252470151
 20
150.8594038267093
 30
0.0
 11
163.86270252470149
 21
150.8594038267093
 31
0.0
  0
LINE
  5
133
  8
0
 10
151.95020252470141
 20
150.8594038267093
 30
0.0
 11
151.8627025247014
 21
150.8594038267093
 31
0.0
  0
LINE
  5
134
  8
0
 10
151.95020252470141
 20
148.3379752552807
 30
0.0
 11
151.95020252470141
 21
150.8594038267093
 31
0.0
  0
LINE
  5
135
  8
0
 10
163.7377025247014
 20
156.3594038267093
 30
0.0
 11
163.7377025247014
 21
153.85940382670921
 31
0.0
  0
LINE
  5
136
  8
0
 10
163.7377025247014
 20
153.85940382670921
 30
0.0
 11
163.86270252470149
 21
153.85940382670921
 31
0.0
  0
LINE
  5
137
  8
0
 10
162.8627025247014
 20
155.85940382670921
 30
0.0
 11
163.7377025247014
 21
156.35940382670921
 31
0.0
  0
LINE
  5
138
  8
0
 10
152.86270252470149
 20
155.85940382670921
 30
0.0
 11
151.98770252470149
 21
156.35940382670921
 31
0.0
  0
LINE
  5
139
  8
0
 10
151.98770252470149
 20
153.85940382670921
 30
0.0
 11
151.8627025247014
 21
153.85940382670921
 31
0.0
  0
LINE
  5
13A
  8
0
 10
151.98770252470149
 20
156.3594038267093
 30
0.0
 11
151.98770252470149
 21
153.85940382670921
 31
0.0
  0
LINE
  5
13B
  8
0
 10
153.86270252470149
 20
148.3379752552807
 30
0.0
 11
153.8627025247014
 21
145.85940382670469
 31
0.0
  0
LINE
  5
13C
  8
0
 10
161.86270252470149
 20
148.3379752552807
 30
0.0
 11
161.86270252470149
 21
145.85940382670469
 31
0.0
  0
LINE
  5
13D
  8
0
 10
161.86270252470149
 20
145.85940382670469
 30
0.0
 11
153.8627025247014
 21
145.85940382670469
 31
0.0
  0
LINE
  5
13E
  8
0
 10
158.36270252470149
 20
158.3594038267093
 30
0.0
 11
158.86270252470149
 21
157.8594038267093
 31
0.0
  0
LINE
  5
13F
  8
0
 10
157.3627025247014
 20
158.3594038267093
 30
0.0
 11
156.8627025247014
 21
157.8594038267093
 31
0.0
  0
LINE
  5
140
  8
0
 10
158.86270252470149
 20
157.8594038267093
 30
0.0
 11
156.8627025247014
 21
157.8594038267093
 31
0.0
  0
LINE
  5
141
  8
0
 10
158.36270252470149
 20
158.3594038267093
 30
0.0
 11
157.3627025247014
 21
158.3594038267093
 31
0.0
  0
LINE
  5
142
  8
0
 10
158.8627025247014
 20
156.3594038267093
 30
0.0
 11
158.86270252470149
 21
157.8594038267093
 31
0.0
  0
LINE
  5
143
  8
0
 10
156.8627025247014
 20
156.3594038267093
 30
0.0
 11
156.8627025247014
 21
157.8594038267093
 31
0.0
  0
LINE
  5
144
  8
0
 10
344.26649011554809
 20
156.3594038267093
 30
0.0
 11
344.26649011554809
 21
157.8594038267093
 31
0.0
  0
LINE
  5
145
  8
0
 10
346.26649011554809
 20
156.3594038267093
 30
0.0
 11
346.26649011554809
 21
157.8594038267093
 31
0.0
  0
LINE
  5
146
  8
0
 10
345.76649011554809
 20
158.3594038267093
 30
0.0
 11
344.76649011554809
 21
158.3594038267093
 31
0.0
  0
LINE
  5
147
  8
0
 10
346.26649011554809
 20
157.8594038267093
 30
0.0
 11
344.26649011554809
 21
157.8594038267093
 31
0.0
  0
LINE
  5
148
  8
0
 10
344.76649011554809
 20
158.3594038267093
 30
0.0
 11
344.26649011554809
 21
157.8594038267093
 31
0.0
  0
LINE
  5
149
  8
0
 10
345.76649011554809
 20
158.3594038267093
 30
0.0
 11
346.26649011554809
 21
157.8594038267093
 31
0.0
  0
LINE
  5
14A
  8
0
 10
351.26649011554821
 20
156.3594038267093
 30
0.0
 11
351.26649011554809
 21
144.85940382670921
 31
0.0
  0
LINE
  5
14B
  8
0
 10
339.26649011554809
 20
156.3594038267093
 30
0.0
 11
339.26649011554821
 21
144.8594038267093
 31
0.0
  0
LINE
  5
14C
  8
0
 10
352.76649011554809
 20
142.35940382670989
 30
0.0
 11
351.13443899910362
 21
142.35940382670989
 31
0.0
  0
LINE
  5
14D
  8
0
 10
336.26649011554809
 20
156.3594038267093
 30
0.0
 11
336.68331074374612
 21
146.77252937815669
 31
0.0
  0
LINE
  5
14E
  8
0
 10
338.6814230604561
 20
144.8594038267093
 30
0.0
 11
339.35055630465888
 21
144.85940382670921
 31
0.0
  0
LINE
  5
14F
  8
0
 10
353.84966948735018
 20
146.77252937815661
 30
0.0
 11
354.26649011554809
 21
156.3594038267093
 31
0.0
  0
LINE
  5
150
  8
0
 10
354.26649011554809
 20
156.3594038267093
 30
0.0
 11
336.26649011554809
 21
156.3594038267093
 31
0.0
  0
LINE
  5
151
  8
0
 10
337.76649011554809
 20
145.08095008642729
 30
0.0
 11
337.76649011554809
 21
142.35940382670989
 31
0.0
  0
LINE
  5
152
  8
0
 10
352.76649011554809
 20
145.08095008642621
 30
0.0
 11
352.76649011554809
 21
142.35940382670989
 31
0.0
  0
ARC
  5
153
  8
0
 10
338.6814230604561
 20
146.8594038267093
 30
0.0
 40
2.0
 50
182.48955292199909
 51
269.99999999999977
  0
ARC
  5
154
  8
0
 10
351.85155717063998
 20
146.85940382670921
 30
0.0
 40
2.0
 50
269.99999999999989
 51
357.51044707800088
  0
LINE
  5
155
  8
0
 10
263.4222761088958
 20
223.84720219234279
 30
0.0
 11
263.42227610889591
 21
215.84720219234279
 31
0.0
  0
LINE
  5
156
  8
0
 10
263.42227610889569
 20
223.84720219234279
 30
0.0
 11
268.53347515148539
 21
223.84720219234279
 31
0.0
  0
LINE
  5
157
  8
0
 10
268.53347515148539
 20
223.84720219234279
 30
0.0
 11
268.53347515148539
 21
215.84720219234279
 31
0.0
  0
LINE
  5
158
  8
0
 10
263.42227610889569
 20
215.84720219234279
 30
0.0
 11
268.53347515148539
 21
215.84720219234279
 31
0.0
  0
LINE
  5
159
  8
0
 10
210.40990122472721
 20
106.87570455684499
 30
0.0
 11
202.40990122472729
 21
106.87570455684499
 31
0.0
  0
LINE
  5
15A
  8
0
 10
210.40990122472721
 20
110.50571508274589
 30
0.0
 11
202.40990122472721
 21
110.50571508274589
 31
0.0
  0
LINE
  5
15B
  8
0
 10
202.40990122472721
 20
106.87570455684499
 30
0.0
 11
202.40990122472721
 21
110.50571508274589
 31
0.0
  0
LINE
  5
15C
  8
0
 10
210.40990122472721
 20
106.87570455684499
 30
0.0
 11
210.40990122472721
 21
110.50571508274589
 31
0.0
  0
LINE
  5
15D
  8
0
 10
211.40990122472721
 20
108.9528008121308
 30
0.0
 11
210.40990122472721
 21
108.9528008121307
 31
0.0
  0
LINE
  5
15E
  8
0
 10
211.40990122472721
 20
110.76453412784841
 30
0.0
 11
201.40990122472721
 21
110.76453412784841
 31
0.0
  0
LINE
  5
15F
  8
0
 10
201.40990122472721
 20
108.9528008121308
 30
0.0
 11
201.40990122472721
 21
110.76453412784841
 31
0.0
  0
LINE
  5
160
  8
0
 10
211.40990122472721
 20
108.9528008121308
 30
0.0
 11
211.40990122472721
 21
110.76453412784841
 31
0.0
  0
LINE
  5
161
  8
0
 10
202.40990122472721
 20
108.9528008121307
 30
0.0
 11
201.40990122472721
 21
108.9528008121307
 31
0.0
  0
LINE
  5
162
  8
0
 10
264.744713822265
 20
144.85940382670921
 30
0.0
 11
264.320935828394
 21
143.27784282245301
 31
0.0
  0
LINE
  5
163
  8
0
 10
200.59528405292821
 20
142.35940382670989
 30
0.0
 11
201.40990122472721
 21
110.76453412784841
 31
0.0
  0
LINE
  5
164
  8
0
 10
211.40990122472721
 20
110.76453412784841
 30
0.0
 11
212.22451839652621
 21
142.35940382670989
 31
0.0
  0
LINE
  5
165
  8
0
 10
200.54195234117179
 20
142.35940382670989
 30
0.0
 11
201.40990122472721
 21
108.9528008121307
 31
0.0
  0
LINE
  5
166
  8
0
 10
211.40990122472721
 20
108.9528008121308
 30
0.0
 11
212.27785010828279
 21
142.35940382670989
 31
0.0
  0
LINE
  5
167
  8
0
 10
350.26649011554809
 20
108.9528008121308
 30
0.0
 11
351.14149011554821
 21
142.630795209697
 31
0.0
  0
LINE
  5
168
  8
0
 10
339.39149011554809
 20
142.63079520969691
 30
0.0
 11
340.26649011554809
 21
108.9528008121307
 31
0.0
  0
LINE
  5
169
  8
0
 10
350.26649011554809
 20
108.9528008121308
 30
0.0
 11
340.26649011554809
 21
108.9528008121306
 31
0.0
  0
LINE
  5
16A
  8
0
 10
349.26649011554809
 20
106.87570455684499
 30
0.0
 11
349.26649011554798
 21
108.9528008121308
 31
0.0
  0
LINE
  5
16B
  8
0
 10
341.26649011554809
 20
106.87570455684499
 30
0.0
 11
341.26649011554809
 21
108.9528008121307
 31
0.0
  0
LINE
  5
16C
  8
0
 10
349.26649011554809
 20
106.87570455684499
 30
0.0
 11
341.26649011554809
 21
106.87570455684499
 31
0.0
  0
LINE
  5
16D
  8
1
 10
345.26649011554809
 20
161.3594038267093
 30
0.0
 11
345.26649011554809
 21
101.87570455684499
 31
0.0
  0
LINE
  5
16E
  8
0
 10
339.39854123199262
 20
142.35940382670989
 30
0.0
 11
337.76649011554809
 21
142.35940382670989
 31
0.0
  0
LINE
  5
16F
  8
0
 10
339.39149011554821
 20
142.63079520969691
 30
0.0
 11
351.14149011554821
 21
142.63079520969691
 31
0.0
  0
LINE
  5
170
  8
0
 10
339.39149011554821
 20
142.63079520969691
 30
0.0
 11
339.39149011554821
 21
143.27784282245321
 31
0.0
  0
LINE
  5
171
  8
0
 10
351.14149011554821
 20
142.63079520969691
 30
0.0
 11
351.14149011554821
 21
143.27784282245321
 31
0.0
  0
LINE
  5
172
  8
0
 10
351.14149011554821
 20
143.27784282245321
 30
0.0
 11
339.39149011554809
 21
143.27784282245321
 31
0.0
  0
LINE
  5
173
  8
0
 10
339.26649011554821
 20
148.1074719538982
 30
0.0
 11
339.39149011554821
 21
143.27784282245321
 31
0.0
  0
LINE
  5
174
  8
0
 10
351.14149011554821
 20
143.27784282245321
 30
0.0
 11
351.26649011554798
 21
148.1074719538982
 31
0.0
  0
LINE
  5
175
  8
0
 10
351.18242392643748
 20
144.85940382670921
 30
0.0
 11
351.85155717063998
 21
144.85940382670921
 31
0.0
  0
LINE
  5
176
  8
0
 10
351.26649011554821
 20
154.3594038267093
 30
0.0
 11
339.26649011554809
 21
154.3594038267093
 31
0.0
  0
LINE
  5
177
  8
0
 10
339.26649011554821
 20
148.38942643327059
 30
0.0
 11
351.26649011554809
 21
148.3894264332705
 31
0.0
  0
LINE
  5
178
  8
0
 10
341.26649011554809
 20
121.46177015979821
 30
0.0
 11
341.26649011554809
 21
137.33853894722219
 31
0.0
  0
LINE
  5
179
  8
0
 10
349.26649011554809
 20
121.46177015979821
 30
0.0
 11
349.26649011554809
 21
137.33853894722219
 31
0.0
  0
POLYLINE
  5
17A
  8
0
 66
     1
 10
0.0
 20
0.0
 30
0.0
  0
VERTEX
  5
17B
  8
0
 10
341.26649011554809
 20
121.46177015979821
 30
0.0
 42
0.1019756345345313
  0
VERTEX
  5
17C
  8
0
 10
341.56856846823371
 20
119.9960424289217
 30
0.0
 42
0.0998669707918467
  0
VERTEX
  5
17D
  8
0
 10
342.43806299080188
 20
118.7401772209089
 30
0.0
 42
0.0970226979231517
 70
     2
 50
316.10276936267923
  0
VERTEX
  5
17E
  8
0
 10
343.84351050803031
 20
117.8339441109966
 30
0.0
 42
0.1130450053509233
 50
316.10276936267923
  0
VERTEX
  5
17F
  8
0
 10
345.26649011554809
 20
117.61285651436209
 30
0.0
 42
0.0951030101596553
  0
VERTEX
  5
180
  8
0
 10
346.80438874053522
 20
117.9080439384982
 30
0.0
 42
0.0970226979231209
  0
VERTEX
  5
181
  8
0
 10
348.09491724029431
 20
118.7401772209089
 30
0.0
 42
0.0998669707918622
 70
     2
 50
43.897230637320817
  0
VERTEX
  5
182
  8
0
 10
348.96441176286243
 20
119.9960424289217
 30
0.0
 42
0.1019756345345502
 50
43.897230637320817
  0
VERTEX
  5
183
  8
0
 10
349.26649011554809
 20
121.46177015979821
 30
0.0
 42
0.1019756345345073
  0
SEQEND
  5
184
  8
0
  0
POLYLINE
  5
185
  8
0
 66
     1
 10
0.0
 20
0.0
 30
0.0
  0
VERTEX
  5
186
  8
0
 10
349.26649011554809
 20
137.33853894722219
 30
0.0
 42
0.1019756345345245
  0
VERTEX
  5
187
  8
0
 10
348.96441176286248
 20
138.80426667809891
 30
0.0
 42
0.0998669707918254
  0
VERTEX
  5
188
  8
0
 10
348.09491724029431
 20
140.06013188611149
 30
0.0
 42
0.0970226979231208
 70
     2
 50
136.1027693626792
  0
VERTEX
  5
189
  8
0
 10
346.80438874053522
 20
140.89226516852219
 30
0.0
 42
0.0951030101596598
 50
136.1027693626792
  0
VERTEX
  5
18A
  8
0
 10
345.26649011554809
 20
141.1874525926583
 30
0.0
 42
0.0951030101596598
  0
VERTEX
  5
18B
  8
0
 10
343.72859149056097
 20
140.89226516852219
 30
0.0
 42
0.0970226979231208
  0
VERTEX
  5
18C
  8
0
 10
342.43806299080188
 20
140.06013188611149
 30
0.0
 42
0.099866970791848
 70
     2
 50
223.8972306373208
  0
VERTEX
  5
18D
  8
0
 10
341.56856846823359
 20
138.8042666780986
 30
0.0
 42
0.1019756345345063
 50
223.8972306373208
  0
VERTEX
  5
18E
  8
0
 10
341.26649011554809
 20
137.33853894722219
 30
0.0
 42
0.1019756345344765
  0
SEQEND
  5
18F
  8
0
  0
POLYLINE
  5
190
  8
0
 66
     1
 10
0.0
 20
0.0
 30
0.0
  0
VERTEX
  5
191
  8
0
 10
341.26649011554809
 20
122.95178876346139
 30
0.0
 42
0.1019756345345313
  0
VERTEX
  5
192
  8
0
 10
341.56856846823371
 20
121.4860610325849
 30
0.0
 42
0.0998669707918467
  0
VERTEX
  5
193
  8
0
 10
342.43806299080188
 20
120.23019582457211
 30
0.0
 42
0.0970226979231517
 70
     2
 50
316.10276936267923
  0
VERTEX
  5
194
  8
0
 10
343.84351050803031
 20
119.3239627146599
 30
0.0
 42
0.1130450053509233
 50
316.10276936267923
  0
VERTEX
  5
195
  8
0
 10
345.26649011554809
 20
119.1028751180253
 30
0.0
 42
0.0951030101596553
  0
VERTEX
  5
196
  8
0
 10
346.80438874053522
 20
119.3980625421614
 30
0.0
 42
0.0970226979231209
  0
VERTEX
  5
197
  8
0
 10
348.09491724029431
 20
120.23019582457211
 30
0.0
 42
0.0998669707918622
 70
     2
 50
43.897230637320817
  0
VERTEX
  5
198
  8
0
 10
348.96441176286243
 20
121.4860610325849
 30
0.0
 42
0.1019756345345502
 50
43.897230637320817
  0
VERTEX
  5
199
  8
0
 10
349.26649011554809
 20
122.95178876346139
 30
0.0
 42
0.1019756345345073
  0
SEQEND
  5
19A
  8
0
  0
LINE
  5
19B
  8
1
 10
256.20141849488311
 20
152.35940382670921
 30
0.0
 11
317.20141849488169
 21
152.35940382670921
 31
0.0
  0
LINE
  5
19C
  8
5
 10
274.9745739753933
 20
148.37044890500221
 30
0.0
 11
309.2014184948838
 21
148.8594038267093
 31
0.0
  0
LINE
  5
19D
  8
5
 10
309.2014184948838
 20
148.8594038267093
 30
0.0
 11
309.2014184948838
 21
155.85940382670921
 31
0.0
  0
LINE
  5
19E
  8
5
 10
309.2014184948838
 20
155.85940382670921
 30
0.0
 11
275.20141849488368
 21
156.34511811242359
 31
0.0
  0
ARC
  5
19F
  8
5
 10
309.70141849488391
 20
152.3594038267093
 30
0.0
 40
2.4999999999999711
 50
270.0
 51
90.0
  0
LINE
  5
1A0
  8
5
 10
309.70141849488391
 20
154.8594038267093
 30
0.0
 11
309.2014184948838
 21
154.85940382670921
 31
0.0
  0
LINE
  5
1A1
  8
5
 10
309.70141849488391
 20
149.8594038267093
 30
0.0
 11
309.2014184948838
 21
149.8594038267093
 31
0.0
  0
LINE
  5
1A2
  8
5
 10
296.20141849488471
 20
223.84720219234279
 30
0.0
 11
279.70141849488522
 21
223.84720219234271
 31
0.0
  0
LINE
  5
1A3
  8
5
 10
279.70141849488522
 20
215.84720219234271
 30
0.0
 11
296.20141849488471
 21
215.84720219234279
 31
0.0
  0
ARC
  5
1A4
  8
5
 10
279.70141849488522
 20
219.84720219234271
 30
0.0
 40
4.0
 50
90.0
 51
270.0
  0
ARC
  5
1A5
  8
5
 10
296.20141849488471
 20
219.84720219234279
 30
0.0
 40
4.0
 50
270.0
 51
90.0
  0
LINE
  5
1A6
  8
5
 10
309.2014184948838
 20
223.84720219234291
 30
0.0
 11
312.20141849488158
 21
223.84720219234291
 31
0.0
  0
LINE
  5
1A7
  8
5
 10
309.2014184948838
 20
215.84720219234279
 30
0.0
 11
312.20141849488158
 21
215.84720219234279
 31
0.0
  0
LINE
  5
1A8
  8
5
 10
274.20141849488368
 20
213.97220219234279
 30
0.0
 11
309.2014184948838
 21
214.84720219234279
 31
0.0
  0
LINE
  5
1A9
  8
5
 10
309.2014184948838
 20
224.84720219234279
 30
0.0
 11
274.20141849488368
 21
225.72220219234279
 31
0.0
  0
LINE
  5
1AA
  8
5
 10
309.2014184948838
 20
214.84720219234279
 30
0.0
 11
309.2014184948838
 21
224.84720219234279
 31
0.0
  0
LINE
  5
1AB
  8
5
 10
312.20141849488158
 20
215.84720219234279
 30
0.0
 11
312.20141849488158
 21
223.84720219234291
 31
0.0
  0
LINE
  5
1AC
  8
1
 10
240.2014184948838
 20
219.84720219234279
 30
0.0
 11
317.20141849488169
 21
219.84720219234279
 31
0.0
  0
LINE
  5
1AD
  8
0
 10
269.20141849488311
 20
63.557293733197447
 30
0.0
 11
269.20141849488311
 21
75.55729373319744
 31
0.0
  0
LINE
  5
1AE
  8
0
 10
271.2014184948838
 20
75.55729373319744
 30
0.0
 11
271.2014184948838
 21
63.557293733197447
 31
0.0
  0
LINE
  5
1AF
  8
0
 10
274.2014184948838
 20
75.55729373319744
 30
0.0
 11
274.2014184948838
 21
63.557293733197447
 31
0.0
  0
LINE
  5
1B0
  8
0
 10
256.22819507609472
 20
73.55729373319744
 30
0.0
 11
256.22819507609478
 21
65.55729373319744
 31
0.0
  0
LINE
  5
1B1
  8
0
 10
251.1839709878208
 20
73.557293733197454
 30
0.0
 11
251.18397098782091
 21
65.557293733197454
 31
0.0
  0
LINE
  5
1B2
  8
0
 10
251.18397098782091
 20
65.557293733197454
 30
0.0
 11
256.22819507609478
 21
65.55729373319744
 31
0.0
  0
LINE
  5
1B3
  8
0
 10
251.18397098782091
 20
73.557293733197454
 30
0.0
 11
256.22819507609478
 21
73.55729373319744
 31
0.0
  0
LINE
  5
1B4
  8
0
 10
257.19412090238382
 20
74.55729373319744
 30
0.0
 11
257.1941209023837
 21
64.55729373319744
 31
0.0
  0
LINE
  5
1B5
  8
0
 10
250.4326401183603
 20
74.55729373319744
 30
0.0
 11
250.4326401183603
 21
64.55729373319744
 31
0.0
  0
LINE
  5
1B6
  8
0
 10
250.4326401183603
 20
74.55729373319744
 30
0.0
 11
257.19412090238382
 21
74.55729373319744
 31
0.0
  0
LINE
  5
1B7
  8
0
 10
266.73575039411651
 20
75.432293733197454
 30
0.0
 11
266.73575039411651
 21
63.682293733197419
 31
0.0
  0
LINE
  5
1B8
  8
0
 10
257.19412090238382
 20
64.55729373319744
 30
0.0
 11
266.73575039411651
 21
63.682293733197419
 31
0.0
  0
LINE
  5
1B9
  8
0
 10
257.19412090238382
 20
74.55729373319744
 30
0.0
 11
266.73575039411651
 21
75.432293733197454
 31
0.0
  0
LINE
  5
1BA
  8
0
 10
266.73575039411651
 20
75.432293733197454
 30
0.0
 11
264.320935828394
 21
75.432293733197454
 31
0.0
  0
LINE
  5
1BB
  8
0
 10
264.320935828394
 20
75.432293733197454
 30
0.0
 11
265.61503105390659
 21
75.55729373319744
 31
0.0
  0
LINE
  5
1BC
  8
0
 10
264.320935828394
 20
63.682293733197433
 30
0.0
 11
265.61503105390659
 21
63.557293733197447
 31
0.0
  0
LINE
  5
1BD
  8
0
 10
266.73575039411651
 20
63.682293733197433
 30
0.0
 11
264.320935828394
 21
63.682293733197433
 31
0.0
  0
LINE
  5
1BE
  8
0
 10
250.4326401183603
 20
74.55729373319744
 30
0.0
 11
259.37587394089451
 21
75.469793733197434
 31
0.0
  0
LINE
  5
1BF
  8
0
 10
259.37587394089451
 20
75.469793733197434
 30
0.0
 11
261.81138691718058
 21
75.469793733197434
 31
0.0
  0
LINE
  5
1C0
  8
0
 10
261.81138691718058
 20
75.469793733197434
 30
0.0
 11
262.71725357503942
 21
75.55729373319744
 31
0.0
  0
LINE
  5
1C1
  8
0
 10
261.81138691718058
 20
63.644793733197439
 30
0.0
 11
262.71725357503942
 21
63.557293733197419
 31
0.0
  0
LINE
  5
1C2
  8
0
 10
259.37587394089451
 20
63.644793733197439
 30
0.0
 11
261.81138691718058
 21
63.644793733197439
 31
0.0
  0
LINE
  5
1C3
  8
0
 10
250.4326401183603
 20
64.55729373319744
 30
0.0
 11
259.37587394089451
 21
63.644793733197439
 31
0.0
  0
LINE
  5
1C4
  8
0
 10
250.4326401183603
 20
64.55729373319744
 30
0.0
 11
257.19412090238382
 21
64.55729373319744
 31
0.0
  0
LINE
  5
1C5
  8
0
 10
256.2014184948838
 20
62.05729373319727
 30
0.0
 11
256.2014184948838
 21
63.96869117924048
 31
0.0
  0
LINE
  5
1C6
  8
0
 10
251.2014184948838
 20
62.05729373319727
 30
0.0
 11
251.2014184948838
 21
64.478853396905436
 31
0.0
  0
LINE
  5
1C7
  8
0
 10
256.2014184948838
 20
62.05729373319727
 30
0.0
 11
251.2014184948838
 21
62.05729373319727
 31
0.0
  0
LINE
  5
1C8
  8
0
 10
260.2014184948838
 20
63.557293733197419
 30
0.0
 11
260.2014184948838
 21
63.644793733197417
 31
0.0
  0
LINE
  5
1C9
  8
0
 10
261.20141849488311
 20
63.557293733197419
 30
0.0
 11
261.20141849488311
 21
63.644793733197439
 31
0.0
  0
LINE
  5
1CA
  8
1
 10
272.7014184948838
 20
65.557293733196644
 30
0.0
 11
272.7014184948838
 21
73.55729373319744
 31
0.0
  0
CIRCLE
  5
1CB
  8
2
 10
272.7014184948838
 20
69.55729373319744
 30
0.0
 40
1.0
  0
LINE
  5
1CC
  8
5
 10
312.20141849488169
 20
65.557293733197412
 30
0.0
 11
312.20141849488169
 21
73.557293733197454
 31
0.0
  0
LINE
  5
1CD
  8
5
 10
309.2014184948838
 20
64.557293733197412
 30
0.0
 11
309.2014184948838
 21
74.557293733197412
 31
0.0
  0
LINE
  5
1CE
  8
5
 10
309.2014184948838
 20
74.557293733197412
 30
0.0
 11
275.2014184948838
 21
75.407293733197434
 31
0.0
  0
LINE
  5
1CF
  8
5
 10
275.2014184948838
 20
63.707293733197453
 30
0.0
 11
309.2014184948838
 21
64.557293733197412
 31
0.0
  0
LINE
  5
1D0
  8
5
 10
309.2014184948838
 20
65.557293733197412
 30
0.0
 11
312.20141849488169
 21
65.55729373319744
 31
0.0
  0
LINE
  5
1D1
  8
5
 10
309.2014184948838
 20
73.557293733197497
 30
0.0
 11
312.20141849488169
 21
73.557293733197454
 31
0.0
  0
LINE
  5
1D2
  8
2
 10
63.797630904037149
 20
144.8594038267093
 30
0.0
 11
63.797630904037149
 21
152.3594038267093
 31
0.0
  0
LINE
  5
1D3
  8
2
 10
68.797630904037149
 20
144.85940382670921
 30
0.0
 11
68.797630904037149
 21
152.3594038267093
 31
0.0
  0
LINE
  5
1D4
  8
2
 10
68.797630904037149
 20
152.3594038267093
 30
0.0
 11
63.79763090403717
 21
152.3594038267093
 31
0.0
  0
LINE
  5
1D5
  8
2
 10
63.79763090403717
 20
154.8594038267093
 30
0.0
 11
63.797630904037149
 21
156.3594038267093
 31
0.0
  0
LINE
  5
1D6
  8
2
 10
68.797630904037149
 20
154.8594038267093
 30
0.0
 11
68.797630904037149
 21
156.35940382670921
 31
0.0
  0
LINE
  5
1D7
  8
2
 10
70.297630904037149
 20
154.8594038267093
 30
0.0
 11
62.297630904037142
 21
154.8594038267093
 31
0.0
  0
LINE
  5
1D8
  8
2
 10
62.297630904037142
 20
144.8594038267093
 30
0.0
 11
62.297630904037142
 21
154.8594038267093
 31
0.0
  0
LINE
  5
1D9
  8
2
 10
70.297630904037149
 20
144.85940382670921
 30
0.0
 11
70.297630904037149
 21
154.8594038267093
 31
0.0
  0
LINE
  5
1DA
  8
0
 10
265.23635147398699
 20
73.55729373319744
 30
0.0
 11
260.73815471359882
 21
73.55729373319744
 31
0.0
  0
LINE
  5
1DB
  8
0
 10
265.23635147398699
 20
65.55729373319744
 30
0.0
 11
260.73815471359882
 21
65.55729373319744
 31
0.0
  0
POLYLINE
  5
1DC
  8
0
 66
     1
 10
0.0
 20
0.0
 30
0.0
  0
VERTEX
  5
1DD
  8
0
 10
266.3268234158993
 20
69.55729373319744
 30
0.0
 42
0.0281188410792386
  0
VERTEX
  5
1DE
  8
0
 10
266.23426937108201
 20
71.201758114249273
 30
0.0
 42
0.0384450717154725
  0
VERTEX
  5
1DF
  8
0
 10
266.00743157880692
 20
72.385720857943625
 30
0.0
 42
0.0791492949424758
 70
     2
 50
105.2492903454317
  0
VERTEX
  5
1E0
  8
0
 10
265.53740045850429
 20
73.426711672408743
 30
0.0
 42
0.2981095803822486
 50
105.2492903454317
  0
VERTEX
  5
1E1
  8
0
 10
265.23635147398699
 20
73.557293733195735
 30
0.0
 42
0.2523368794426621
  0
SEQEND
  5
1E2
  8
0
  0
POLYLINE
  5
1E3
  8
0
 66
     1
 10
0.0
 20
0.0
 30
0.0
  0
VERTEX
  5
1E4
  8
0
 10
265.23635147398699
 20
65.55729373319744
 30
0.0
 42
0.252336879442641
  0
VERTEX
  5
1E5
  8
0
 10
265.55630645007449
 20
65.729747412082872
 30
0.0
 42
0.0791492949424622
  0
VERTEX
  5
1E6
  8
0
 10
266.00743157880692
 20
66.728866608451256
 30
0.0
 42
0.0384450717154679
 70
     2
 50
74.750709654568283
  0
VERTEX
  5
1E7
  8
0
 10
266.23426937108201
 20
67.912829352145536
 30
0.0
 42
0.0281188410792376
 50
74.750709654568283
  0
VERTEX
  5
1E8
  8
0
 10
266.3268234158993
 20
69.55729373319744
 30
0.0
 42
0.0281188410792386
  0
SEQEND
  5
1E9
  8
0
  0
POLYLINE
  5
1EA
  8
0
 66
     1
 10
0.0
 20
0.0
 30
0.0
  0
VERTEX
  5
1EB
  8
0
 10
260.73815471359882
 20
73.55729373319744
 30
0.0
 42
0.2523368794426704
  0
VERTEX
  5
1EC
  8
0
 10
260.41819973751137
 20
73.384840054312022
 30
0.0
 42
0.0791492949424901
  0
VERTEX
  5
1ED
  8
0
 10
259.96707460877889
 20
72.385720857943625
 30
0.0
 42
0.0384450717154613
 70
     2
 50
254.75070965456899
  0
VERTEX
  5
1EE
  8
0
 10
259.7070097020441
 20
71.02833169704536
 30
0.0
 42
0.0360844494833482
 50
254.75070965456899
  0
VERTEX
  5
1EF
  8
0
 10
259.6476827716865
 20
69.557293733197426
 30
0.0
 42
0.028118841079251
  0
VERTEX
  5
1F0
  8
0
 10
259.74023681650391
 20
67.912829352145536
 30
0.0
 42
0.0384450717154763
  0
VERTEX
  5
1F1
  8
0
 10
259.967074608779
 20
66.728866608451241
 30
0.0
 42
0.0791492949424944
 70
     2
 50
285.2492903454326
  0
VERTEX
  5
1F2
  8
0
 10
260.41819973751149
 20
65.729747412082816
 30
0.0
 42
0.2523368794426629
 50
285.2492903454326
  0
VERTEX
  5
1F3
  8
0
 10
260.73815471359887
 20
65.55729373319744
 30
0.0
 42
0.2523368794426886
  0
SEQEND
  5
1F4
  8
0
  0
LINE
  5
1F5
  8
1
 10
80.127002309959167
 20
161.05273626331089
 30
0.0
 11
64.339040558705179
 21
102.1312608596769
 31
0.0
  0
LINE
  5
1F6
  8
5
 10
71.644496407670445
 20
144.8594038267093
 30
0.0
 11
63.028852527513621
 21
110.76453412784841
 31
0.0
  0
LINE
  5
1F7
  8
5
 10
63.028852527513621
 20
110.76453412784841
 30
0.0
 11
69.790333311537111
 21
108.9528008121308
 31
0.0
  0
LINE
  5
1F8
  8
5
 10
69.790333311537111
 20
108.9528008121308
 30
0.0
 11
79.33196280326986
 21
142.63079520969691
 31
0.0
  0
ARC
  5
1F9
  8
5
 10
66.280183396974124
 20
109.37570455684499
 30
0.0
 40
2.4999999999999711
 50
165.0
 51
345.0
  0
LINE
  5
1FA
  8
5
 10
68.694997962696803
 20
108.7286569440887
 30
0.0
 11
68.824407485248074
 21
109.2116198572333
 31
0.0
  0
LINE
  5
1FB
  8
5
 10
63.865368831251452
 20
110.0227521696013
 30
0.0
 11
63.994778353802737
 21
110.50571508274589
 31
0.0
  0
LINE
  5
1FC
  8
5
 10
76.917148237547181
 20
143.27784282245321
 30
0.0
 11
79.33196280326986
 21
142.63079520969691
 31
0.0
  0
LINE
  5
1FD
  8
5
 10
77.340926231418351
 20
144.85940382670921
 30
0.0
 11
76.917148237547352
 21
143.27784282245301
 31
0.0
  0
TEXT
  5
325
  8
0
 62
     3
 10
0.0
 20
0.0
 30
0.0
 40
10.0
  1
SLG-1448
  7
STANDARD1
  0
ENDSEC
  0
EOF
