  0
SECTION
  2
HEADER
  9
$ACADVER
  1
AC1009
  9
$INSBASE
 10
0.0
 20
0.0
 30
0.0
  9
$EXTMIN
 10
0.0
 20
-2.960436562073669
 30
0.0
  9
$EXTMAX
 10
706.22623061310242
 20
529.73021582733816
 30
0.0
  9
$LIMMIN
 10
0.0
 20
0.0
  9
$LIMMAX
 10
750.0
 20
540.0
  9
$ORTHOMODE
 70
     1
  9
$REGENMODE
 70
     1
  9
$FILLMODE
 70
     1
  9
$QTEXTMODE
 70
     0
  9
$MIRRTEXT
 70
     0
  9
$DRAGMODE
 70
     2
  9
$LTSCALE
 40
20.0
  9
$OSMODE
 70
    55
  9
$ATTMODE
 70
     1
  9
$TEXTSIZE
 40
0.2
  9
$TRACEWID
 40
0.05
  9
$TEXTSTYLE
  7
K50
  9
$CLAYER
  8
0
  9
$CELTYPE
  6
BYLAYER
  9
$CECOLOR
 62
   256
  9
$DIMSCALE
 40
2.0
  9
$DIMASZ
 40
3.0
  9
$DIMEXO
 40
2.0
  9
$DIMDLI
 40
0.38
  9
$DIMRND
 40
0.0
  9
$DIMDLE
 40
0.0
  9
$DIMEXE
 40
2.0
  9
$DIMTP
 40
0.0
  9
$DIMTM
 40
0.0
  9
$DIMTXT
 40
3.2000000000000002
  9
$DIMCEN
 40
0.0
  9
$DIMTSZ
 40
0.0
  9
$DIMTOL
 70
     0
  9
$DIMLIM
 70
     0
  9
$DIMTIH
 70
     0
  9
$DIMTOH
 70
     0
  9
$DIMSE1
 70
     0
  9
$DIMSE2
 70
     0
  9
$DIMTAD
 70
     1
  9
$DIMZIN
 70
     0
  9
$DIMBLK
  1

  9
$DIMASO
 70
     1
  9
$DIMSHO
 70
     0
  9
$DIMPOST
  1

  9
$DIMAPOST
  1

  9
$DIMALT
 70
     0
  9
$DIMALTD
 70
     2
  9
$DIMALTF
 40
25.399999999999999
  9
$DIMLFAC
 40
1.0
  9
$DIMTOFL
 70
     0
  9
$DIMTVP
 40
1.6000000000000001
  9
$DIMTIX
 70
     1
  9
$DIMSOXD
 70
     0
  9
$DIMSAH
 70
     0
  9
$DIMBLK1
  1

  9
$DIMBLK2
  1

  9
$DIMSTYLE
  2
STANDARD
  9
$DIMCLRD
 70
     0
  9
$DIMCLRE
 70
     0
  9
$DIMCLRT
 70
     0
  9
$DIMTFAC
 40
1.0
  9
$DIMGAP
 40
0.09
  9
$LUNITS
 70
     2
  9
$LUPREC
 70
     4
  9
$SKETCHINC
 40
0.1
  9
$FILLETRAD
 40
0.0
  9
$AUNITS
 70
     0
  9
$AUPREC
 70
     0
  9
$MENU
  1
E:\r13\win\SUPPORT\ACAD
  9
$ELEVATION
 40
0.0
  9
$PELEVATION
 40
0.0
  9
$THICKNESS
 40
0.0
  9
$LIMCHECK
 70
     0
  9
$BLIPMODE
 70
     0
  9
$CHAMFERA
 40
0.0
  9
$CHAMFERB
 40
0.0
  9
$SKPOLY
 70
     0
  9
$TDCREATE
 40
2449840.5985995368
  9
$TDUPDATE
 40
2456598.5448955209
  9
$TDINDWG
 40
0.0002826273
  9
$TDUSRTIMER
 40
0.0002826273
  9
$USRTIMER
 70
     1
  9
$ANGBASE
 50
0.0
  9
$ANGDIR
 70
     0
  9
$PDMODE
 70
     0
  9
$PDSIZE
 40
0.0
  9
$PLINEWID
 40
0.0
  9
$COORDS
 70
     1
  9
$SPLFRAME
 70
     0
  9
$SPLINETYPE
 70
     6
  9
$SPLINESEGS
 70
     8
  9
$ATTDIA
 70
     0
  9
$ATTREQ
 70
     1
  9
$HANDLING
 70
     1
  9
$HANDSEED
  5
3C2
  9
$SURFTAB1
 70
     6
  9
$SURFTAB2
 70
     6
  9
$SURFTYPE
 70
     6
  9
$SURFU
 70
     6
  9
$SURFV
 70
     6
  9
$UCSNAME
  2

  9
$UCSORG
 10
0.0
 20
0.0
 30
0.0
  9
$UCSXDIR
 10
1.0
 20
0.0
 30
0.0
  9
$UCSYDIR
 10
0.0
 20
1.0
 30
0.0
  9
$PUCSNAME
  2

  9
$PUCSORG
 10
0.0
 20
0.0
 30
0.0
  9
$PUCSXDIR
 10
1.0
 20
0.0
 30
0.0
  9
$PUCSYDIR
 10
0.0
 20
1.0
 30
0.0
  9
$USERI1
 70
     0
  9
$USERI2
 70
     1
  9
$USERI3
 70
     1
  9
$USERI4
 70
     0
  9
$USERI5
 70
     0
  9
$USERR1
 40
0.0
  9
$USERR2
 40
0.0
  9
$USERR3
 40
0.0
  9
$USERR4
 40
0.0
  9
$USERR5
 40
0.0
  9
$WORLDVIEW
 70
     1
  9
$SHADEDGE
 70
     3
  9
$SHADEDIF
 70
    70
  9
$TILEMODE
 70
     1
  9
$MAXACTVP
 70
    16
  9
$PLIMCHECK
 70
     0
  9
$PEXTMIN
 10
1.0000000000000000E+020
 20
1.0000000000000000E+020
 30
1.0000000000000000E+020
  9
$PEXTMAX
 10
-1.0000000000000000E+020
 20
-1.0000000000000000E+020
 30
-1.0000000000000000E+020
  9
$PLIMMIN
 10
0.0
 20
0.0
  9
$PLIMMAX
 10
12.0
 20
9.0
  9
$UNITMODE
 70
     0
  9
$VISRETAIN
 70
     0
  9
$PLINEGEN
 70
     0
  9
$PSLTSCALE
 70
     0
  0
ENDSEC
  0
SECTION
  2
TABLES
  0
TABLE
  2
VPORT
 70
     1
  0
VPORT
  2
*ACTIVE
 70
     0
 10
0.0
 20
0.0
 11
1.0
 21
1.0
 12
374.98855678130462
 22
350.86677766270412
 13
0.0
 23
0.0
 14
20.0
 24
20.0
 15
20.0
 25
20.0
 16
0.0
 26
0.0
 36
1.0
 17
0.0
 27
0.0
 37
0.0
 40
713.9403104474975
 41
1.7807262569832401
 42
50.0
 43
0.0
 44
0.0
 50
0.0
 51
0.0
 71
     0
 72
   500
 73
     1
 74
     0
 75
     0
 76
     0
 77
     0
 78
     2
  0
ENDTAB
  0
TABLE
  2
LTYPE
 70
     4
  0
LTYPE
  2
CONTINUOUS
 70
     0
  3
Solid Line
 72
    65
 73
     0
 40
0.0
  0
LTYPE
  2
CENTER
 70
     0
  3
____ _ ____ _ ____ _ ____ _ ____ _ ____ _ ____
 72
    65
 73
     4
 40
2.0
 49
1.25
 49
-0.25
 49
0.25
 49
-0.25
  0
LTYPE
  2
HIDDEN
 70
     0
  3
_ _ _ _ _ _ _ _ _ _ _ _ _ _ _ _ _ _ _ _ _ _ _
 72
    65
 73
     2
 40
0.375
 49
0.25
 49
-0.125
  0
LTYPE
  2
PHANTOM2
 70
     0
  3
___ _ _ ___ _ _ ___ _ _ ___ _ _
 72
    65
 73
     6
 40
1.25
 49
0.625
 49
-0.125
 49
0.125
 49
-0.125
 49
0.125
 49
-0.125
  0
ENDTAB
  0
TABLE
  2
LAYER
 70
     4
  0
LAYER
  2
0
 70
     0
 62
     7
  6
CONTINUOUS
  0
LAYER
  2
1
 70
     0
 62
     1
  6
CENTER
  0
LAYER
  2
2
 70
     0
 62
     2
  6
HIDDEN
  0
LAYER
  2
3
 70
     0
 62
     3
  6
CONTINUOUS
  0
ENDTAB
  0
TABLE
  2
STYLE
 70
     4
  0
STYLE
  2
STANDARD
 70
     0
 40
0.0
 41
1.0
 50
0.0
 71
     0
 42
0.2
  3
romans.shx
  4

  0
STYLE
  2
K80
 70
     0
 40
0.0
 41
1.0
 50
0.0
 71
     0
 42
0.2
  3
romans.shx
  4

  0
STYLE
  2
K50
 70
     0
 40
0.0
 41
1.0
 50
0.0
 71
     0
 42
0.2
  3
romans.shx
  4

  0
STYLE
  2
STANDARD1
 70
     0
 40
0.0
 41
1.0
 50
0.0
 71
     0
 42
3.0
  3
txt
  4

  0
ENDTAB
  0
TABLE
  2
VIEW
 70
     1
  0
VIEW
  2
ALL
 70
     0
 40
540.0
 10
441.98319327731087
 20
270.0
 41
0.0
 11
0.0
 21
0.0
 31
1.0
 12
0.0
 22
0.0
 32
0.0
 42
0.0
 43
0.0
 44
0.0
 50
0.0
 71
     0
  0
ENDTAB
  0
TABLE
  2
UCS
 70
     0
  0
ENDTAB
  0
TABLE
  2
APPID
 70
     3
  0
APPID
  2
ACAD
 70
     0
  0
APPID
  2
ACAD_MLEADERVER
 70
     0
  0
APPID
  2
ACAD_NAV_VCDISPLAY
 70
     0
  0
ENDTAB
  0
TABLE
  2
DIMSTYLE
 70
     1
  0
DIMSTYLE
  2
STANDARD
 70
     0
  3

  4

  5

  6

  7

 40
1.0
 41
0.18
 42
0.0625
 43
0.38
 44
0.18
 45
0.0
 46
0.0
 47
0.0
 48
0.0
140
0.18
141
0.09
142
0.0
143
25.399999999999999
144
1.0
145
0.0
146
1.0
147
0.09
 71
     0
 72
     0
 73
     1
 74
     1
 75
     0
 76
     0
 77
     0
 78
     0
170
     0
171
     2
172
     0
173
     0
174
     0
175
     0
176
     0
177
     0
178
     0
  0
ENDTAB
  0
ENDSEC
  0
SECTION
  2
BLOCKS
  0
BLOCK
  8
0
  2
$MODEL_SPACE
 70
     0
 10
0.0
 20
0.0
 30
0.0
  3
$MODEL_SPACE
  1

  0
ENDBLK
  5
22C
  8
0
  0
BLOCK
 67
     1
  8
0
  2
$PAPER_SPACE
 70
     0
 10
0.0
 20
0.0
 30
0.0
  3
$PAPER_SPACE
  1

  0
ENDBLK
  5
22A
 67
     1
  8
0
  0
ENDSEC
  0
SECTION
  2
ENTITIES
  0
LINE
  5
37
  8
1
 10
374.35401181640981
 20
269.73021582733821
 30
0.0
 11
446.35401181640879
 21
269.73021582733821
 31
0.0
  0
LINE
  5
38
  8
0
 10
384.35401181640952
 20
191.2302158273381
 30
0.0
 11
384.35401181640952
 21
348.23021582733821
 31
0.0
  0
LINE
  5
39
  8
0
 10
385.85401181640952
 20
349.7302158273381
 30
0.0
 11
400.85401181640941
 21
349.7302158273381
 31
0.0
  0
LINE
  5
3A
  8
0
 10
402.35401181640952
 20
191.2302158273381
 30
0.0
 11
402.35401181640952
 21
348.23021582733821
 31
0.0
  0
LINE
  5
3B
  8
0
 10
385.85401181640952
 20
349.7302158273381
 30
0.0
 11
384.35401181640952
 21
348.23021582733821
 31
0.0
  0
LINE
  5
3C
  8
0
 10
400.85401181640941
 20
349.7302158273381
 30
0.0
 11
402.35401181640952
 21
348.23021582733821
 31
0.0
  0
LINE
  5
3D
  8
0
 10
400.85401181640941
 20
189.7302158273381
 30
0.0
 11
402.35401181640952
 21
191.2302158273381
 31
0.0
  0
LINE
  5
3E
  8
0
 10
385.85401181640952
 20
189.7302158273381
 30
0.0
 11
384.35401181640952
 21
191.2302158273381
 31
0.0
  0
LINE
  5
3F
  8
0
 10
385.85401181640952
 20
189.7302158273381
 30
0.0
 11
400.85401181640941
 21
189.7302158273381
 31
0.0
  0
LINE
  5
40
  8
1
 10
289.35401181640981
 20
338.7302158273381
 30
0.0
 11
403.35401181640913
 21
338.7302158273381
 31
0.0
  0
LINE
  5
41
  8
1
 10
39.999999999999993
 20
269.73021582733821
 30
0.0
 11
220.00000000000051
 21
269.73021582733821
 31
0.0
  0
LINE
  5
42
  8
1
 10
130.0000000000002
 20
359.73021582733833
 30
0.0
 11
130.0000000000002
 21
179.7302158273379
 31
0.0
  0
CIRCLE
  5
43
  8
0
 10
130.0000000000002
 20
269.7302158273381
 30
0.0
 40
31.999999999999972
  0
LINE
  5
44
  8
1
 10
108.9999999999998
 20
338.7302158273381
 30
0.0
 11
151.0000000000006
 21
338.7302158273381
 31
0.0
  0
CIRCLE
  5
45
  8
0
 10
130.0000000000002
 20
338.7302158273381
 30
0.0
 40
11.0
  0
CIRCLE
  5
46
  8
0
 10
130.0000000000002
 20
269.73021582733821
 30
0.0
 40
58.000000000000043
  0
ARC
  5
47
  8
0
 10
130.0000000000002
 20
269.73021582733821
 30
0.0
 40
60.000000000000043
 50
95.63413759944342
 51
84.365862400556566
  0
ARC
  5
48
  8
0
 10
130.0000000000002
 20
269.73021582733821
 30
0.0
 40
78.499999999999957
 50
94.318059305185727
 51
85.681940694814259
  0
CIRCLE
  5
49
  8
0
 10
130.0000000000002
 20
269.73021582733821
 30
0.0
 40
79.999999999999986
  0
LINE
  5
4A
  8
0
 10
350.35401181640918
 20
327.7302158273381
 30
0.0
 11
350.35401181640918
 21
349.7302158273381
 31
0.0
  0
LINE
  5
4B
  8
3
 10
376.85401181640952
 20
344.2074414023898
 30
0.0
 11
384.35401181640952
 21
333.25299025228639
 31
0.0
  0
LINE
  5
4C
  8
3
 10
376.85401181640952
 20
333.25299025228639
 30
0.0
 11
384.35401181640952
 21
344.2074414023898
 31
0.0
  0
LINE
  5
4D
  8
0
 10
376.85401181640952
 20
333.25299025228639
 30
0.0
 11
376.85401181640952
 21
344.2074414023898
 31
0.0
  0
ARC
  5
4E
  8
0
 10
372.35401181640952
 20
330.64861785224889
 30
0.0
 40
2.0
 50
272.38594403038911
 51
0.0
  0
ARC
  5
4F
  8
0
 10
372.35401181640952
 20
346.81181380242742
 30
0.0
 40
2.0
 50
0.0000000000000509
 51
87.614055969611087
  0
LINE
  5
50
  8
0
 10
374.35401181640952
 20
330.64861785224889
 30
0.0
 11
374.35401181640952
 21
346.81181380242742
 31
0.0
  0
LINE
  5
51
  8
0
 10
383.85401181640952
 20
330.2302158273381
 30
0.0
 11
383.85401181640952
 21
333.25299025228639
 31
0.0
  0
LINE
  5
52
  8
0
 10
383.85401181640952
 20
330.2302158273381
 30
0.0
 11
374.85401181640952
 21
330.2302158273381
 31
0.0
  0
LINE
  5
53
  8
0
 10
383.85401181640952
 20
347.2302158273381
 30
0.0
 11
374.85401181640952
 21
347.2302158273381
 31
0.0
  0
LINE
  5
54
  8
0
 10
384.35401181640952
 20
330.7302158273381
 30
0.0
 11
383.85401181640952
 21
330.2302158273381
 31
0.0
  0
LINE
  5
55
  8
0
 10
374.85401181640952
 20
330.2302158273381
 30
0.0
 11
374.35401181640952
 21
330.7302158273381
 31
0.0
  0
LINE
  5
56
  8
0
 10
374.85401181640952
 20
347.2302158273381
 30
0.0
 11
374.35401181640952
 21
346.7302158273381
 31
0.0
  0
LINE
  5
57
  8
0
 10
383.85401181640952
 20
347.2302158273381
 30
0.0
 11
384.35401181640952
 21
346.7302158273381
 31
0.0
  0
LINE
  5
58
  8
0
 10
304.04112465039037
 20
327.7302158273381
 30
0.0
 11
350.35401181640918
 21
327.7302158273381
 31
0.0
  0
LINE
  5
59
  8
0
 10
304.04112465039032
 20
349.73021582733799
 30
0.0
 11
350.3540118164097
 21
349.7302158273381
 31
0.0
  0
LINE
  5
5A
  8
0
 10
384.35401181640952
 20
333.25299025228639
 30
0.0
 11
376.85401181640952
 21
333.25299025228639
 31
0.0
  0
LINE
  5
5B
  8
0
 10
384.35401181640952
 20
344.2074414023898
 30
0.0
 11
376.85401181640952
 21
344.2074414023898
 31
0.0
  0
LINE
  5
5C
  8
0
 10
383.85401181640952
 20
347.2302158273381
 30
0.0
 11
383.85401181640952
 21
344.2074414023898
 31
0.0
  0
LINE
  5
5D
  8
0
 10
374.85401181640952
 20
347.2302158273381
 30
0.0
 11
374.85401181640952
 21
330.2302158273381
 31
0.0
  0
ARC
  5
5E
  8
0
 10
339.35401181640952
 20
338.7302158273381
 30
0.0
 40
40.000000000000021
 50
168.7877285823503
 51
191.2122714176497
  0
LINE
  5
5F
  8
0
 10
372.43727290583382
 20
328.65035170606421
 30
0.0
 11
350.35401181640918
 21
327.7302158273381
 31
0.0
  0
LINE
  5
60
  8
0
 10
350.3540118164097
 20
349.7302158273381
 30
0.0
 11
372.43727290583382
 21
348.8100799486121
 31
0.0
  0
ARC
  5
61
  8
0
 10
304.04112465039037
 20
331.7302158273381
 30
0.0
 40
4.0
 50
191.2122714176493
 51
270.0
  0
ARC
  5
62
  8
0
 10
304.04112465039032
 20
345.7302158273381
 30
0.0
 40
4.0
 50
90.0
 51
168.78772858235021
  0
CIRCLE
  5
63
  8
3
 10
616.22623061310208
 20
338.7302158273381
 30
0.0
 40
5.0
  0
CIRCLE
  5
64
  8
2
 10
616.22623061310208
 20
338.7302158273381
 30
0.0
 40
5.9999999999999432
  0
CIRCLE
  5
65
  8
0
 10
616.22623061310208
 20
338.7302158273381
 30
0.0
 40
4.1879999999999988
  0
LINE
  5
66
  8
1
 10
596.22623061310208
 20
338.7302158273381
 30
0.0
 11
636.22623061310185
 21
338.7302158273381
 31
0.0
  0
CIRCLE
  5
67
  8
0
 10
616.22623061310208
 20
269.7302158273381
 30
0.0
 40
79.999999999999943
  0
CIRCLE
  5
68
  8
0
 10
616.22623061310208
 20
269.7302158273381
 30
0.0
 40
78.499999999999929
  0
ARC
  5
69
  8
0
 10
616.22623061310208
 20
269.7302158273381
 30
0.0
 40
77.000000000000014
 50
272.61690673570467
 51
285.3830885756384
  0
ARC
  5
6A
  8
0
 10
616.22623061310208
 20
269.7302158273381
 30
0.0
 40
62.499999999999972
 50
98.357067337179771
 51
81.642932662820215
  0
CIRCLE
  5
6B
  8
0
 10
616.22623061310208
 20
269.7302158273381
 30
0.0
 40
21.50000000000006
  0
CIRCLE
  5
6C
  8
0
 10
616.22623061310208
 20
269.7302158273381
 30
0.0
 40
17.0
  0
CIRCLE
  5
6D
  8
0
 10
616.22623061310208
 20
269.7302158273381
 30
0.0
 40
15.99999999999997
  0
LINE
  5
6E
  8
1
 10
616.22623061310208
 20
359.73021582733833
 30
0.0
 11
616.22623061310208
 21
179.7302158273379
 31
0.0
  0
LINE
  5
6F
  8
1
 10
526.22623061310185
 20
269.7302158273381
 30
0.0
 11
706.22623061310242
 21
269.7302158273381
 31
0.0
  0
CIRCLE
  5
70
  8
0
 10
616.22623061310208
 20
338.73021582733821
 30
0.0
 40
5.5
  0
ARC
  5
71
  8
0
 10
616.22623061310208
 20
338.73021582733821
 30
0.0
 40
10.00000000000005
 50
143.91868657863989
 51
36.081313421359908
  0
ARC
  5
72
  8
0
 10
625.11623264380285
 20
345.20847669690329
 30
0.0
 40
1.0
 50
83.282521197999174
 51
216.08131342135951
  0
ARC
  5
73
  8
0
 10
607.33622858240153
 20
345.20847669690329
 30
0.0
 40
1.0
 50
323.91868657863978
 51
96.717478802001224
  0
LINE
  5
74
  8
0
 10
614.97623061310208
 20
291.19384785922011
 30
0.0
 11
614.97623061310208
 21
326.44455345203261
 31
0.0
  0
LINE
  5
75
  8
0
 10
617.47623061310219
 20
291.19384785921937
 30
0.0
 11
617.47623061310219
 21
326.444553452035
 31
0.0
  0
ARC
  5
76
  8
0
 10
572.91594026542612
 20
313.04050617501417
 30
0.0
 40
1.250000000000008
 50
44.999752720739977
 51
225.00024727926001
  0
LINE
  5
77
  8
0
 10
600.16526737798245
 20
284.02341210949152
 30
0.0
 11
572.03206060364016
 21
312.15661888383369
 31
0.0
  0
LINE
  5
78
  8
0
 10
601.93303433094934
 20
285.79117906245739
 30
0.0
 11
573.7998275566066
 21
313.92438583680013
 31
0.0
  0
ARC
  5
79
  8
0
 10
554.97623061310219
 20
269.73021582733799
 30
0.0
 40
1.250000000000008
 50
89.999752720739991
 51
270.00024727926001
  0
LINE
  5
7A
  8
0
 10
594.76259858122023
 20
268.4802158273381
 30
0.0
 11
554.97623600789871
 21
268.4802158273381
 31
0.0
  0
LINE
  5
7B
  8
0
 10
594.76259858122091
 20
270.9802158273381
 30
0.0
 11
554.97623600789871
 21
270.9802158273381
 31
0.0
  0
ARC
  5
7C
  8
0
 10
572.91594026542612
 20
226.41992547966211
 30
0.0
 40
1.250000000000008
 50
134.99975272073999
 51
315.00024727926001
  0
LINE
  5
7D
  8
0
 10
601.93303433094889
 20
253.66925259221841
 30
0.0
 11
573.79982755660649
 21
225.5360458178761
 31
0.0
  0
LINE
  5
7E
  8
0
 10
600.1652673779829
 20
255.43701954518519
 30
0.0
 11
572.03206060364005
 21
227.30381277084251
 31
0.0
  0
ARC
  5
7F
  8
0
 10
616.22623061310208
 20
208.4802158273381
 30
0.0
 40
1.250000000000008
 50
179.99975272073999
 51
0.0002472792600133
  0
LINE
  5
80
  8
0
 10
617.47623061310219
 20
248.2665837954562
 30
0.0
 11
617.47623061310219
 21
208.4802212221347
 31
0.0
  0
LINE
  5
81
  8
0
 10
614.97623061310208
 20
248.2665837954568
 30
0.0
 11
614.97623061310208
 21
208.4802212221347
 31
0.0
  0
ARC
  5
82
  8
0
 10
659.53652096077815
 20
226.419925479662
 30
0.0
 40
1.250000000000008
 50
224.99975272073999
 51
45.000247279260009
  0
LINE
  5
83
  8
0
 10
632.28719384822193
 20
255.4370195451848
 30
0.0
 11
660.4204006225641
 21
227.3038127708424
 31
0.0
  0
LINE
  5
84
  8
0
 10
630.51942689525504
 20
253.66925259221881
 30
0.0
 11
658.65263366959766
 21
225.5360458178761
 31
0.0
  0
ARC
  5
85
  8
0
 10
677.47623061310208
 20
269.73021582733821
 30
0.0
 40
1.250000000000008
 50
269.99975272073999
 51
90.000247279260009
  0
LINE
  5
86
  8
0
 10
637.68986264498415
 20
270.9802158273381
 30
0.0
 11
677.47622521830556
 21
270.9802158273381
 31
0.0
  0
LINE
  5
87
  8
0
 10
637.68986264498335
 20
268.4802158273381
 30
0.0
 11
677.47622521830556
 21
268.4802158273381
 31
0.0
  0
ARC
  5
88
  8
0
 10
659.53652096077815
 20
313.04050617501417
 30
0.0
 40
1.250000000000008
 50
314.99975272073999
 51
135.00024727926001
  0
LINE
  5
89
  8
0
 10
630.51942689525538
 20
285.79117906245779
 30
0.0
 11
658.65263366959778
 21
313.92438583680013
 31
0.0
  0
LINE
  5
8A
  8
0
 10
632.28719384822136
 20
284.02341210949089
 30
0.0
 11
660.42040062256422
 21
312.15661888383369
 31
0.0
  0
LINE
  5
8B
  8
0
 10
636.78644004912326
 20
316.40223943835088
 30
0.0
 11
624.02962231356605
 21
329.15905717390802
 31
0.0
  0
LINE
  5
8C
  8
0
 10
640.22623061310185
 20
316.4979827589338
 30
0.0
 11
625.7973892665359
 21
330.926824126871
 31
0.0
  0
ARC
  5
8D
  8
0
 10
621.90830197000651
 20
327.03773683034831
 30
0.0
 40
3.0
 50
45.0
 51
115.9178751963976
  0
ARC
  5
8E
  8
0
 10
627.91870961009545
 20
333.04814447043071
 30
0.0
 40
3.0
 50
154.0821248035798
 51
225.00000000000071
  0
ARC
  5
8F
  8
0
 10
620.47623061310219
 20
326.444553452035
 30
0.0
 40
3.0
 50
109.08212480360611
 51
180.0
  0
ARC
  5
90
  8
0
 10
611.97623061310219
 20
326.44455345203261
 30
0.0
 40
3.0
 50
0.0
 51
70.917875196397091
  0
ARC
  5
91
  8
0
 10
610.54415925619776
 20
327.03773683034831
 30
0.0
 40
3.0
 50
64.082124803602369
 51
135.0
  0
ARC
  5
92
  8
0
 10
604.53375161610893
 20
333.04814447043071
 30
0.0
 40
3.0
 50
314.99999999999932
 51
25.917875196420201
  0
ARC
  5
93
  8
0
 10
616.22623061310208
 20
192.2302158273381
 30
0.0
 40
2.0
 50
53.417100786498253
 51
126.5828992135017
  0
ARC
  5
94
  8
0
 10
612.05433396479918
 20
197.8511835692735
 30
0.0
 40
5.0
 50
266.67824962405069
 51
306.58289921350263
  0
ARC
  5
95
  8
0
 10
620.39812726140508
 20
197.8511835692735
 30
0.0
 40
5.0
 50
233.4171007864974
 51
273.32175037594931
  0
LINE
  5
96
  8
0
 10
627.54822091627352
 20
239.7833873546119
 30
0.0
 11
629.39597998129648
 21
240.54875421934219
 31
0.0
  0
LINE
  5
97
  8
0
 10
627.16553748390845
 20
240.70726688712321
 30
0.0
 11
629.01329654893129
 21
241.47263375185361
 31
0.0
  0
LINE
  5
98
  8
0
 10
628.2479287305265
 20
243.32039511924941
 30
0.0
 11
629.39597998129591
 21
240.5487542193421
 31
0.0
  0
LINE
  5
99
  8
0
 10
626.40016966550377
 20
242.5550282545193
 30
0.0
 11
627.54822091627352
 21
239.7833873546119
 31
0.0
  0
ARC
  5
9A
  8
0
 10
627.32405015168945
 20
242.9377093845109
 30
0.0
 40
0.999999999999996
 50
22.50014278515572
 51
202.49985721484339
  0
ARC
  5
9B
  8
0
 10
633.88031205435504
 20
292.73746269578368
 30
0.0
 40
0.999999999999996
 50
142.5001427851557
 51
322.49985721484342
  0
LINE
  5
9C
  8
0
 10
634.67366387756965
 20
292.128699289682
 30
0.0
 11
636.49994968167255
 21
294.50876128764872
 31
0.0
  0
LINE
  5
9D
  8
0
 10
633.08695719698721
 20
293.34622214769951
 30
0.0
 11
634.91324300109022
 21
295.726284145666
 31
0.0
  0
LINE
  5
9E
  8
0
 10
635.89118825266382
 20
293.71540794735739
 30
0.0
 11
634.30448157208104
 21
294.93293080537512
 31
0.0
  0
LINE
  5
9F
  8
0
 10
636.49994968167255
 20
294.50876128764872
 30
0.0
 11
634.91324300108965
 21
295.7262841456664
 31
0.0
  0
ARC
  5
A0
  8
0
 10
587.47432963326185
 20
273.51547540171981
 30
0.0
 40
0.999999999999996
 50
262.50014278515567
 51
82.499857214843345
  0
LINE
  5
A1
  8
0
 10
587.60485829623303
 20
274.506919937813
 30
0.0
 11
584.6305212413605
 21
274.89849883975381
 31
0.0
  0
LINE
  5
A2
  8
0
 10
587.34380591179286
 20
272.52403021506552
 30
0.0
 11
584.36946885692043
 21
272.91560911700623
 31
0.0
  0
LINE
  5
A3
  8
0
 10
585.6219661027344
 20
274.76797264753372
 30
0.0
 11
585.36091371829411
 21
272.7850829247858
 31
0.0
  0
LINE
  5
A4
  8
0
 10
584.6305212413605
 20
274.89849883975381
 30
0.0
 11
584.36946885692032
 21
272.91560911700577
 31
0.0
  0
ARC
  5
A5
  8
0
 10
616.22623061310208
 20
269.7302158273381
 30
0.0
 40
41.999999999999943
 50
332.72724000000221
 51
335.90914000000151
  0
TEXT
  5
A6
  8
0
 10
650.98467016094753
 20
240.86583266207211
 30
0.0
 40
6.0
  1
S
 50
53.000000000000007
 41
0.8
  7
K80
 72
     1
 11
652.36024735672368
 21
242.6912852564659
 31
0.0
  0
TEXT
  5
A7
  8
0
 10
653.89187819483698
 20
244.69310427214691
 30
0.0
 40
6.0
  1
P
 50
60.000000000000028
 41
0.8
  7
K80
 72
     1
 11
655.14902105197996
 21
246.8705395730907
 31
0.0
  0
TEXT
  5
A8
  8
0
 10
657.37374358345357
 20
251.83606245521969
 30
0.0
 40
5.7999999999999989
  1
1
 50
69.000000000000028
 41
0.8
  7
K80
 72
     1
 11
658.04679272298063
 21
253.589415408603
 31
0.0
  0
TEXT
  5
A9
  8
0
 10
658.88419039531925
 20
256.06397764249232
 30
0.0
 40
5.7999999999999989
  1
6
 50
75.000000000000014
 41
0.8
  7
K80
 72
     1
 11
659.48465057995713
 21
258.30492555948291
 31
0.0
  0
TEXT
  5
AA
  8
0
 10
660.26146499517495
 20
260.99118920740858
 30
0.0
 40
5.7999999999999989
  1
0
 50
81.999999999999986
 41
0.8
  7
K80
 72
     1
 11
660.5689712753915
 21
263.17921008310429
 31
0.0
  0
POLYLINE
  5
AB
  8
0
 66
     1
 10
0.0
 20
0.0
 30
0.0
  0
VERTEX
  5
AC
  8
0
 10
617.47623061310219
 20
315.00206327515588
 30
0.0
 42
0.0297271237960244
  0
VERTEX
  5
AD
  8
0
 10
617.37026821535301
 20
316.78273938940993
 30
0.0
 42
0.0404863675280297
  0
VERTEX
  5
AE
  8
0
 10
617.11011408958541
 20
318.06742617441307
 30
0.0
 42
0.0820311832859567
 70
     2
 50
106.0846762761466
  0
VERTEX
  5
AF
  8
0
 10
616.59792658001493
 20
319.14300000155248
 30
0.0
 42
0.2454253719397617
 50
106.0846762761466
  0
VERTEX
  5
B0
  8
0
 10
616.22623061310208
 20
319.33714106088081
 30
0.0
 42
0.2454253719398586
  0
VERTEX
  5
B1
  8
0
 10
615.85453464618956
 20
319.14300000155242
 30
0.0
 42
0.0820311832859892
  0
VERTEX
  5
B2
  8
0
 10
615.34234713661897
 20
318.06742617441307
 30
0.0
 42
0.0404863675280638
 70
     2
 50
253.91532372385339
  0
VERTEX
  5
B3
  8
0
 10
615.08219301085126
 20
316.78273938940953
 30
0.0
 42
0.029727123796032
 50
253.91532372385339
  0
VERTEX
  5
B4
  8
0
 10
614.97623061310208
 20
315.00206327515588
 30
0.0
 42
0.0297271237960415
  0
SEQEND
  5
B5
  8
0
  0
ARC
  5
B6
  8
0
 10
616.22623061310208
 20
269.7302158273381
 30
0.0
 40
51.000000000000121
 50
61.927513064151128
 51
66.225292383438884
  0
ARC
  5
B7
  8
0
 10
639.34234713661886
 20
315.61409928245058
 30
0.0
 40
1.25
 50
315.00000000000011
 51
45.000000000000071
  0
ARC
  5
B8
  8
0
 10
593.11011408958541
 20
315.61409928245058
 30
0.0
 40
1.25
 50
134.99999999999989
 51
224.99999999999989
  0
ARC
  5
B9
  8
0
 10
616.22623061310208
 20
269.7302158273381
 30
0.0
 40
51.000000000000121
 50
113.7747076165611
 51
118.0724869358488
  0
LINE
  5
BA
  8
0
 10
592.22623061310242
 20
316.4979827589338
 30
0.0
 11
606.65507195966836
 21
330.926824126871
 31
0.0
  0
LINE
  5
BB
  8
0
 10
595.66602117708101
 20
316.40223943835088
 30
0.0
 11
608.42283891263833
 21
329.15905717390802
 31
0.0
  0
LINE
  5
BC
  8
0
 10
616.22623061310208
 20
191.2302158273381
 30
0.0
 11
615.58106461541445
 21
191.73970570629581
 31
0.0
  0
LINE
  5
BD
  8
0
 10
616.22623061310208
 20
191.2302158273381
 30
0.0
 11
616.87139661078993
 21
191.73970570629589
 31
0.0
  0
ARC
  5
BE
  8
0
 10
612.48228754133459
 20
187.8157305986841
 30
0.0
 40
5.0
 50
51.701724232789203
 51
87.38308857563824
  0
ARC
  5
BF
  8
0
 10
619.97017368486991
 20
187.81573059868421
 30
0.0
 40
5.0
 50
92.616911424361149
 51
128.29827576720999
  0
ARC
  5
C0
  8
0
 10
645.09990008927446
 20
192.98185290681221
 30
0.0
 40
5.0
 50
110.61691142436111
 51
146.29827576720999
  0
ARC
  5
C1
  8
0
 10
637.97849717918916
 20
190.667968836515
 30
0.0
 40
5.0
 50
69.701724232789203
 51
105.3830885756382
  0
LINE
  5
C2
  8
0
 10
640.48406467153552
 20
195.0722792981685
 30
0.0
 11
640.94021296666835
 21
195.7562002250161
 31
0.0
  0
LINE
  5
C3
  8
0
 10
640.48406467153552
 20
195.0722792981685
 30
0.0
 11
639.7130343142826
 21
195.35746571005939
 31
0.0
  0
ARC
  5
C4
  8
0
 10
642.40578261274743
 20
202.65838077641769
 30
0.0
 40
5.0
 50
251.41710078649751
 51
291.32175037594931
  0
ARC
  5
C5
  8
0
 10
634.47036362739073
 20
200.08000685021469
 30
0.0
 40
5.0
 50
284.67824962405069
 51
324.58289921350263
  0
ARC
  5
C6
  8
0
 10
640.17504767716059
 20
196.02333581446359
 30
0.0
 40
2.0
 50
71.417100786498253
 51
144.58289921350169
  0
ARC
  5
C7
  8
0
 10
616.22623061310208
 20
269.7302158273381
 30
0.0
 40
77.000000000000014
 50
290.61690673570467
 51
303.38308857563828
  0
ARC
  5
C8
  8
0
 10
667.403270550667
 20
205.6606397148891
 30
0.0
 40
5.0
 50
128.61691142436109
 51
164.29827576720999
  0
ARC
  5
C9
  8
0
 10
661.34544340860225
 20
201.2593706688738
 30
0.0
 40
5.0
 50
87.701724232789189
 51
123.3830885756382
  0
LINE
  5
CA
  8
0
 10
662.36737291806128
 20
206.22238176890471
 30
0.0
 11
662.58985253733988
 21
207.013786798165
 31
0.0
  0
LINE
  5
CB
  8
0
 10
662.36737291806128
 20
206.22238176890471
 30
0.0
 11
661.54595202469557
 21
206.25534868072231
 31
0.0
  0
ARC
  5
CC
  8
0
 10
661.85080101070025
 20
214.0310365152996
 30
0.0
 40
5.0
 50
269.41710078649737
 51
309.32175037594931
  0
ARC
  5
CD
  8
0
 10
655.1005304361945
 20
209.12667786737799
 30
0.0
 40
5.0
 50
302.67824962405081
 51
342.58289921350263
  0
ARC
  5
CE
  8
0
 10
661.77958766576864
 20
207.03139876327961
 30
0.0
 40
2.0
 50
89.417100786498239
 51
162.58289921350169
  0
ARC
  5
CF
  8
0
 10
616.22623061310208
 20
269.7302158273381
 30
0.0
 40
77.000000000000014
 50
308.61690673570467
 51
321.38308857563828
  0
ARC
  5
D0
  8
0
 10
684.69707577156646
 20
224.61100303183801
 30
0.0
 40
5.0
 50
146.61691142436109
 51
182.29827576720999
  0
ARC
  5
D1
  8
0
 10
680.2958067255513
 20
218.5531758897734
 30
0.0
 40
5.0
 50
105.7017242327892
 51
141.3830885756382
  0
LINE
  5
D2
  8
0
 10
679.73406467153563
 20
223.58907352237901
 30
0.0
 11
679.7010977597181
 21
224.41049441574481
 31
0.0
  0
LINE
  5
D3
  8
0
 10
679.73406467153563
 20
223.58907352237901
 30
0.0
 11
678.94265964227543
 21
223.36659390310049
 31
0.0
  0
ARC
  5
D4
  8
0
 10
676.82976857306221
 20
230.8559160042457
 30
0.0
 40
5.0
 50
287.41710078649737
 51
327.32175037594931
  0
ARC
  5
D5
  8
0
 10
671.92540992514046
 20
224.10564542973981
 30
0.0
 40
5.0
 50
320.67824962405069
 51
0.5828992135025465
  0
ARC
  5
D6
  8
0
 10
678.92504767716059
 20
224.1768587746713
 30
0.0
 40
2.0
 50
107.4171007864982
 51
180.58289921350169
  0
ARC
  5
D7
  8
0
 10
616.22623061310208
 20
269.7302158273381
 30
0.0
 40
77.000000000000014
 50
326.61690673570467
 51
339.38308857563828
  0
ARC
  5
D8
  8
0
 10
695.28847760392523
 20
247.9779492612511
 30
0.0
 40
5.0
 50
164.61691142436109
 51
200.29827576720999
  0
ARC
  5
D9
  8
0
 10
692.97459353362808
 20
240.8565463511656
 30
0.0
 40
5.0
 50
123.7017242327892
 51
159.3830885756382
  0
LINE
  5
DA
  8
0
 10
690.88416714227174
 20
245.47238176890471
 30
0.0
 11
690.59898073038084
 21
246.24341212615769
 31
0.0
  0
LINE
  5
DB
  8
0
 10
690.88416714227174
 20
245.47238176890471
 30
0.0
 11
690.20024621542404
 21
245.0162334737719
 31
0.0
  0
ARC
  5
DC
  8
0
 10
685.87643959022546
 20
251.48608281304939
 30
0.0
 40
5.0
 50
305.41710078649737
 51
345.32175037594931
  0
ARC
  5
DD
  8
0
 10
683.29806566402237
 20
243.5506638276926
 30
0.0
 40
5.0
 50
338.67824962405069
 51
18.58289921350255
  0
ARC
  5
DE
  8
0
 10
689.93311062597672
 20
245.78139876327961
 30
0.0
 40
2.0
 50
125.4171007864982
 51
198.58289921350169
  0
ARC
  5
DF
  8
0
 10
616.22623061310208
 20
269.7302158273381
 30
0.0
 40
77.000000000000014
 50
344.61690673570467
 51
357.38308857563828
  0
ARC
  5
E0
  8
0
 10
698.14071584175622
 20
273.47415889910582
 30
0.0
 40
5.0
 50
182.61691142436109
 51
218.29827576720999
  0
ARC
  5
E1
  8
0
 10
698.14071584175622
 20
265.9862727555705
 30
0.0
 40
5.0
 50
141.70172423278919
 51
177.3830885756382
  0
LINE
  5
E2
  8
0
 10
694.72623061310219
 20
269.7302158273381
 30
0.0
 11
694.21674073414442
 21
270.37538182502578
 31
0.0
  0
LINE
  5
E3
  8
0
 10
694.72623061310219
 20
269.7302158273381
 30
0.0
 11
694.21674073414442
 21
269.08504982965047
 31
0.0
  0
ARC
  5
E4
  8
0
 10
688.10526287116681
 20
273.90211247564088
 30
0.0
 40
5.0
 50
323.41710078649737
 51
3.3217503759492941
  0
ARC
  5
E5
  8
0
 10
688.10526287116681
 20
265.55831917903521
 30
0.0
 40
5.0
 50
356.67824962405081
 51
36.58289921350255
  0
ARC
  5
E6
  8
0
 10
693.72623061310219
 20
269.73021582733799
 30
0.0
 40
2.0
 50
143.4171007864982
 51
216.5828992135018
  0
ARC
  5
E7
  8
0
 10
616.22623061310208
 20
269.7302158273381
 30
0.0
 40
77.000000000000014
 50
2.6169067357046569
 51
15.38308857563832
  0
ARC
  5
E8
  8
0
 10
692.97459353362808
 20
298.60388530351042
 30
0.0
 40
5.0
 50
200.61691142436109
 51
236.29827576720999
  0
ARC
  5
E9
  8
0
 10
695.28847760392523
 20
291.48248239342507
 30
0.0
 40
5.0
 50
159.70172423278919
 51
195.3830885756382
  0
LINE
  5
EA
  8
0
 10
690.88416714227185
 20
293.98804988577137
 30
0.0
 11
690.20024621542404
 21
294.44419818090449
 31
0.0
  0
LINE
  5
EB
  8
0
 10
690.88416714227185
 20
293.98804988577137
 30
0.0
 11
690.59898073038107
 21
293.21701952851862
 31
0.0
  0
ARC
  5
EC
  8
0
 10
683.29806566402272
 20
295.90976782698328
 30
0.0
 40
5.0
 50
341.41710078649737
 51
21.321750375949289
  0
ARC
  5
ED
  8
0
 10
685.87643959022546
 20
287.97434884162658
 30
0.0
 40
5.0
 50
14.678249624050761
 51
54.582899213502543
  0
ARC
  5
EE
  8
0
 10
689.93311062597672
 20
293.67903289139639
 30
0.0
 40
2.0
 50
161.4171007864982
 51
234.5828992135018
  0
ARC
  5
EF
  8
0
 10
616.22623061310208
 20
269.7302158273381
 30
0.0
 40
77.000000000000014
 50
20.61690673570466
 51
33.383088575638318
  0
ARC
  5
F0
  8
0
 10
680.2958067255513
 20
320.90725576490291
 30
0.0
 40
5.0
 50
218.61691142436109
 51
254.29827576720999
  0
ARC
  5
F1
  8
0
 10
684.69707577156646
 20
314.84942862283822
 30
0.0
 40
5.0
 50
177.7017242327891
 51
213.38308857563831
  0
LINE
  5
F2
  8
0
 10
679.73406467153563
 20
315.87135813229719
 30
0.0
 11
678.94265964227532
 21
316.09383775157579
 31
0.0
  0
LINE
  5
F3
  8
0
 10
679.73406467153563
 20
315.87135813229719
 30
0.0
 11
679.7010977597181
 21
315.04993723893148
 31
0.0
  0
ARC
  5
F4
  8
0
 10
671.92540992514068
 20
315.35478622493628
 30
0.0
 40
5.0
 50
359.41710078649737
 51
39.321750375949293
  0
ARC
  5
F5
  8
0
 10
676.82976857306244
 20
308.60451565043041
 30
0.0
 40
5.0
 50
32.678249624050757
 51
72.582899213502543
  0
ARC
  5
F6
  8
0
 10
678.92504767716071
 20
315.28357288000473
 30
0.0
 40
2.0
 50
179.4171007864982
 51
252.5828992135018
  0
ARC
  5
F7
  8
0
 10
616.22623061310208
 20
269.7302158273381
 30
0.0
 40
77.000000000000014
 50
38.61690673570466
 51
51.383088575638311
  0
ARC
  5
F8
  8
0
 10
661.34544340860225
 20
338.20106098580231
 30
0.0
 40
5.0
 50
236.61691142436121
 51
272.2982757672101
  0
ARC
  5
F9
  8
0
 10
667.403270550667
 20
333.79979193978721
 30
0.0
 40
5.0
 50
195.70172423278919
 51
231.38308857563831
  0
LINE
  5
FA
  8
0
 10
662.36737291806128
 20
333.23804988577149
 30
0.0
 11
661.54595202469545
 21
333.20508297395401
 31
0.0
  0
LINE
  5
FB
  8
0
 10
662.36737291806128
 20
333.23804988577149
 30
0.0
 11
662.58985253733965
 21
332.44664485651128
 31
0.0
  0
ARC
  5
FC
  8
0
 10
655.10053043619473
 20
330.33375378729812
 30
0.0
 40
5.0
 50
17.41710078649745
 51
57.321750375949293
  0
ARC
  5
FD
  8
0
 10
661.85080101070048
 20
325.42939513937648
 30
0.0
 40
5.0
 50
50.678249624050757
 51
90.582899213502543
  0
ARC
  5
FE
  8
0
 10
661.77958766576887
 20
332.4290328913965
 30
0.0
 40
2.0
 50
197.4171007864982
 51
270.58289921350178
  0
ARC
  5
FF
  8
0
 10
616.22623061310208
 20
269.7302158273381
 30
0.0
 40
77.000000000000014
 50
56.61690673570466
 51
69.383088575638325
  0
ARC
  5
100
  8
0
 10
637.97849717918916
 20
348.79246281816108
 30
0.0
 40
5.0
 50
254.61691142436121
 51
290.29827576720999
  0
ARC
  5
101
  8
0
 10
645.09990008927446
 20
346.47857874786411
 30
0.0
 40
5.0
 50
213.70172423278919
 51
249.3830885756382
  0
LINE
  5
102
  8
0
 10
640.48406467153563
 20
344.3881523565077
 30
0.0
 11
639.71303431428248
 21
344.10296594461681
 31
0.0
  0
LINE
  5
103
  8
0
 10
640.48406467153563
 20
344.3881523565077
 30
0.0
 11
640.94021296666835
 21
343.70423142966013
 31
0.0
  0
ARC
  5
104
  8
0
 10
634.47036362739095
 20
339.38042480446143
 30
0.0
 40
5.0
 50
35.41710078649745
 51
75.321750375949293
  0
ARC
  5
105
  8
0
 10
642.40578261274754
 20
336.8020508782584
 30
0.0
 40
5.0
 50
68.67824962405075
 51
108.5828992135026
  0
ARC
  5
106
  8
0
 10
640.17504767716059
 20
343.43709584021252
 30
0.0
 40
2.0
 50
215.41710078649831
 51
288.58289921350178
  0
ARC
  5
107
  8
0
 10
616.22623061310208
 20
269.7302158273381
 30
0.0
 40
77.000000000000014
 50
74.61690673570466
 51
105.38309280807179
  0
ARC
  5
108
  8
0
 10
616.22622999152554
 20
269.7302158273381
 30
0.0
 40
77.000000000000014
 50
254.61691142436169
 51
267.38309326429533
  0
ARC
  5
109
  8
0
 10
616.22623002194757
 20
269.73021601941588
 30
0.0
 40
77.000000000000014
 50
236.61691142436169
 51
249.3830932642953
  0
ARC
  5
10A
  8
0
 10
594.47396404701522
 20
190.66796883651509
 30
0.0
 40
5.0
 50
74.616911424361149
 51
110.29827576721
  0
ARC
  5
10B
  8
0
 10
587.35256113692981
 20
192.98185290681209
 30
0.0
 40
5.0
 50
33.701724232789203
 51
69.38308857563824
  0
LINE
  5
10C
  8
0
 10
591.96839655466874
 20
195.0722792981685
 30
0.0
 11
592.73942691192178
 21
195.35746571005939
 31
0.0
  0
LINE
  5
10D
  8
0
 10
591.96839655466874
 20
195.0722792981685
 30
0.0
 11
591.51224825953591
 21
195.7562002250161
 31
0.0
  0
ARC
  5
10E
  8
0
 10
597.98209759881343
 20
200.0800068502148
 30
0.0
 40
5.0
 50
215.41710078649751
 51
255.32175037594931
  0
ARC
  5
10F
  8
0
 10
590.04667861345661
 20
202.6583807764178
 30
0.0
 40
5.0
 50
248.67824962405081
 51
288.58289921350263
  0
ARC
  5
110
  8
0
 10
592.27741354904367
 20
196.02333581446371
 30
0.0
 40
2.0
 50
35.417100786498253
 51
108.5828992135017
  0
ARC
  5
111
  8
0
 10
616.22623011023597
 20
269.73021619269173
 30
0.0
 40
77.000000000000014
 50
218.61691142436169
 51
231.38309326429541
  0
ARC
  5
112
  8
0
 10
571.10701781760213
 20
201.25937066887391
 30
0.0
 40
5.0
 50
56.616911424361149
 51
92.298275767210001
  0
ARC
  5
113
  8
0
 10
565.04919067553726
 20
205.66063971488899
 30
0.0
 40
5.0
 50
15.701724232789189
 51
51.38308857563824
  0
LINE
  5
114
  8
0
 10
570.08508830814299
 20
206.22238176890471
 30
0.0
 11
570.90650920150892
 21
206.25534868072219
 31
0.0
  0
LINE
  5
115
  8
0
 10
570.08508830814299
 20
206.22238176890471
 30
0.0
 11
569.86260868886461
 21
207.01378679816489
 31
0.0
  0
ARC
  5
116
  8
0
 10
577.35193079000965
 20
209.12667786737811
 30
0.0
 40
5.0
 50
197.4171007864974
 51
237.32175037594931
  0
ARC
  5
117
  8
0
 10
570.60166021550378
 20
214.03103651529969
 30
0.0
 40
5.0
 50
230.67824962405069
 51
270.58289921350263
  0
ARC
  5
118
  8
0
 10
570.67287356043539
 20
207.0313987632797
 30
0.0
 40
2.0
 50
17.417100786498249
 51
90.582899213501761
  0
ARC
  5
119
  8
0
 10
616.22623024774862
 20
269.7302163302042
 30
0.0
 40
77.000000000000014
 50
200.61691142436169
 51
213.38309326429541
  0
ARC
  5
11A
  8
0
 10
552.15665450065319
 20
218.5531758897734
 30
0.0
 40
5.0
 50
38.616911424361149
 51
74.298275767210001
  0
ARC
  5
11B
  8
0
 10
547.7553854546378
 20
224.61100303183801
 30
0.0
 40
5.0
 50
357.70172423278922
 51
33.38308857563824
  0
LINE
  5
11C
  8
0
 10
552.71839655466874
 20
223.58907352237901
 30
0.0
 11
553.50980158392917
 21
223.36659390310049
 31
0.0
  0
LINE
  5
11D
  8
0
 10
552.71839655466874
 20
223.58907352237901
 30
0.0
 11
552.75136346648628
 21
224.41049441574469
 31
0.0
  0
ARC
  5
11E
  8
0
 10
560.52705130106358
 20
224.10564542974001
 30
0.0
 40
5.0
 50
179.4171007864974
 51
219.32175037594931
  0
ARC
  5
11F
  8
0
 10
555.62269265314205
 20
230.8559160042459
 30
0.0
 40
5.0
 50
212.67824962405081
 51
252.58289921350249
  0
ARC
  5
120
  8
0
 10
553.52741354904367
 20
224.1768587746715
 30
0.0
 40
2.0
 50
359.41710078649828
 51
72.582899213501761
  0
ARC
  5
121
  8
0
 10
616.22623042102441
 20
269.73021641849272
 30
0.0
 40
77.000000000000014
 50
182.61691142436169
 51
195.3830932642953
  0
ARC
  5
122
  8
0
 10
539.4778676925763
 20
240.8565463511658
 30
0.0
 40
5.0
 50
20.616911424361149
 51
56.298275767210001
  0
ARC
  5
123
  8
0
 10
537.16398362227915
 20
247.9779492612511
 30
0.0
 40
5.0
 50
339.70172423278922
 51
15.38308857563824
  0
LINE
  5
124
  8
0
 10
541.56829408393264
 20
245.4723817689048
 30
0.0
 11
542.25221501078022
 21
245.01623347377179
 31
0.0
  0
LINE
  5
125
  8
0
 10
541.56829408393264
 20
245.4723817689048
 30
0.0
 11
541.85348049582353
 21
246.24341212615761
 31
0.0
  0
ARC
  5
126
  8
0
 10
549.15439556218189
 20
243.55066382769289
 30
0.0
 40
5.0
 50
161.4171007864974
 51
201.32175037594931
  0
ARC
  5
127
  8
0
 10
546.5760216359788
 20
251.48608281304959
 30
0.0
 40
5.0
 50
194.67824962405069
 51
234.58289921350249
  0
ARC
  5
128
  8
0
 10
542.51935060022765
 20
245.78139876327981
 30
0.0
 40
2.0
 50
341.41710078649828
 51
54.582899213501747
  0
ARC
  5
129
  8
0
 10
616.22623061310208
 20
269.7302164489148
 30
0.0
 40
77.000000000000014
 50
164.61691142436169
 51
177.3830932642953
  0
ARC
  5
12A
  8
0
 10
534.31174538444827
 20
265.98627275557038
 30
0.0
 40
5.0
 50
2.6169114243611462
 51
38.298275767210001
  0
ARC
  5
12B
  8
0
 10
534.31174538444805
 20
273.4741588991057
 30
0.0
 40
5.0
 50
321.70172423278922
 51
357.38308857563828
  0
LINE
  5
12C
  8
0
 10
537.72623061310208
 20
269.7302158273381
 30
0.0
 11
538.23572049205995
 21
269.08504982965042
 31
0.0
  0
LINE
  5
12D
  8
0
 10
537.72623061310208
 20
269.7302158273381
 30
0.0
 11
538.23572049205995
 21
270.37538182502573
 31
0.0
  0
ARC
  5
12E
  8
0
 10
544.34719835503756
 20
265.55831917903521
 30
0.0
 40
5.0
 50
143.4171007864974
 51
183.32175037594931
  0
ARC
  5
12F
  8
0
 10
544.34719835503756
 20
273.9021124756411
 30
0.0
 40
5.0
 50
176.67824962405069
 51
216.58289921350249
  0
ARC
  5
130
  8
0
 10
538.72623061310208
 20
269.73021582733821
 30
0.0
 40
2.0
 50
323.41710078649828
 51
36.582899213501761
  0
ARC
  5
131
  8
0
 10
616.22623080517997
 20
269.73021641849272
 30
0.0
 40
77.000000000000014
 50
146.61691142436169
 51
159.3830932642953
  0
ARC
  5
132
  8
0
 10
537.16398362227915
 20
291.48248239342507
 30
0.0
 40
5.0
 50
344.61691142436121
 51
20.298275767210001
  0
ARC
  5
133
  8
0
 10
539.4778676925763
 20
298.60388530351048
 30
0.0
 40
5.0
 50
303.70172423278922
 51
339.38308857563828
  0
LINE
  5
134
  8
0
 10
541.56829408393264
 20
293.98804988577149
 30
0.0
 11
541.85348049582353
 21
293.21701952851851
 31
0.0
  0
LINE
  5
135
  8
0
 10
541.56829408393264
 20
293.98804988577149
 30
0.0
 11
542.25221501078022
 21
294.44419818090432
 31
0.0
  0
ARC
  5
136
  8
0
 10
546.57602163597892
 20
287.97434884162681
 30
0.0
 40
5.0
 50
125.4171007864974
 51
165.32175037594931
  0
ARC
  5
137
  8
0
 10
549.15439556218189
 20
295.90976782698363
 30
0.0
 40
5.0
 50
158.67824962405069
 51
198.58289921350249
  0
ARC
  5
138
  8
0
 10
542.51935060022788
 20
293.67903289139662
 30
0.0
 40
2.0
 50
305.41710078649828
 51
18.582899213501751
  0
ARC
  5
139
  8
0
 10
616.22623097845576
 20
269.73021633020431
 30
0.0
 40
77.000000000000014
 50
128.61691142436169
 51
141.3830932642953
  0
ARC
  5
13A
  8
0
 10
547.75538545463803
 20
314.84942862283822
 30
0.0
 40
5.0
 50
326.61691142436121
 51
2.298275767209998
  0
ARC
  5
13B
  8
0
 10
552.15665450065296
 20
320.90725576490291
 30
0.0
 40
5.0
 50
285.70172423278922
 51
321.38308857563828
  0
LINE
  5
13C
  8
0
 10
552.71839655466874
 20
315.8713581322973
 30
0.0
 11
552.75136346648617
 21
315.04993723893142
 31
0.0
  0
LINE
  5
13D
  8
0
 10
552.71839655466874
 20
315.8713581322973
 30
0.0
 11
553.50980158392895
 21
316.09383775157579
 31
0.0
  0
ARC
  5
13E
  8
0
 10
555.62269265314205
 20
308.60451565043059
 30
0.0
 40
5.0
 50
107.4171007864974
 51
147.32175037594931
  0
ARC
  5
13F
  8
0
 10
560.52705130106392
 20
315.35478622493639
 30
0.0
 40
5.0
 50
140.67824962405069
 51
180.58289921350249
  0
ARC
  5
140
  8
0
 10
553.52741354904367
 20
315.2835728800049
 30
0.0
 40
2.0
 50
287.41710078649828
 51
0.5828992135017577
  0
ARC
  5
141
  8
0
 10
616.22623111596829
 20
269.73021619269173
 30
0.0
 40
77.000000000000014
 50
110.6169114243616
 51
123.3830932642953
  0
ARC
  5
142
  8
0
 10
565.04919067553726
 20
333.79979193978721
 30
0.0
 40
5.0
 50
308.61691142436109
 51
344.29827576720999
  0
ARC
  5
143
  8
0
 10
571.10701781760213
 20
338.20106098580243
 30
0.0
 40
5.0
 50
267.70172423278922
 51
303.38308857563828
  0
LINE
  5
144
  8
0
 10
570.0850883081431
 20
333.2380498857716
 30
0.0
 11
569.86260868886461
 21
332.44664485651123
 31
0.0
  0
LINE
  5
145
  8
0
 10
570.0850883081431
 20
333.2380498857716
 30
0.0
 11
570.90650920150892
 21
333.20508297395389
 31
0.0
  0
ARC
  5
146
  8
0
 10
570.60166021550413
 20
325.4293951393766
 30
0.0
 40
5.0
 50
89.417100786497457
 51
129.32175037594931
  0
ARC
  5
147
  8
0
 10
577.35193079000976
 20
330.33375378729829
 30
0.0
 40
5.0
 50
122.67824962405069
 51
162.58289921350249
  0
ARC
  5
148
  8
0
 10
570.67287356043562
 20
332.42903289139662
 30
0.0
 40
2.0
 50
269.41710078649828
 51
342.58289921350178
  0
ARC
  5
149
  8
0
 10
587.35256113692992
 20
346.47857874786399
 30
0.0
 40
5.0
 50
290.61691142436121
 51
326.2982757672101
  0
ARC
  5
14A
  8
0
 10
594.47396404701522
 20
348.7924628181612
 30
0.0
 40
5.0
 50
249.70172423278919
 51
285.38308857563828
  0
LINE
  5
14B
  8
0
 10
591.96839655466886
 20
344.3881523565077
 30
0.0
 11
591.51224825953591
 21
343.70423142966013
 31
0.0
  0
LINE
  5
14C
  8
0
 10
591.96839655466886
 20
344.3881523565077
 30
0.0
 11
592.73942691192178
 21
344.10296594461681
 31
0.0
  0
ARC
  5
14D
  8
0
 10
590.04667861345695
 20
336.80205087825851
 30
0.0
 40
5.0
 50
71.417100786497457
 51
111.32175037594931
  0
ARC
  5
14E
  8
0
 10
597.98209759881365
 20
339.38042480446148
 30
0.0
 40
5.0
 50
104.67824962405069
 51
144.58289921350249
  0
ARC
  5
14F
  8
0
 10
592.27741354904379
 20
343.43709584021258
 30
0.0
 40
2.0
 50
251.41710078649831
 51
324.58289921350178
  0
LINE
  5
150
  8
0
 10
400.85401181640941
 20
349.7302158273381
 30
0.0
 11
400.85401181640901
 21
189.7302158273381
 31
0.0
  0
LINE
  5
151
  8
0
 10
385.85401181640952
 20
349.7302158273381
 30
0.0
 11
385.85401181640918
 21
189.7302158273381
 31
0.0
  0
LINE
  5
152
  8
0
 10
385.85401181640952
 20
529.73021582733816
 30
0.0
 11
385.85401181640918
 21
369.73021582733821
 31
0.0
  0
LINE
  5
153
  8
0
 10
400.85401181640941
 20
529.73021582733816
 30
0.0
 11
400.85401181640901
 21
369.7302158273381
 31
0.0
  0
ARC
  5
154
  8
0
 10
304.04112465039032
 20
456.73021582733787
 30
0.0
 40
4.0
 50
90.0
 51
168.78772858235021
  0
ARC
  5
155
  8
0
 10
304.04112465039037
 20
442.73021582733799
 30
0.0
 40
4.0
 50
191.2122714176493
 51
270.0
  0
LINE
  5
156
  8
0
 10
350.3540118164097
 20
460.73021582733787
 30
0.0
 11
372.43727290583382
 21
459.81007994861187
 31
0.0
  0
LINE
  5
157
  8
0
 10
372.43727290583382
 20
439.6503517060641
 30
0.0
 11
350.35401181640918
 21
438.73021582733799
 31
0.0
  0
ARC
  5
158
  8
0
 10
339.35401181640952
 20
449.73021582733799
 30
0.0
 40
40.000000000000021
 50
168.7877285823503
 51
191.2122714176497
  0
LINE
  5
159
  8
0
 10
374.85401181640952
 20
458.23021582733787
 30
0.0
 11
374.85401181640952
 21
441.23021582733799
 31
0.0
  0
LINE
  5
15A
  8
0
 10
383.85401181640952
 20
456.2302158273381
 30
0.0
 11
383.85401181640941
 21
443.2302158273381
 31
0.0
  0
LINE
  5
15B
  8
0
 10
304.04112465039032
 20
460.73021582733787
 30
0.0
 11
350.3540118164097
 21
460.73021582733787
 31
0.0
  0
LINE
  5
15C
  8
0
 10
304.04112465039037
 20
438.73021582733799
 30
0.0
 11
350.35401181640918
 21
438.73021582733799
 31
0.0
  0
LINE
  5
15D
  8
0
 10
374.85401181640952
 20
458.23021582733787
 30
0.0
 11
374.35401181640952
 21
457.73021582733787
 31
0.0
  0
LINE
  5
15E
  8
0
 10
374.85401181640952
 20
441.23021582733799
 30
0.0
 11
374.35401181640952
 21
441.73021582733799
 31
0.0
  0
LINE
  5
15F
  8
0
 10
376.85401181640952
 20
458.23021582733787
 30
0.0
 11
374.85401181640952
 21
458.23021582733787
 31
0.0
  0
LINE
  5
160
  8
0
 10
376.85401181640952
 20
441.23021582733799
 30
0.0
 11
374.85401181640952
 21
441.23021582733799
 31
0.0
  0
LINE
  5
161
  8
0
 10
374.35401181640952
 20
441.64861785224878
 30
0.0
 11
374.35401181640952
 21
457.81181380242731
 31
0.0
  0
ARC
  5
162
  8
0
 10
372.35401181640952
 20
457.81181380242731
 30
0.0
 40
2.0
 50
0.0000000000000509
 51
87.614055969611087
  0
ARC
  5
163
  8
0
 10
372.35401181640952
 20
441.64861785224878
 30
0.0
 40
2.0
 50
272.38594403038911
 51
0.0
  0
LINE
  5
164
  8
0
 10
350.35401181640918
 20
438.73021582733799
 30
0.0
 11
350.35401181640918
 21
460.73021582733787
 31
0.0
  0
LINE
  5
165
  8
0
 10
385.85401181640952
 20
369.73021582733821
 30
0.0
 11
400.85401181640941
 21
369.7302158273381
 31
0.0
  0
LINE
  5
166
  8
0
 10
385.85401181640952
 20
369.73021582733821
 30
0.0
 11
384.35401181640952
 21
371.23021582733821
 31
0.0
  0
LINE
  5
167
  8
0
 10
400.85401181640941
 20
369.7302158273381
 30
0.0
 11
402.35401181640952
 21
371.2302158273381
 31
0.0
  0
LINE
  5
168
  8
0
 10
400.85401181640941
 20
529.73021582733816
 30
0.0
 11
402.35401181640952
 21
528.23021582733816
 31
0.0
  0
LINE
  5
169
  8
0
 10
385.85401181640952
 20
529.73021582733816
 30
0.0
 11
384.35401181640952
 21
528.23021582733816
 31
0.0
  0
LINE
  5
16A
  8
0
 10
402.35401181640952
 20
371.23021582733821
 30
0.0
 11
402.35401181640952
 21
528.23021582733816
 31
0.0
  0
LINE
  5
16B
  8
0
 10
385.85401181640952
 20
529.73021582733816
 30
0.0
 11
400.85401181640941
 21
529.73021582733816
 31
0.0
  0
LINE
  5
16C
  8
0
 10
384.35401181640952
 20
371.23021582733821
 30
0.0
 11
384.35401181640952
 21
528.23021582733816
 31
0.0
  0
LINE
  5
16D
  8
1
 10
289.35401181640913
 20
449.7302158273381
 30
0.0
 11
446.35401181640879
 21
449.7302158273381
 31
0.0
  0
LINE
  5
16E
  8
0
 10
376.85401181640952
 20
441.2302158273381
 30
0.0
 11
376.85401181640941
 21
443.2302158273381
 31
0.0
  0
LINE
  5
16F
  8
0
 10
376.85401181640952
 20
456.23021582733799
 30
0.0
 11
384.35401181640952
 21
456.2302158273381
 31
0.0
  0
LINE
  5
170
  8
0
 10
376.85401181640952
 20
443.2302158273381
 30
0.0
 11
384.35401181640952
 21
443.2302158273381
 31
0.0
  0
LINE
  5
171
  8
0
 10
376.85401181640941
 20
456.23021582733799
 30
0.0
 11
376.85401181640941
 21
458.23021582733787
 31
0.0
  0
LINE
  5
172
  8
0
 10
376.85401181640941
 20
96.230215827338114
 30
0.0
 11
376.85401181640941
 21
98.230215827337943
 31
0.0
  0
LINE
  5
173
  8
0
 10
376.85401181640952
 20
83.230215827338156
 30
0.0
 11
384.35401181640952
 21
83.230215827338156
 31
0.0
  0
LINE
  5
174
  8
0
 10
376.85401181640952
 20
96.230215827338114
 30
0.0
 11
384.35401181640952
 21
96.230215827338156
 31
0.0
  0
LINE
  5
175
  8
0
 10
376.85401181640952
 20
81.230215827338114
 30
0.0
 11
376.85401181640941
 21
83.230215827338156
 31
0.0
  0
LINE
  5
176
  8
1
 10
289.35401181640913
 20
89.730215827338156
 30
0.0
 11
446.35401181640879
 21
89.730215827338156
 31
0.0
  0
LINE
  5
177
  8
0
 10
384.35401181640952
 20
11.230215827338149
 30
0.0
 11
384.35401181640952
 21
168.2302158273381
 31
0.0
  0
LINE
  5
178
  8
0
 10
385.85401181640952
 20
169.7302158273381
 30
0.0
 11
400.85401181640941
 21
169.7302158273381
 31
0.0
  0
LINE
  5
179
  8
0
 10
402.35401181640952
 20
11.230215827338149
 30
0.0
 11
402.35401181640952
 21
168.2302158273381
 31
0.0
  0
LINE
  5
17A
  8
0
 10
385.85401181640952
 20
169.7302158273381
 30
0.0
 11
384.35401181640952
 21
168.2302158273381
 31
0.0
  0
LINE
  5
17B
  8
0
 10
400.85401181640941
 20
169.7302158273381
 30
0.0
 11
402.35401181640952
 21
168.2302158273381
 31
0.0
  0
LINE
  5
17C
  8
0
 10
400.85401181640941
 20
9.7302158273380996
 30
0.0
 11
402.35401181640952
 21
11.2302158273381
 31
0.0
  0
LINE
  5
17D
  8
0
 10
385.85401181640952
 20
9.7302158273381565
 30
0.0
 11
384.35401181640952
 21
11.230215827338149
 31
0.0
  0
LINE
  5
17E
  8
0
 10
385.85401181640952
 20
9.7302158273381565
 30
0.0
 11
400.85401181640941
 21
9.7302158273380996
 31
0.0
  0
LINE
  5
17F
  8
0
 10
350.35401181640918
 20
78.730215827338043
 30
0.0
 11
350.35401181640918
 21
100.730215827338
 31
0.0
  0
ARC
  5
180
  8
0
 10
372.35401181640952
 20
81.648617852248833
 30
0.0
 40
2.0
 50
272.38594403038911
 51
0.0
  0
ARC
  5
181
  8
0
 10
372.35401181640952
 20
97.811813802427366
 30
0.0
 40
2.0
 50
0.0000000000000509
 51
87.614055969611087
  0
LINE
  5
182
  8
0
 10
374.35401181640952
 20
81.648617852248833
 30
0.0
 11
374.35401181640952
 21
97.811813802427366
 31
0.0
  0
LINE
  5
183
  8
0
 10
376.85401181640952
 20
81.230215827338029
 30
0.0
 11
374.85401181640952
 21
81.230215827338029
 31
0.0
  0
LINE
  5
184
  8
0
 10
376.85401181640952
 20
98.230215827337986
 30
0.0
 11
374.85401181640952
 21
98.230215827337986
 31
0.0
  0
LINE
  5
185
  8
0
 10
374.85401181640952
 20
81.230215827338029
 30
0.0
 11
374.35401181640952
 21
81.730215827338043
 31
0.0
  0
LINE
  5
186
  8
0
 10
374.85401181640952
 20
98.230215827337986
 30
0.0
 11
374.35401181640952
 21
97.730215827337986
 31
0.0
  0
LINE
  5
187
  8
0
 10
304.04112465039037
 20
78.730215827338043
 30
0.0
 11
350.35401181640918
 21
78.730215827338043
 31
0.0
  0
LINE
  5
188
  8
0
 10
304.04112465039032
 20
100.730215827338
 30
0.0
 11
350.3540118164097
 21
100.730215827338
 31
0.0
  0
LINE
  5
189
  8
0
 10
383.85401181640952
 20
96.230215827338156
 30
0.0
 11
383.85401181640941
 21
83.2302158273381
 31
0.0
  0
LINE
  5
18A
  8
0
 10
374.85401181640952
 20
98.230215827337986
 30
0.0
 11
374.85401181640952
 21
81.230215827338029
 31
0.0
  0
ARC
  5
18B
  8
0
 10
339.35401181640952
 20
89.730215827338057
 30
0.0
 40
40.000000000000021
 50
168.7877285823503
 51
191.2122714176497
  0
LINE
  5
18C
  8
0
 10
372.43727290583382
 20
79.6503517060641
 30
0.0
 11
350.35401181640918
 21
78.730215827338043
 31
0.0
  0
LINE
  5
18D
  8
0
 10
350.3540118164097
 20
100.730215827338
 30
0.0
 11
372.43727290583382
 21
99.810079948611985
 31
0.0
  0
ARC
  5
18E
  8
0
 10
304.04112465039037
 20
82.730215827338043
 30
0.0
 40
4.0
 50
191.2122714176493
 51
270.0
  0
ARC
  5
18F
  8
0
 10
304.04112465039032
 20
96.730215827337986
 30
0.0
 40
4.0
 50
90.0
 51
168.78772858235021
  0
LINE
  5
190
  8
0
 10
400.85401181640941
 20
169.7302158273381
 30
0.0
 11
400.85401181640901
 21
9.7302158273380996
 31
0.0
  0
LINE
  5
191
  8
0
 10
385.85401181640952
 20
169.7302158273381
 30
0.0
 11
385.85401181640918
 21
9.7302158273381565
 31
0.0
  0
LINE
  5
19B
  8
0
 10
420.35401181640952
 20
471.2302158273381
 30
0.0
 11
413.25097361071658
 21
471.2302158273381
 31
0.0
  0
LINE
  5
19C
  8
0
 10
408.81488960454351
 20
473.92345214412808
 30
0.0
 11
402.3540118164093
 21
486.34821712130929
 31
0.0
  0
ARC
  5
19D
  8
0
 10
413.25097361071658
 20
476.2302158273381
 30
0.0
 40
5.0
 50
207.47443162627681
 51
269.99999999999989
  0
LINE
  5
19E
  8
0
 10
411.0691300531206
 20
473.92345214412808
 30
0.0
 11
402.3540118164093
 21
490.68329490703428
 31
0.0
  0
ARC
  5
19F
  8
0
 10
415.50521405929351
 20
476.2302158273381
 30
0.0
 40
5.0
 50
207.4744316262769
 51
269.99999999999989
  0
LINE
  5
1A0
  8
0
 10
415.50521405929328
 20
465.7911790624554
 30
0.0
 11
413.25097361071658
 21
465.79117906245529
 31
0.0
  0
LINE
  5
1A1
  8
0
 10
415.50521405929351
 20
464.02341210949089
 30
0.0
 11
413.25097361071658
 21
464.02341210949089
 31
0.0
  0
LINE
  5
1A2
  8
0
 10
402.35401181640952
 20
474.72407876322001
 30
0.0
 11
408.81488960454351
 21
465.92971066611159
 31
0.0
  0
ARC
  5
1A3
  8
0
 10
413.25097361071658
 20
470.13809320596562
 30
0.0
 40
6.1146810964735412
 50
223.4911368599229
 51
270.0
  0
ARC
  5
1A4
  8
0
 10
413.25097361071658
 20
471.90586015893058
 30
0.0
 40
6.1146810964739604
 50
254.98564990629751
 51
269.99999999999841
  0
LINE
  5
1A5
  8
0
 10
402.35401181640952
 20
478.67637197196359
 30
0.0
 11
411.66689846022712
 21
465.99992832481809
 31
0.0
  0
LINE
  5
1A6
  8
0
 10
402.35401181640952
 20
420.78405968271232
 30
0.0
 11
411.66689846022712
 21
433.46050332985789
 31
0.0
  0
ARC
  5
1A7
  8
0
 10
413.25097361071658
 20
427.55457149574539
 30
0.0
 40
6.1146810964739604
 50
90.000000000001592
 51
105.0143500937025
  0
ARC
  5
1A8
  8
0
 10
413.25097361071658
 20
429.32233844871041
 30
0.0
 40
6.1146810964735412
 50
90.000000000000014
 51
136.5088631400771
  0
LINE
  5
1A9
  8
0
 10
402.35401181640952
 20
424.73635289145602
 30
0.0
 11
408.81488960454351
 21
433.53072098856438
 31
0.0
  0
LINE
  5
1AA
  8
0
 10
415.50521405929351
 20
435.43701954518502
 30
0.0
 11
413.25097361071658
 21
435.43701954518502
 31
0.0
  0
LINE
  5
1AB
  8
0
 10
415.50521405929328
 20
433.66925259222057
 30
0.0
 11
413.25097361071658
 21
433.66925259222057
 31
0.0
  0
LINE
  5
1AC
  8
0
 10
415.50521405929351
 20
448.4802158273381
 30
0.0
 11
402.35401181640952
 21
448.4802158273381
 31
0.0
  0
LINE
  5
1AD
  8
0
 10
415.50521405929328
 20
450.98021582733799
 30
0.0
 11
402.35401181640952
 21
450.98021582733799
 31
0.0
  0
LINE
  5
1AE
  8
0
 10
435.35401181640958
 20
432.73021582733787
 30
0.0
 11
435.35401181640958
 21
466.73021582733799
 31
0.0
  0
ARC
  5
1AF
  8
0
 10
415.50521405929351
 20
423.23021582733787
 30
0.0
 40
5.0
 50
90.000000000000057
 51
152.5255683737231
  0
LINE
  5
1B0
  8
0
 10
411.0691300531206
 20
425.53697951054778
 30
0.0
 11
402.3540118164093
 21
408.77713674764152
 31
0.0
  0
ARC
  5
1B1
  8
0
 10
413.25097361071658
 20
423.23021582733787
 30
0.0
 40
5.0
 50
90.000000000000057
 51
152.5255683737231
  0
LINE
  5
1B2
  8
0
 10
408.81488960454351
 20
425.53697951054778
 30
0.0
 11
402.3540118164093
 21
413.11221453336663
 31
0.0
  0
LINE
  5
1B3
  8
0
 10
420.35401181640952
 20
428.23021582733787
 30
0.0
 11
413.25097361071658
 21
428.23021582733782
 31
0.0
  0
LINE
  5
1B4
  8
0
 10
420.35401181640952
 20
428.23021582733782
 30
0.0
 11
420.3540118164089
 21
471.2302158273381
 31
0.0
  0
LINE
  5
1B5
  8
0
 10
420.35401181640952
 20
432.73021582733787
 30
0.0
 11
435.35401181640958
 21
432.73021582733787
 31
0.0
  0
LINE
  5
1B6
  8
0
 10
420.35401181640913
 20
466.73021582733799
 30
0.0
 11
435.35401181640958
 21
466.73021582733799
 31
0.0
  0
LINE
  5
1B7
  8
0
 10
436.35401181640952
 20
433.73021582733799
 30
0.0
 11
436.35401181640952
 21
465.73021582733799
 31
0.0
  0
LINE
  5
1B8
  8
0
 10
436.35401181640952
 20
433.73021582733799
 30
0.0
 11
435.35401181640958
 21
432.73021582733787
 31
0.0
  0
LINE
  5
1B9
  8
0
 10
436.35401181640952
 20
465.73021582733799
 30
0.0
 11
435.35401181640958
 21
466.73021582733799
 31
0.0
  0
LINE
  5
1BA
  8
0
 10
436.35401181640958
 20
73.730215827338171
 30
0.0
 11
435.35401181640958
 21
72.730215827338171
 31
0.0
  0
LINE
  5
1BB
  8
0
 10
436.35401181640958
 20
105.7302158273382
 30
0.0
 11
435.35401181640958
 21
106.7302158273382
 31
0.0
  0
LINE
  5
1BC
  8
0
 10
436.35401181640958
 20
105.7302158273382
 30
0.0
 11
436.35401181640958
 21
73.730215827338171
 31
0.0
  0
LINE
  5
1BD
  8
0
 10
420.35401181640918
 20
72.730215827338171
 30
0.0
 11
435.35401181640958
 21
72.730215827338171
 31
0.0
  0
LINE
  5
1BE
  8
0
 10
420.3540118164097
 20
106.7302158273382
 30
0.0
 11
435.35401181640958
 21
106.7302158273382
 31
0.0
  0
LINE
  5
1BF
  8
0
 10
420.3540118164097
 20
111.2302158273383
 30
0.0
 11
420.35401181640901
 21
68.230215827338114
 31
0.0
  0
LINE
  5
1C0
  8
0
 10
420.3540118164097
 20
111.2302158273382
 30
0.0
 11
413.2509736107167
 21
111.2302158273383
 31
0.0
  0
LINE
  5
1C1
  8
0
 10
408.81488960454368
 20
113.92345214412831
 30
0.0
 11
402.35401181640952
 21
126.3482171213095
 31
0.0
  0
ARC
  5
1C2
  8
0
 10
413.2509736107167
 20
116.2302158273383
 30
0.0
 40
5.0
 50
207.47443162627681
 51
269.99999999999989
  0
LINE
  5
1C3
  8
0
 10
411.06913005312077
 20
113.92345214412831
 30
0.0
 11
402.35401181640952
 21
130.68329490703459
 31
0.0
  0
ARC
  5
1C4
  8
0
 10
415.50521405929362
 20
116.2302158273382
 30
0.0
 40
5.0
 50
207.4744316262769
 51
269.99999999999989
  0
LINE
  5
1C5
  8
0
 10
435.35401181640958
 20
106.7302158273382
 30
0.0
 11
435.35401181640958
 21
72.730215827338171
 31
0.0
  0
LINE
  5
1C6
  8
0
 10
415.50521405929339
 20
88.480215827338142
 30
0.0
 11
402.35401181640958
 21
88.480215827338142
 31
0.0
  0
LINE
  5
1C7
  8
0
 10
415.50521405929362
 20
90.980215827338142
 30
0.0
 11
402.35401181640958
 21
90.980215827338142
 31
0.0
  0
LINE
  5
1C8
  8
0
 10
415.50521405929339
 20
105.7911790624556
 30
0.0
 11
413.2509736107167
 21
105.7911790624555
 31
0.0
  0
LINE
  5
1C9
  8
0
 10
415.50521405929362
 20
104.0234121094911
 30
0.0
 11
413.2509736107167
 21
104.0234121094911
 31
0.0
  0
LINE
  5
1CA
  8
0
 10
402.35401181640958
 20
114.72407876322021
 30
0.0
 11
408.81488960454368
 21
105.9297106661118
 31
0.0
  0
ARC
  5
1CB
  8
0
 10
413.2509736107167
 20
110.1380932059657
 30
0.0
 40
6.1146810964735412
 50
223.4911368599229
 51
270.0
  0
ARC
  5
1CC
  8
0
 10
413.2509736107167
 20
111.90586015893081
 30
0.0
 40
6.1146810964739604
 50
254.98564990629751
 51
269.99999999999841
  0
LINE
  5
1CD
  8
0
 10
402.35401181640958
 20
118.6763719719638
 30
0.0
 11
411.66689846022729
 21
105.9999283248182
 31
0.0
  0
LINE
  5
1CE
  8
0
 10
402.35401181640958
 20
60.784059682712538
 30
0.0
 11
411.66689846022729
 21
73.460503329858156
 31
0.0
  0
ARC
  5
1CF
  8
0
 10
413.2509736107167
 20
67.554571495745549
 30
0.0
 40
6.1146810964739604
 50
90.000000000001592
 51
105.0143500937025
  0
ARC
  5
1D0
  8
0
 10
413.2509736107167
 20
69.322338448710624
 30
0.0
 40
6.1146810964735412
 50
90.000000000000014
 51
136.5088631400771
  0
LINE
  5
1D1
  8
0
 10
402.35401181640958
 20
64.736352891456178
 30
0.0
 11
408.81488960454368
 21
73.530720988564539
 31
0.0
  0
LINE
  5
1D2
  8
0
 10
415.50521405929362
 20
75.437019545185237
 30
0.0
 11
413.2509736107167
 21
75.437019545185237
 31
0.0
  0
LINE
  5
1D3
  8
0
 10
415.50521405929339
 20
73.669252592220786
 30
0.0
 11
413.2509736107167
 21
73.669252592220843
 31
0.0
  0
ARC
  5
1D4
  8
0
 10
415.50521405929362
 20
63.230215827338142
 30
0.0
 40
5.0
 50
90.000000000000057
 51
152.5255683737231
  0
LINE
  5
1D5
  8
0
 10
411.06913005312077
 20
65.536979510548051
 30
0.0
 11
402.35401181640952
 21
48.777136747641791
 31
0.0
  0
ARC
  5
1D6
  8
0
 10
413.2509736107167
 20
63.230215827338078
 30
0.0
 40
5.0
 50
90.000000000000057
 51
152.5255683737231
  0
LINE
  5
1D7
  8
0
 10
408.81488960454368
 20
65.536979510548051
 30
0.0
 11
402.35401181640952
 21
53.112214533366839
 31
0.0
  0
LINE
  5
1D8
  8
0
 10
420.3540118164097
 20
68.230215827338142
 30
0.0
 11
413.2509736107167
 21
68.230215827338085
 31
0.0
  0
LINE
  5
1D9
  8
0
 10
436.35401181640952
 20
253.73021582733821
 30
0.0
 11
435.35401181640958
 21
252.73021582733821
 31
0.0
  0
LINE
  5
1DA
  8
0
 10
436.35401181640952
 20
285.73021582733821
 30
0.0
 11
435.35401181640958
 21
286.73021582733821
 31
0.0
  0
LINE
  5
1DB
  8
0
 10
436.35401181640952
 20
285.73021582733821
 30
0.0
 11
436.35401181640952
 21
253.73021582733821
 31
0.0
  0
LINE
  5
1DC
  8
0
 10
420.35401181640913
 20
252.73021582733821
 30
0.0
 11
435.35401181640958
 21
252.73021582733821
 31
0.0
  0
LINE
  5
1DD
  8
0
 10
420.35401181640952
 20
286.73021582733821
 30
0.0
 11
435.35401181640958
 21
286.73021582733821
 31
0.0
  0
LINE
  5
1DE
  8
0
 10
420.35401181640952
 20
291.23021582733833
 30
0.0
 11
420.3540118164089
 21
248.2302158273381
 31
0.0
  0
LINE
  5
1DF
  8
0
 10
420.35401181640952
 20
291.23021582733833
 30
0.0
 11
413.25097361071658
 21
291.23021582733833
 31
0.0
  0
LINE
  5
1E0
  8
0
 10
408.81488960454351
 20
293.92345214412842
 30
0.0
 11
402.3540118164093
 21
306.34821712130957
 31
0.0
  0
ARC
  5
1E1
  8
0
 10
413.25097361071658
 20
296.23021582733833
 30
0.0
 40
5.0
 50
207.47443162627681
 51
269.99999999999989
  0
LINE
  5
1E2
  8
0
 10
411.0691300531206
 20
293.92345214412842
 30
0.0
 11
402.3540118164093
 21
310.68329490703462
 31
0.0
  0
ARC
  5
1E3
  8
0
 10
415.50521405929351
 20
296.23021582733833
 30
0.0
 40
5.0
 50
207.4744316262769
 51
269.99999999999989
  0
LINE
  5
1E4
  8
0
 10
435.35401181640958
 20
286.73021582733821
 30
0.0
 11
435.35401181640958
 21
252.73021582733821
 31
0.0
  0
LINE
  5
1E5
  8
0
 10
415.50521405929328
 20
268.4802158273381
 30
0.0
 11
402.35401181640952
 21
268.4802158273381
 31
0.0
  0
LINE
  5
1E6
  8
0
 10
415.50521405929351
 20
270.98021582733821
 30
0.0
 11
402.35401181640952
 21
270.98021582733821
 31
0.0
  0
LINE
  5
1E7
  8
0
 10
415.50521405929328
 20
285.79117906245563
 30
0.0
 11
413.25097361071658
 21
285.79117906245563
 31
0.0
  0
LINE
  5
1E8
  8
0
 10
415.50521405929351
 20
284.02341210949118
 30
0.0
 11
413.25097361071658
 21
284.02341210949118
 31
0.0
  0
LINE
  5
1E9
  8
0
 10
402.35401181640952
 20
294.72407876322018
 30
0.0
 11
408.81488960454351
 21
285.92971066611187
 31
0.0
  0
ARC
  5
1EA
  8
0
 10
413.25097361071658
 20
290.13809320596579
 30
0.0
 40
6.1146810964735412
 50
223.4911368599229
 51
270.0
  0
ARC
  5
1EB
  8
0
 10
413.25097361071658
 20
291.90586015893092
 30
0.0
 40
6.1146810964739604
 50
254.98564990629751
 51
269.99999999999841
  0
LINE
  5
1EC
  8
0
 10
402.35401181640952
 20
298.67637197196387
 30
0.0
 11
411.66689846022712
 21
285.9999283248182
 31
0.0
  0
LINE
  5
1ED
  8
0
 10
402.35401181640952
 20
240.78405968271261
 30
0.0
 11
411.66689846022712
 21
253.4605033298582
 31
0.0
  0
ARC
  5
1EE
  8
0
 10
413.25097361071658
 20
247.55457149574559
 30
0.0
 40
6.1146810964739604
 50
90.000000000001592
 51
105.0143500937025
  0
ARC
  5
1EF
  8
0
 10
413.25097361071658
 20
249.3223384487107
 30
0.0
 40
6.1146810964735412
 50
90.000000000000014
 51
136.5088631400771
  0
LINE
  5
1F0
  8
0
 10
402.35401181640952
 20
244.73635289145619
 30
0.0
 11
408.81488960454351
 21
253.53072098856461
 31
0.0
  0
LINE
  5
1F1
  8
0
 10
415.50521405929351
 20
255.43701954518519
 30
0.0
 11
413.25097361071658
 21
255.43701954518519
 31
0.0
  0
LINE
  5
1F2
  8
0
 10
415.50521405929328
 20
253.6692525922208
 30
0.0
 11
413.25097361071658
 21
253.66925259222089
 31
0.0
  0
ARC
  5
1F3
  8
0
 10
415.50521405929351
 20
243.2302158273381
 30
0.0
 40
5.0
 50
90.000000000000057
 51
152.5255683737231
  0
LINE
  5
1F4
  8
0
 10
411.0691300531206
 20
245.53697951054809
 30
0.0
 11
402.3540118164093
 21
228.7771367476418
 31
0.0
  0
ARC
  5
1F5
  8
0
 10
413.25097361071658
 20
243.2302158273381
 30
0.0
 40
5.0
 50
90.000000000000057
 51
152.5255683737231
  0
LINE
  5
1F6
  8
0
 10
408.81488960454351
 20
245.53697951054809
 30
0.0
 11
402.3540118164093
 21
233.11221453336691
 31
0.0
  0
LINE
  5
1F7
  8
0
 10
420.35401181640952
 20
248.23021582733821
 30
0.0
 11
413.25097361071658
 21
248.2302158273381
 31
0.0
  0
TEXT
  5
32C
  8
0
 62
     3
 10
0.0
 20
0.0
 30
0.0
 40
10.0
  1
SP160ER
  7
STANDARD1
  0
ENDSEC
  0
EOF
