  0
SECTION
  2
HEADER
  9
$ACADVER
  1
AC1009
  9
$INSBASE
 10
0.0
 20
0.0
 30
0.0
  9
$EXTMIN
 10
0.0
 20
-2.960436562073669
 30
0.0
  9
$EXTMAX
 10
290.00000000000421
 20
260.0
 30
0.0
  9
$LIMMIN
 10
0.0
 20
0.0
  9
$LIMMAX
 10
375.0
 20
270.0
  9
$ORTHOMODE
 70
     1
  9
$REGENMODE
 70
     1
  9
$FILLMODE
 70
     1
  9
$QTEXTMODE
 70
     0
  9
$MIRRTEXT
 70
     0
  9
$DRAGMODE
 70
     2
  9
$LTSCALE
 40
10.0
  9
$OSMODE
 70
    37
  9
$ATTMODE
 70
     1
  9
$TEXTSIZE
 40
2.0000000000000502
  9
$TRACEWID
 40
0.05
  9
$TEXTSTYLE
  7
STANDARD
  9
$CLAYER
  8
0
  9
$CELTYPE
  6
BYLAYER
  9
$CECOLOR
 62
   256
  9
$DIMSCALE
 40
1.0
  9
$DIMASZ
 40
3.0
  9
$DIMEXO
 40
2.0
  9
$DIMDLI
 40
0.38
  9
$DIMRND
 40
0.0
  9
$DIMDLE
 40
0.0
  9
$DIMEXE
 40
2.0
  9
$DIMTP
 40
0.0
  9
$DIMTM
 40
0.0
  9
$DIMTXT
 40
3.2000000000000002
  9
$DIMCEN
 40
0.0
  9
$DIMTSZ
 40
0.0
  9
$DIMTOL
 70
     0
  9
$DIMLIM
 70
     0
  9
$DIMTIH
 70
     0
  9
$DIMTOH
 70
     0
  9
$DIMSE1
 70
     0
  9
$DIMSE2
 70
     0
  9
$DIMTAD
 70
     1
  9
$DIMZIN
 70
     0
  9
$DIMBLK
  1

  9
$DIMASO
 70
     1
  9
$DIMSHO
 70
     0
  9
$DIMPOST
  1

  9
$DIMAPOST
  1

  9
$DIMALT
 70
     0
  9
$DIMALTD
 70
     2
  9
$DIMALTF
 40
25.399999999999999
  9
$DIMLFAC
 40
1.0
  9
$DIMTOFL
 70
     1
  9
$DIMTVP
 40
1.6000000000000001
  9
$DIMTIX
 70
     1
  9
$DIMSOXD
 70
     0
  9
$DIMSAH
 70
     0
  9
$DIMBLK1
  1

  9
$DIMBLK2
  1

  9
$DIMSTYLE
  2
STANDARD
  9
$DIMCLRD
 70
     0
  9
$DIMCLRE
 70
     0
  9
$DIMCLRT
 70
     0
  9
$DIMTFAC
 40
1.0
  9
$DIMGAP
 40
0.09
  9
$LUNITS
 70
     2
  9
$LUPREC
 70
     4
  9
$SKETCHINC
 40
0.1
  9
$FILLETRAD
 40
0.0
  9
$AUNITS
 70
     0
  9
$AUPREC
 70
     4
  9
$MENU
  1
E:\r13\win\SUPPORT\ACAD
  9
$ELEVATION
 40
0.0
  9
$PELEVATION
 40
0.0
  9
$THICKNESS
 40
0.0
  9
$LIMCHECK
 70
     0
  9
$BLIPMODE
 70
     0
  9
$CHAMFERA
 40
0.0
  9
$CHAMFERB
 40
0.0
  9
$SKPOLY
 70
     0
  9
$TDCREATE
 40
2449839.7948032408
  9
$TDUPDATE
 40
2458249.5925504859
  9
$TDINDWG
 40
0.0508613542
  9
$TDUSRTIMER
 40
0.0508613542
  9
$USRTIMER
 70
     1
  9
$ANGBASE
 50
0.0
  9
$ANGDIR
 70
     0
  9
$PDMODE
 70
     0
  9
$PDSIZE
 40
0.0
  9
$PLINEWID
 40
0.0
  9
$COORDS
 70
     1
  9
$SPLFRAME
 70
     0
  9
$SPLINETYPE
 70
     6
  9
$SPLINESEGS
 70
     8
  9
$ATTDIA
 70
     0
  9
$ATTREQ
 70
     1
  9
$HANDLING
 70
     1
  9
$HANDSEED
  5
727
  9
$SURFTAB1
 70
     6
  9
$SURFTAB2
 70
     6
  9
$SURFTYPE
 70
     6
  9
$SURFU
 70
     6
  9
$SURFV
 70
     6
  9
$UCSNAME
  2

  9
$UCSORG
 10
0.0
 20
0.0
 30
0.0
  9
$UCSXDIR
 10
1.0
 20
0.0
 30
0.0
  9
$UCSYDIR
 10
0.0
 20
1.0
 30
0.0
  9
$PUCSNAME
  2

  9
$PUCSORG
 10
0.0
 20
0.0
 30
0.0
  9
$PUCSXDIR
 10
1.0
 20
0.0
 30
0.0
  9
$PUCSYDIR
 10
0.0
 20
1.0
 30
0.0
  9
$USERI1
 70
     0
  9
$USERI2
 70
     1
  9
$USERI3
 70
     1
  9
$USERI4
 70
     0
  9
$USERI5
 70
     0
  9
$USERR1
 40
0.0
  9
$USERR2
 40
0.0
  9
$USERR3
 40
0.0
  9
$USERR4
 40
0.0
  9
$USERR5
 40
0.0
  9
$WORLDVIEW
 70
     1
  9
$SHADEDGE
 70
     3
  9
$SHADEDIF
 70
    70
  9
$TILEMODE
 70
     1
  9
$MAXACTVP
 70
    16
  9
$PLIMCHECK
 70
     0
  9
$PEXTMIN
 10
1.0000000000000000E+020
 20
1.0000000000000000E+020
 30
1.0000000000000000E+020
  9
$PEXTMAX
 10
-1.0000000000000000E+020
 20
-1.0000000000000000E+020
 30
-1.0000000000000000E+020
  9
$PLIMMIN
 10
0.0
 20
0.0
  9
$PLIMMAX
 10
12.0
 20
9.0
  9
$UNITMODE
 70
     0
  9
$VISRETAIN
 70
     0
  9
$PLINEGEN
 70
     0
  9
$PSLTSCALE
 70
     0
  0
ENDSEC
  0
SECTION
  2
TABLES
  0
TABLE
  2
VPORT
 70
     1
  0
VPORT
  2
*ACTIVE
 70
     0
 10
0.0
 20
0.0
 11
1.0
 21
1.0
 12
159.75756828231559
 22
128.52134860015539
 13
0.0
 23
0.0
 14
10.0
 24
10.0
 15
10.0
 25
10.0
 16
0.0
 26
0.0
 36
1.0
 17
0.0
 27
0.0
 37
0.0
 40
266.99837052583172
 41
2.0984455958549222
 42
50.0
 43
0.0
 44
0.0
 50
0.0
 51
0.0
 71
     0
 72
   500
 73
     1
 74
     0
 75
     0
 76
     0
 77
     0
 78
     2
  0
ENDTAB
  0
TABLE
  2
LTYPE
 70
     4
  0
LTYPE
  2
CONTINUOUS
 70
     0
  3
Solid Line
 72
    65
 73
     0
 40
0.0
  0
LTYPE
  2
CENTER
 70
     0
  3
____ _ ____ _ ____ _ ____ _ ____ _ ____ _ ____
 72
    65
 73
     4
 40
2.0
 49
1.25
 49
-0.25
 49
0.25
 49
-0.25
  0
LTYPE
  2
PHANTOM2
 70
     0
  3
___ _ _ ___ _ _ ___ _ _ ___ _ _
 72
    65
 73
     6
 40
1.25
 49
0.625
 49
-0.125
 49
0.125
 49
-0.125
 49
0.125
 49
-0.125
  0
LTYPE
  2
HIDDEN
 70
     0
  3
Hidden __ __ __ __ __ __ __ __ __ __ __ __ __ __
 72
    65
 73
     2
 40
1.905
 49
1.27
 49
-0.635
  0
ENDTAB
  0
TABLE
  2
LAYER
 70
     4
  0
LAYER
  2
0
 70
     0
 62
     7
  6
CONTINUOUS
  0
LAYER
  2
1
 70
     0
 62
     1
  6
CENTER
  0
LAYER
  2
3
 70
     0
 62
     3
  6
CONTINUOUS
  0
LAYER
  2
2
 70
     0
 62
     2
  6
HIDDEN
  0
ENDTAB
  0
TABLE
  2
STYLE
 70
     3
  0
STYLE
  2
STANDARD
 70
     0
 40
0.0
 41
1.0
 50
0.0
 71
     0
 42
2.0000000000000502
  3
TXT
  4
BIGFONT
  0
STYLE
  2
SIM180
 70
     0
 40
0.0
 41
1.8
 50
0.0
 71
     0
 42
0.8
  3
SIMPLEX
  4

  0
STYLE
  2
STANDARD1
 70
     0
 40
0.0
 41
1.0
 50
0.0
 71
     0
 42
3.0
  3
txt
  4

  0
ENDTAB
  0
TABLE
  2
VIEW
 70
     1
  0
VIEW
  2
ALL
 70
     0
 40
270.0
 10
220.99159663865549
 20
135.0
 41
0.0
 11
0.0
 21
0.0
 31
1.0
 12
0.0
 22
0.0
 32
0.0
 42
0.0
 43
0.0
 44
0.0
 50
0.0
 71
     0
  0
ENDTAB
  0
TABLE
  2
UCS
 70
     0
  0
ENDTAB
  0
TABLE
  2
APPID
 70
     4
  0
APPID
  2
ACAD
 70
     0
  0
APPID
  2
ACAD_MLEADERVER
 70
     0
  0
APPID
  2
ACAD_EXEMPT_FROM_CAD_STANDARDS
 70
     0
  0
APPID
  2
ACAD_NAV_VCDISPLAY
 70
     0
  0
ENDTAB
  0
TABLE
  2
DIMSTYLE
 70
     2
  0
DIMSTYLE
  2
STANDARD
 70
     0
  3

  4

  5

  6

  7

 40
1.0
 41
0.18
 42
0.0625
 43
0.38
 44
0.18
 45
0.0
 46
0.0
 47
0.0
 48
0.0
140
0.18
141
0.09
142
0.0
143
25.399999999999999
144
1.0
145
0.0
146
1.0
147
0.09
 71
     0
 72
     0
 73
     1
 74
     1
 75
     0
 76
     0
 77
     0
 78
     0
170
     0
171
     2
172
     0
173
     0
174
     0
175
     0
176
     0
177
     0
178
     0
  0
DIMSTYLE
  2
ISO-25
 70
     0
  3

  4

  5

  6

  7

 40
1.0
 41
2.5
 42
0.625
 43
3.75
 44
1.25
 45
0.0
 46
0.0
 47
0.0
 48
0.0
140
2.5
141
2.5
142
0.0
143
0.0393700787
144
1.0
145
0.0
146
1.0
147
0.625
 71
     0
 72
     0
 73
     0
 74
     0
 75
     0
 76
     0
 77
     1
 78
     8
170
     0
171
     3
172
     1
173
     0
174
     0
175
     0
176
     0
177
     0
178
     0
  0
ENDTAB
  0
ENDSEC
  0
SECTION
  2
BLOCKS
  0
BLOCK
  8
0
  2
$MODEL_SPACE
 70
     0
 10
0.0
 20
0.0
 30
0.0
  3
$MODEL_SPACE
  1

  0
ENDBLK
  5
11E
  8
0
  0
BLOCK
 67
     1
  8
0
  2
$PAPER_SPACE
 70
     0
 10
0.0
 20
0.0
 30
0.0
  3
$PAPER_SPACE
  1

  0
ENDBLK
  5
11C
 67
     1
  8
0
  0
ENDSEC
  0
SECTION
  2
ENTITIES
  0
TEXT
  5
20A
  8
0
 62
     3
 10
0.0
 20
0.0
 30
0.0
 40
10.0
  1
SPA-1
  7
STANDARD1
  0
LINE
  5
351
  8
0
 10
149.0000000000021
 20
10.0
 30
0.0
 11
158.800000000002
 21
10.0
 31
0.0
  0
LINE
  5
352
  8
0
 10
161.3539010481021
 20
46.624500000000012
 30
0.0
 11
160.5000000000021
 21
45.145499999999991
 31
0.0
  0
LINE
  5
353
  8
0
 10
160.5000000000021
 20
14.8545
 30
0.0
 11
161.3539010481021
 21
13.375500000000001
 31
0.0
  0
LINE
  5
354
  8
0
 10
169.521000000002
 20
13.375500000000001
 30
0.0
 11
171.0000000000021
 21
14.8545
 31
0.0
  0
LINE
  5
355
  8
0
 10
171.0000000000021
 20
45.145499999999991
 30
0.0
 11
169.52100000000209
 21
46.624500000000012
 31
0.0
  0
LINE
  5
356
  8
0
 10
161.3539010481021
 20
13.375500000000001
 30
0.0
 11
169.521000000002
 21
13.375500000000001
 31
0.0
  0
LINE
  5
357
  8
0
 10
169.52100000000209
 20
46.624500000000012
 30
0.0
 11
161.3539010481021
 21
46.624500000000012
 31
0.0
  0
LINE
  5
358
  8
0
 10
158.800000000002
 20
14.528571428599991
 30
0.0
 11
160.5000000000021
 21
15.5
 31
0.0
  0
LINE
  5
359
  8
0
 10
160.5000000000021
 20
44.5
 30
0.0
 11
158.80000000000209
 21
45.47142857139999
 31
0.0
  0
LINE
  5
35A
  8
0
 10
149.2545517328021
 20
25.401562274
 30
0.0
 11
156.2500000000021
 21
25.401562274
 31
0.0
  0
LINE
  5
35B
  8
0
 10
149.2545517328021
 20
34.598437726000007
 30
0.0
 11
149.2545517328021
 21
25.401562274
 31
0.0
  0
LINE
  5
35C
  8
0
 10
149.2545517328021
 20
34.598437726000007
 30
0.0
 11
156.2500000000021
 21
34.598437726000007
 31
0.0
  0
POLYLINE
  5
35D
  8
0
 66
     1
 10
0.0
 20
0.0
 30
0.0
 70
   128
  0
VERTEX
  5
6EF
  8
0
 10
149.2545517328021
 20
25.401562274
 30
0.0
  0
VERTEX
  5
6F0
  8
0
 10
149.06496343390211
 20
22.705086031499999
 30
0.0
  0
VERTEX
  5
6F1
  8
0
 10
149.0000000000021
 20
20.0
 30
0.0
  0
SEQEND
  5
6F2
  8
0
  0
POLYLINE
  5
35E
  8
0
 66
     1
 10
0.0
 20
0.0
 30
0.0
 70
   128
  0
VERTEX
  5
6F3
  8
0
 10
149.0000000000021
 20
40.0
 30
0.0
  0
VERTEX
  5
6F4
  8
0
 10
149.06475806520211
 20
37.299218863
 30
0.0
  0
VERTEX
  5
6F5
  8
0
 10
149.2545517328021
 20
34.598437726000007
 30
0.0
  0
SEQEND
  5
6F6
  8
0
  0
LINE
  5
35F
  8
0
 10
149.2545517328021
 20
14.598437726
 30
0.0
 11
156.2500000000021
 21
14.598437726
 31
0.0
  0
POLYLINE
  5
360
  8
0
 66
     1
 10
0.0
 20
0.0
 30
0.0
 70
   128
  0
VERTEX
  5
6F7
  8
0
 10
149.0000000000021
 20
20.0
 30
0.0
  0
VERTEX
  5
6F8
  8
0
 10
149.06475806520211
 20
17.299218862999989
 30
0.0
  0
VERTEX
  5
6F9
  8
0
 10
149.2545517328021
 20
14.598437726
 30
0.0
  0
SEQEND
  5
6FA
  8
0
  0
POLYLINE
  5
361
  8
0
 66
     1
 10
0.0
 20
0.0
 30
0.0
 70
   128
  0
VERTEX
  5
6FB
  8
0
 10
149.2545517328021
 20
45.401562273999978
 30
0.0
  0
VERTEX
  5
6FC
  8
0
 10
149.06496343390211
 20
42.705086031500002
 30
0.0
  0
VERTEX
  5
6FD
  8
0
 10
149.0000000000021
 20
40.0
 30
0.0
  0
SEQEND
  5
6FE
  8
0
  0
LINE
  5
362
  8
0
 10
149.2545517328021
 20
45.401562273999978
 30
0.0
 11
156.2500000000021
 21
45.401562273999978
 31
0.0
  0
LINE
  5
363
  8
0
 10
158.80000000000209
 20
50.0
 30
0.0
 11
158.800000000002
 21
10.0
 31
0.0
  0
LINE
  5
364
  8
0
 10
149.2545517328021
 20
14.598437726
 30
0.0
 11
149.2545517328021
 21
10.0
 31
0.0
  0
LINE
  5
365
  8
0
 10
149.2545517328021
 20
50.0
 30
0.0
 11
149.2545517328021
 21
45.401562273999978
 31
0.0
  0
LINE
  5
366
  8
0
 10
149.0000000000021
 20
10.0
 30
0.0
 11
149.0000000000021
 21
50.0
 31
0.0
  0
LINE
  5
367
  8
0
 10
160.5000000000021
 20
14.8545
 30
0.0
 11
160.5000000000021
 21
45.145499999999991
 31
0.0
  0
LINE
  5
368
  8
0
 10
161.3539010481021
 20
46.624500000000012
 30
0.0
 11
161.3539010481021
 21
13.375500000000001
 31
0.0
  0
LINE
  5
369
  8
0
 10
169.521000000002
 20
13.375500000000001
 30
0.0
 11
169.52100000000209
 21
46.624500000000012
 31
0.0
  0
LINE
  5
36A
  8
0
 10
171.0000000000021
 20
45.145499999999991
 30
0.0
 11
171.0000000000021
 21
14.8545
 31
0.0
  0
LINE
  5
36B
  8
0
 10
156.2500000000021
 20
50.0
 30
0.0
 11
156.2500000000021
 21
10.0
 31
0.0
  0
LINE
  5
36C
  8
0
 10
149.0000000000021
 20
50.0
 30
0.0
 11
158.80000000000209
 21
50.0
 31
0.0
  0
LINE
  5
36D
  8
2
 10
164.0000000000021
 20
36.5
 30
0.0
 11
164.0000000000021
 21
23.5
 31
0.0
  0
LINE
  5
36E
  8
2
 10
171.0000000000021
 20
36.5
 30
0.0
 11
164.0000000000021
 21
36.5
 31
0.0
  0
LINE
  5
36F
  8
2
 10
164.0000000000021
 20
23.5
 30
0.0
 11
171.0000000000021
 21
23.5
 31
0.0
  0
LINE
  5
370
  8
2
 10
164.0000000000021
 20
36.5
 30
0.0
 11
160.09440597630211
 21
30.0
 31
0.0
  0
LINE
  5
371
  8
2
 10
160.09440597630211
 20
30.0
 30
0.0
 11
164.0000000000021
 21
23.5
 31
0.0
  0
ARC
  5
372
  8
0
 10
55.000000000002132
 20
135.00000000002501
 30
0.0
 40
20.949999999999971
 50
257.32057735479958
 51
282.67942264520042
  0
LINE
  5
373
  8
0
 10
50.401562274002117
 20
114.56089849132501
 30
0.0
 11
39.598437726002551
 21
120.7980853572695
 31
0.0
  0
ARC
  5
374
  8
0
 10
55.000000000002132
 20
135.00000000002501
 30
0.0
 40
20.949999999999982
 50
317.32057735479867
 51
342.6794226452011
  0
LINE
  5
375
  8
0
 10
70.401562274002146
 20
120.79808535722501
 30
0.0
 11
59.598437726006487
 21
114.56089849139551
 31
0.0
  0
ARC
  5
376
  8
0
 10
55.000000000002132
 20
135.00000000002501
 30
0.0
 40
20.949999999999999
 50
197.3205773547989
 51
222.6794226452013
  0
LINE
  5
377
  8
0
 10
35.000000000002132
 20
128.762813134125
 30
0.0
 11
34.999999999997868
 21
141.23718686589879
 31
0.0
  0
ARC
  5
378
  8
0
 10
55.000000000002132
 20
135.00000000002501
 30
0.0
 40
20.949999999999999
 50
137.3205773547987
 51
162.6794226452011
  0
LINE
  5
379
  8
0
 10
39.598437726002153
 20
149.201914642725
 30
0.0
 11
50.401562273997762
 21
155.43910150865449
 31
0.0
  0
ARC
  5
37A
  8
0
 10
55.000000000002132
 20
135.00000000002501
 30
0.0
 40
20.949999999999999
 50
17.320577354798889
 51
42.679422645201299
  0
LINE
  5
37B
  8
0
 10
75.000000000002132
 20
141.23718686582501
 30
0.0
 11
75.000000000006395
 21
128.7628131341512
 31
0.0
  0
ARC
  5
37C
  8
0
 10
55.000000000002132
 20
135.00000000002501
 30
0.0
 40
20.949999999999989
 50
77.320577354799624
 51
102.6794226452004
  0
LINE
  5
37D
  8
0
 10
59.598437726002118
 20
155.43910150862499
 30
0.0
 11
70.401562274001733
 21
149.20191464278039
 31
0.0
  0
LINE
  5
37E
  8
0
 10
156.2500000000021
 20
115.0
 30
0.0
 11
158.80000000000209
 21
115.0
 31
0.0
  0
LINE
  5
37F
  8
0
 10
158.80000000000209
 20
155.0
 30
0.0
 11
156.2500000000021
 21
155.0
 31
0.0
  0
LINE
  5
380
  8
0
 10
161.3539010481021
 20
118.3755
 30
0.0
 11
169.52100000000209
 21
118.3755
 31
0.0
  0
LINE
  5
381
  8
0
 10
169.52100000000209
 20
151.62450000000001
 30
0.0
 11
161.3539010481021
 21
151.62450000000001
 31
0.0
  0
LINE
  5
382
  8
0
 10
161.3539010481021
 20
151.62450000000001
 30
0.0
 11
160.5000000000021
 21
150.1455
 31
0.0
  0
LINE
  5
383
  8
0
 10
160.5000000000021
 20
119.8545
 30
0.0
 11
161.3539010481021
 21
118.3755
 31
0.0
  0
LINE
  5
384
  8
0
 10
169.52100000000209
 20
118.3755
 30
0.0
 11
171.0000000000021
 21
119.8545
 31
0.0
  0
LINE
  5
385
  8
0
 10
171.0000000000021
 20
150.1455
 30
0.0
 11
169.52100000000209
 21
151.62450000000001
 31
0.0
  0
LINE
  5
386
  8
0
 10
158.80000000000209
 20
119.5285714286
 30
0.0
 11
160.5000000000021
 21
120.5
 31
0.0
  0
LINE
  5
387
  8
0
 10
160.5000000000021
 20
149.5
 30
0.0
 11
158.80000000000209
 21
150.4714285714
 31
0.0
  0
LINE
  5
388
  8
0
 10
149.2545517328021
 20
155.94999999999999
 30
0.0
 11
149.0000000000021
 21
155.0
 31
0.0
  0
LINE
  5
389
  8
0
 10
149.0000000000021
 20
115.0
 30
0.0
 11
149.2545517328021
 21
114.05
 31
0.0
  0
LINE
  5
38A
  8
0
 10
156.2500000000021
 20
155.94999999999999
 30
0.0
 11
149.2545517328021
 21
155.94999999999999
 31
0.0
  0
LINE
  5
38B
  8
0
 10
149.2545517328021
 20
114.05
 30
0.0
 11
156.2500000000021
 21
114.05
 31
0.0
  0
LINE
  5
38C
  8
0
 10
158.80000000000209
 20
155.0
 30
0.0
 11
158.80000000000209
 21
115.0
 31
0.0
  0
LINE
  5
38D
  8
0
 10
149.2545517328021
 20
149.20191464269999
 30
0.0
 11
149.2545517328021
 21
141.23718686589999
 31
0.0
  0
POLYLINE
  5
38E
  8
0
 66
     1
 10
0.0
 20
0.0
 30
0.0
 70
   128
  0
VERTEX
  5
6FF
  8
0
 10
149.2545517328021
 20
141.23718686589999
 30
0.0
  0
VERTEX
  5
700
  8
0
 10
149.06496343390211
 20
138.12356429699989
 30
0.0
  0
VERTEX
  5
701
  8
0
 10
149.0000000000021
 20
135.0
 30
0.0
  0
SEQEND
  5
702
  8
0
  0
POLYLINE
  5
38F
  8
0
 66
     1
 10
0.0
 20
0.0
 30
0.0
 70
   128
  0
VERTEX
  5
703
  8
0
 10
149.0000000000021
 20
152.32050807569999
 30
0.0
  0
VERTEX
  5
704
  8
0
 10
149.06475806520211
 20
150.76121135919999
 30
0.0
  0
VERTEX
  5
705
  8
0
 10
149.2545517328021
 20
149.20191464269999
 30
0.0
  0
SEQEND
  5
706
  8
0
  0
LINE
  5
390
  8
0
 10
149.2545517328021
 20
141.23718686589999
 30
0.0
 11
156.2500000000021
 21
141.23718686589999
 31
0.0
  0
LINE
  5
391
  8
0
 10
149.2545517328021
 20
149.20191464269999
 30
0.0
 11
156.2500000000021
 21
149.20191464269999
 31
0.0
  0
LINE
  5
392
  8
0
 10
149.2545517328021
 20
128.76281313410001
 30
0.0
 11
156.2500000000021
 21
128.76281313410001
 31
0.0
  0
POLYLINE
  5
393
  8
0
 66
     1
 10
0.0
 20
0.0
 30
0.0
 70
   128
  0
VERTEX
  5
707
  8
0
 10
149.0000000000021
 20
135.0
 30
0.0
  0
VERTEX
  5
708
  8
0
 10
149.06475806520211
 20
131.88140656709999
 30
0.0
  0
VERTEX
  5
709
  8
0
 10
149.2545517328021
 20
128.76281313410001
 30
0.0
  0
SEQEND
  5
70A
  8
0
  0
LINE
  5
394
  8
0
 10
149.2545517328021
 20
128.76281313410001
 30
0.0
 11
149.2545517328021
 21
120.79808535719999
 31
0.0
  0
POLYLINE
  5
395
  8
0
 66
     1
 10
0.0
 20
0.0
 30
0.0
 70
   128
  0
VERTEX
  5
70B
  8
0
 10
149.2545517328021
 20
120.79808535719999
 30
0.0
  0
VERTEX
  5
70C
  8
0
 10
149.06496343390211
 20
119.2412740728
 30
0.0
  0
VERTEX
  5
70D
  8
0
 10
149.0000000000021
 20
117.6794919243
 30
0.0
  0
SEQEND
  5
70E
  8
0
  0
LINE
  5
396
  8
0
 10
149.2545517328021
 20
120.79808535719999
 30
0.0
 11
156.2500000000021
 21
120.79808535719999
 31
0.0
  0
LINE
  5
397
  8
0
 10
169.52100000000209
 20
118.3755
 30
0.0
 11
169.52100000000209
 21
151.62450000000001
 31
0.0
  0
LINE
  5
398
  8
0
 10
161.3539010481021
 20
151.62450000000001
 30
0.0
 11
161.3539010481021
 21
118.3755
 31
0.0
  0
LINE
  5
399
  8
0
 10
160.5000000000021
 20
119.8545
 30
0.0
 11
160.5000000000021
 21
150.1455
 31
0.0
  0
LINE
  5
39A
  8
0
 10
171.0000000000021
 20
150.1455
 30
0.0
 11
171.0000000000021
 21
119.8545
 31
0.0
  0
POLYLINE
  5
39B
  8
0
 66
     1
 10
0.0
 20
0.0
 30
0.0
 70
   128
  0
VERTEX
  5
70F
  8
0
 10
149.2545517328021
 20
155.4391015086
 30
0.0
  0
VERTEX
  5
710
  8
0
 10
149.06496343390211
 20
153.88229022420001
 30
0.0
  0
VERTEX
  5
711
  8
0
 10
149.0000000000021
 20
152.32050807569999
 30
0.0
  0
SEQEND
  5
712
  8
0
  0
LINE
  5
39C
  8
0
 10
149.2545517328021
 20
155.4391015086
 30
0.0
 11
156.2500000000021
 21
155.4391015086
 31
0.0
  0
LINE
  5
39D
  8
0
 10
149.2545517328021
 20
114.5608984914
 30
0.0
 11
156.2500000000021
 21
114.5608984914
 31
0.0
  0
POLYLINE
  5
39E
  8
0
 66
     1
 10
0.0
 20
0.0
 30
0.0
 70
   128
  0
VERTEX
  5
713
  8
0
 10
149.0000000000021
 20
117.6794919243
 30
0.0
  0
VERTEX
  5
714
  8
0
 10
149.06475806520211
 20
116.12019520779999
 30
0.0
  0
VERTEX
  5
715
  8
0
 10
149.2545517328021
 20
114.5608984914
 30
0.0
  0
SEQEND
  5
716
  8
0
  0
LINE
  5
39F
  8
0
 10
149.2545517328021
 20
155.94999999999999
 30
0.0
 11
149.2545517328021
 21
155.4391015086
 31
0.0
  0
LINE
  5
3A0
  8
0
 10
149.0000000000021
 20
115.0
 30
0.0
 11
149.0000000000021
 21
155.0
 31
0.0
  0
LINE
  5
3A1
  8
0
 10
149.2545517328021
 20
114.5608984914
 30
0.0
 11
149.2545517328021
 21
114.05
 31
0.0
  0
LINE
  5
3A2
  8
0
 10
156.2500000000021
 20
155.94999999999999
 30
0.0
 11
156.2500000000021
 21
114.05
 31
0.0
  0
LINE
  5
3A3
  8
2
 10
164.0000000000021
 20
141.5
 30
0.0
 11
164.0000000000021
 21
128.5
 31
0.0
  0
LINE
  5
3A4
  8
2
 10
171.0000000000021
 20
141.5
 30
0.0
 11
164.0000000000021
 21
141.5
 31
0.0
  0
LINE
  5
3A5
  8
2
 10
164.0000000000021
 20
128.5
 30
0.0
 11
171.0000000000021
 21
128.5
 31
0.0
  0
LINE
  5
3A6
  8
2
 10
164.0000000000021
 20
141.5
 30
0.0
 11
160.09440597630211
 21
135.0
 31
0.0
  0
LINE
  5
3A7
  8
2
 10
160.09440597630211
 20
135.0
 30
0.0
 11
164.0000000000021
 21
128.5
 31
0.0
  0
CIRCLE
  5
3A8
  8
0
 10
55.000000000002132
 20
135.00000000002501
 30
0.0
 40
20.0
  0
LINE
  5
3BF
  8
1
 10
30.0
 20
135.0000000000102
 30
0.0
 11
80.000000000004263
 21
134.9999999999898
 31
0.0
  0
LINE
  5
3C0
  8
1
 10
55.000000000002132
 20
160.950000000025
 30
0.0
 11
55.000000000002132
 21
109.05000000002499
 31
0.0
  0
LINE
  5
3C1
  8
1
 10
144.0000000000021
 20
135.0
 30
0.0
 11
176.0000000000021
 21
135.0
 31
0.0
  0
LINE
  5
3C2
  8
3
 10
160.5000000000021
 20
119.8545000000001
 30
0.0
 11
171.0000000000021
 21
119.8545000000001
 31
0.0
  0
LINE
  5
3C3
  8
3
 10
160.5000000000021
 20
150.14549999999991
 30
0.0
 11
171.0000000000021
 21
150.1455
 31
0.0
  0
LINE
  5
3C4
  8
1
 10
144.0000000000021
 20
30.0
 30
0.0
 11
176.0000000000021
 21
30.0
 31
0.0
  0
LINE
  5
3C5
  8
3
 10
160.5000000000021
 20
14.85450000000016
 30
0.0
 11
171.0000000000021
 21
14.85450000000009
 31
0.0
  0
LINE
  5
3C6
  8
3
 10
160.5000000000021
 20
45.145499999999942
 30
0.0
 11
171.0000000000021
 21
45.14550000000002
 31
0.0
  0
LINE
  5
3C7
  8
0
 10
149.0000000000021
 20
260.0
 30
0.0
 11
158.80000000000209
 21
260.0
 31
0.0
  0
LINE
  5
3C8
  8
0
 10
161.3539010481021
 20
223.37549999999999
 30
0.0
 11
160.5000000000021
 21
224.8545
 31
0.0
  0
LINE
  5
3C9
  8
0
 10
160.5000000000021
 20
255.1455
 30
0.0
 11
161.3539010481021
 21
256.62450000000001
 31
0.0
  0
LINE
  5
3CA
  8
0
 10
169.52100000000209
 20
256.62450000000001
 30
0.0
 11
171.0000000000021
 21
255.1455
 31
0.0
  0
LINE
  5
3CB
  8
0
 10
171.0000000000021
 20
224.8545
 30
0.0
 11
169.52100000000209
 21
223.37549999999999
 31
0.0
  0
LINE
  5
3CC
  8
0
 10
161.3539010481021
 20
256.62450000000001
 30
0.0
 11
169.52100000000209
 21
256.62450000000001
 31
0.0
  0
LINE
  5
3CD
  8
0
 10
169.52100000000209
 20
223.37549999999999
 30
0.0
 11
161.3539010481021
 21
223.37549999999999
 31
0.0
  0
LINE
  5
3CE
  8
0
 10
158.80000000000209
 20
255.4714285714
 30
0.0
 11
160.5000000000021
 21
254.5
 31
0.0
  0
LINE
  5
3CF
  8
0
 10
160.5000000000021
 20
225.5
 30
0.0
 11
158.80000000000209
 21
224.5285714286
 31
0.0
  0
LINE
  5
3D0
  8
0
 10
149.2545517328021
 20
244.59843772599999
 30
0.0
 11
156.2500000000021
 21
244.59843772599999
 31
0.0
  0
LINE
  5
3D1
  8
0
 10
149.2545517328021
 20
235.40156227400001
 30
0.0
 11
149.2545517328021
 21
244.59843772599999
 31
0.0
  0
LINE
  5
3D2
  8
0
 10
149.2545517328021
 20
235.40156227400001
 30
0.0
 11
156.2500000000021
 21
235.40156227400001
 31
0.0
  0
POLYLINE
  5
3D3
  8
0
 66
     1
 10
0.0
 20
0.0
 30
0.0
 70
   128
  0
VERTEX
  5
717
  8
0
 10
149.2545517328021
 20
244.59843772599999
 30
0.0
  0
VERTEX
  5
718
  8
0
 10
149.06496343390211
 20
247.2949139685
 30
0.0
  0
VERTEX
  5
719
  8
0
 10
149.0000000000021
 20
250.0
 30
0.0
  0
SEQEND
  5
71A
  8
0
  0
POLYLINE
  5
3D4
  8
0
 66
     1
 10
0.0
 20
0.0
 30
0.0
 70
   128
  0
VERTEX
  5
71B
  8
0
 10
149.0000000000021
 20
230.0
 30
0.0
  0
VERTEX
  5
71C
  8
0
 10
149.06475806520211
 20
232.70078113700001
 30
0.0
  0
VERTEX
  5
71D
  8
0
 10
149.2545517328021
 20
235.40156227400001
 30
0.0
  0
SEQEND
  5
71E
  8
0
  0
LINE
  5
3D5
  8
0
 10
149.2545517328021
 20
255.40156227400001
 30
0.0
 11
156.2500000000021
 21
255.40156227400001
 31
0.0
  0
POLYLINE
  5
3D6
  8
0
 66
     1
 10
0.0
 20
0.0
 30
0.0
 70
   128
  0
VERTEX
  5
71F
  8
0
 10
149.0000000000021
 20
250.0
 30
0.0
  0
VERTEX
  5
720
  8
0
 10
149.06475806520211
 20
252.70078113700001
 30
0.0
  0
VERTEX
  5
721
  8
0
 10
149.2545517328021
 20
255.40156227400001
 30
0.0
  0
SEQEND
  5
722
  8
0
  0
POLYLINE
  5
3D7
  8
0
 66
     1
 10
0.0
 20
0.0
 30
0.0
 70
   128
  0
VERTEX
  5
723
  8
0
 10
149.2545517328021
 20
224.59843772599999
 30
0.0
  0
VERTEX
  5
724
  8
0
 10
149.06496343390211
 20
227.2949139685
 30
0.0
  0
VERTEX
  5
725
  8
0
 10
149.0000000000021
 20
230.0
 30
0.0
  0
SEQEND
  5
726
  8
0
  0
LINE
  5
3D8
  8
0
 10
149.2545517328021
 20
224.59843772599999
 30
0.0
 11
156.2500000000021
 21
224.59843772599999
 31
0.0
  0
LINE
  5
3D9
  8
0
 10
158.80000000000209
 20
220.0
 30
0.0
 11
158.80000000000209
 21
260.0
 31
0.0
  0
LINE
  5
3DA
  8
0
 10
149.2545517328021
 20
255.40156227400001
 30
0.0
 11
149.2545517328021
 21
260.0
 31
0.0
  0
LINE
  5
3DB
  8
0
 10
149.2545517328021
 20
220.0
 30
0.0
 11
149.2545517328021
 21
224.59843772599999
 31
0.0
  0
LINE
  5
3DC
  8
0
 10
149.0000000000021
 20
260.0
 30
0.0
 11
149.0000000000021
 21
220.0
 31
0.0
  0
LINE
  5
3DD
  8
0
 10
160.5000000000021
 20
255.1455
 30
0.0
 11
160.5000000000021
 21
224.8545
 31
0.0
  0
LINE
  5
3DE
  8
0
 10
161.3539010481021
 20
223.37549999999999
 30
0.0
 11
161.3539010481021
 21
256.62450000000001
 31
0.0
  0
LINE
  5
3DF
  8
0
 10
169.52100000000209
 20
256.62450000000001
 30
0.0
 11
169.52100000000209
 21
223.37549999999999
 31
0.0
  0
LINE
  5
3E0
  8
0
 10
171.0000000000021
 20
224.8545
 30
0.0
 11
171.0000000000021
 21
255.1455
 31
0.0
  0
LINE
  5
3E1
  8
0
 10
156.2500000000021
 20
220.0
 30
0.0
 11
156.2500000000021
 21
260.0
 31
0.0
  0
LINE
  5
3E2
  8
0
 10
149.0000000000021
 20
220.0
 30
0.0
 11
158.80000000000209
 21
220.0
 31
0.0
  0
LINE
  5
3E3
  8
2
 10
164.0000000000021
 20
233.5
 30
0.0
 11
164.0000000000021
 21
246.5
 31
0.0
  0
LINE
  5
3E4
  8
2
 10
171.0000000000021
 20
233.5
 30
0.0
 11
164.0000000000021
 21
233.5
 31
0.0
  0
LINE
  5
3E5
  8
2
 10
164.0000000000021
 20
246.5
 30
0.0
 11
171.0000000000021
 21
246.5
 31
0.0
  0
LINE
  5
3E6
  8
2
 10
164.0000000000021
 20
233.5
 30
0.0
 11
160.09440597630211
 21
240.0
 31
0.0
  0
LINE
  5
3E7
  8
2
 10
160.09440597630211
 20
240.0
 30
0.0
 11
164.0000000000021
 21
246.5
 31
0.0
  0
LINE
  5
3E8
  8
1
 10
144.0000000000021
 20
240.0
 30
0.0
 11
176.0000000000021
 21
240.0
 31
0.0
  0
LINE
  5
3E9
  8
3
 10
160.5000000000021
 20
255.1454999999998
 30
0.0
 11
171.0000000000021
 21
255.14549999999991
 31
0.0
  0
LINE
  5
3EA
  8
3
 10
160.5000000000021
 20
224.8545
 30
0.0
 11
171.0000000000021
 21
224.8545
 31
0.0
  0
CIRCLE
  5
435
  8
0
 10
265.00000000000222
 20
135.00000000002501
 30
0.0
 40
16.624500000000001
  0
CIRCLE
  5
436
  8
3
 10
265.00000000000222
 20
135.00000000002501
 30
0.0
 40
15.145499999999981
  0
CIRCLE
  5
437
  8
0
 10
265.00000000000222
 20
135.00000000002501
 30
0.0
 40
6.4999999999999858
  0
ARC
  5
438
  8
0
 10
265.00000000000222
 20
135.00000000002501
 30
0.0
 40
20.949999999999971
 50
257.32057735479958
 51
282.67942264520042
  0
LINE
  5
439
  8
0
 10
260.40156227400212
 20
114.56089849132501
 30
0.0
 11
249.5984377260026
 21
120.7980853572695
 31
0.0
  0
ARC
  5
43A
  8
0
 10
265.00000000000222
 20
135.00000000002501
 30
0.0
 40
20.949999999999982
 50
317.32057735479867
 51
342.6794226452015
  0
LINE
  5
43B
  8
0
 10
280.40156227400212
 20
120.79808535722501
 30
0.0
 11
269.59843772600652
 21
114.56089849139551
 31
0.0
  0
ARC
  5
43C
  8
0
 10
265.00000000000222
 20
135.00000000002501
 30
0.0
 40
20.949999999999999
 50
197.3205773547983
 51
222.6794226452013
  0
LINE
  5
43D
  8
0
 10
245.0000000000021
 20
128.762813134125
 30
0.0
 11
244.9999999999979
 21
141.23718686589879
 31
0.0
  0
ARC
  5
43E
  8
0
 10
265.00000000000222
 20
135.00000000002501
 30
0.0
 40
20.949999999999999
 50
137.3205773547987
 51
162.6794226452011
  0
LINE
  5
43F
  8
0
 10
249.59843772600209
 20
149.201914642725
 30
0.0
 11
260.4015622739978
 21
155.43910150865449
 31
0.0
  0
ARC
  5
440
  8
0
 10
265.00000000000222
 20
135.00000000002501
 30
0.0
 40
20.949999999999999
 50
17.320577354798498
 51
42.679422645201299
  0
LINE
  5
441
  8
0
 10
285.00000000000222
 20
141.23718686582501
 30
0.0
 11
285.00000000000631
 21
128.7628131341512
 31
0.0
  0
ARC
  5
442
  8
0
 10
265.00000000000222
 20
135.00000000002501
 30
0.0
 40
20.949999999999989
 50
77.320577354799624
 51
102.6794226452004
  0
LINE
  5
443
  8
0
 10
269.59843772600209
 20
155.43910150862499
 30
0.0
 11
280.40156227400178
 21
149.20191464278039
 31
0.0
  0
CIRCLE
  5
444
  8
0
 10
265.00000000000222
 20
135.00000000002501
 30
0.0
 40
20.0
  0
LINE
  5
445
  8
1
 10
240.0
 20
135.0000000000102
 30
0.0
 11
290.00000000000421
 21
134.9999999999898
 31
0.0
  0
LINE
  5
446
  8
1
 10
265.00000000000222
 20
160.950000000025
 30
0.0
 11
265.00000000000222
 21
109.05000000002499
 31
0.0
  0
LINE
  5
4DC
  8
0
 10
157.0000000000021
 20
155.0
 30
0.0
 11
157.0000000000021
 21
115.0
 31
0.0
  0
LINE
  5
4DD
  8
0
 10
157.0000000000021
 20
260.0
 30
0.0
 11
157.0000000000021
 21
220.0
 31
0.0
  0
LINE
  5
4DE
  8
0
 10
157.0000000000021
 20
50.0
 30
0.0
 11
157.0000000000021
 21
10.0
 31
0.0
  0
ENDSEC
  0
EOF
