  0
SECTION
  2
HEADER
  9
$ACADVER
  1
AC1009
  9
$INSBASE
 10
0.0
 20
0.0
 30
0.0
  9
$EXTMIN
 10
0.0
 20
-2.960436562073669
 30
0.0
  9
$EXTMAX
 10
331.05147743077049
 20
353.03184594679442
 30
0.0
  9
$LIMMIN
 10
0.0
 20
0.0
  9
$LIMMAX
 10
375.0
 20
270.0
  9
$ORTHOMODE
 70
     1
  9
$REGENMODE
 70
     1
  9
$FILLMODE
 70
     1
  9
$QTEXTMODE
 70
     0
  9
$MIRRTEXT
 70
     0
  9
$DRAGMODE
 70
     2
  9
$LTSCALE
 40
10.0
  9
$OSMODE
 70
    55
  9
$ATTMODE
 70
     1
  9
$TEXTSIZE
 40
4.000000000000048
  9
$TRACEWID
 40
0.05
  9
$TEXTSTYLE
  7
STANDARD
  9
$CLAYER
  8
0
  9
$CELTYPE
  6
BYLAYER
  9
$CECOLOR
 62
   256
  9
$DIMSCALE
 40
1.0
  9
$DIMASZ
 40
3.0
  9
$DIMEXO
 40
2.0
  9
$DIMDLI
 40
0.38
  9
$DIMRND
 40
0.0
  9
$DIMDLE
 40
0.0
  9
$DIMEXE
 40
2.0
  9
$DIMTP
 40
0.0
  9
$DIMTM
 40
0.0
  9
$DIMTXT
 40
3.2000000000000002
  9
$DIMCEN
 40
0.0
  9
$DIMTSZ
 40
0.0
  9
$DIMTOL
 70
     0
  9
$DIMLIM
 70
     0
  9
$DIMTIH
 70
     0
  9
$DIMTOH
 70
     0
  9
$DIMSE1
 70
     0
  9
$DIMSE2
 70
     0
  9
$DIMTAD
 70
     1
  9
$DIMZIN
 70
     0
  9
$DIMBLK
  1

  9
$DIMASO
 70
     0
  9
$DIMSHO
 70
     0
  9
$DIMPOST
  1

  9
$DIMAPOST
  1

  9
$DIMALT
 70
     0
  9
$DIMALTD
 70
     2
  9
$DIMALTF
 40
25.399999999999999
  9
$DIMLFAC
 40
1.0
  9
$DIMTOFL
 70
     0
  9
$DIMTVP
 40
1.6000000000000001
  9
$DIMTIX
 70
     1
  9
$DIMSOXD
 70
     0
  9
$DIMSAH
 70
     0
  9
$DIMBLK1
  1

  9
$DIMBLK2
  1

  9
$DIMSTYLE
  2
STANDARD
  9
$DIMCLRD
 70
     4
  9
$DIMCLRE
 70
     4
  9
$DIMCLRT
 70
     4
  9
$DIMTFAC
 40
1.0
  9
$DIMGAP
 40
0.09
  9
$LUNITS
 70
     2
  9
$LUPREC
 70
     1
  9
$SKETCHINC
 40
0.1
  9
$FILLETRAD
 40
0.0
  9
$AUNITS
 70
     0
  9
$AUPREC
 70
     0
  9
$MENU
  1
E:\r13\win\SUPPORT\ACAD
  9
$ELEVATION
 40
0.0
  9
$PELEVATION
 40
0.0
  9
$THICKNESS
 40
0.0
  9
$LIMCHECK
 70
     0
  9
$BLIPMODE
 70
     0
  9
$CHAMFERA
 40
1.1999999999999991
  9
$CHAMFERB
 40
1.1999999999999991
  9
$SKPOLY
 70
     0
  9
$TDCREATE
 40
2450095.671215394
  9
$TDUPDATE
 40
2456598.5450363541
  9
$TDINDWG
 40
0.0077263773
  9
$TDUSRTIMER
 40
0.0077263773
  9
$USRTIMER
 70
     1
  9
$ANGBASE
 50
0.0
  9
$ANGDIR
 70
     0
  9
$PDMODE
 70
     0
  9
$PDSIZE
 40
0.0
  9
$PLINEWID
 40
0.0
  9
$COORDS
 70
     1
  9
$SPLFRAME
 70
     0
  9
$SPLINETYPE
 70
     6
  9
$SPLINESEGS
 70
     8
  9
$ATTDIA
 70
     0
  9
$ATTREQ
 70
     1
  9
$HANDLING
 70
     1
  9
$HANDSEED
  5
AEC
  9
$SURFTAB1
 70
     6
  9
$SURFTAB2
 70
     6
  9
$SURFTYPE
 70
     6
  9
$SURFU
 70
     6
  9
$SURFV
 70
     6
  9
$UCSNAME
  2

  9
$UCSORG
 10
0.0
 20
0.0
 30
0.0
  9
$UCSXDIR
 10
1.0
 20
0.0
 30
0.0
  9
$UCSYDIR
 10
0.0
 20
1.0
 30
0.0
  9
$PUCSNAME
  2

  9
$PUCSORG
 10
0.0
 20
0.0
 30
0.0
  9
$PUCSXDIR
 10
1.0
 20
0.0
 30
0.0
  9
$PUCSYDIR
 10
0.0
 20
1.0
 30
0.0
  9
$USERI1
 70
     0
  9
$USERI2
 70
     1
  9
$USERI3
 70
     0
  9
$USERI4
 70
     0
  9
$USERI5
 70
     0
  9
$USERR1
 40
0.0
  9
$USERR2
 40
0.0
  9
$USERR3
 40
0.0
  9
$USERR4
 40
0.0
  9
$USERR5
 40
0.0
  9
$WORLDVIEW
 70
     1
  9
$SHADEDGE
 70
     3
  9
$SHADEDIF
 70
    70
  9
$TILEMODE
 70
     1
  9
$MAXACTVP
 70
    16
  9
$PLIMCHECK
 70
     0
  9
$PEXTMIN
 10
1.0000000000000000E+020
 20
1.0000000000000000E+020
 30
1.0000000000000000E+020
  9
$PEXTMAX
 10
-1.0000000000000000E+020
 20
-1.0000000000000000E+020
 30
-1.0000000000000000E+020
  9
$PLIMMIN
 10
0.0
 20
0.0
  9
$PLIMMAX
 10
12.0
 20
9.0
  9
$UNITMODE
 70
     0
  9
$VISRETAIN
 70
     0
  9
$PLINEGEN
 70
     0
  9
$PSLTSCALE
 70
     0
  0
ENDSEC
  0
SECTION
  2
TABLES
  0
TABLE
  2
VPORT
 70
     1
  0
VPORT
  2
*ACTIVE
 70
     0
 10
0.0
 20
0.0
 11
1.0
 21
1.0
 12
187.49427839065231
 22
229.03411754185501
 13
0.0
 23
0.0
 14
10.0
 24
10.0
 15
10.0
 25
10.0
 16
0.0
 26
0.0
 36
1.0
 17
0.0
 27
0.0
 37
0.0
 40
468.1074428236559
 41
1.7807262569832401
 42
50.0
 43
0.0
 44
0.0
 50
0.0
 51
0.0
 71
     0
 72
   500
 73
     1
 74
     0
 75
     0
 76
     0
 77
     0
 78
     2
  0
ENDTAB
  0
TABLE
  2
LTYPE
 70
     3
  0
LTYPE
  2
CONTINUOUS
 70
     0
  3
Solid Line
 72
    65
 73
     0
 40
0.0
  0
LTYPE
  2
CENTER
 70
     0
  3
____ _ ____ _ ____ _ ____ _ ____ _ ____ _ ____
 72
    65
 73
     4
 40
2.0
 49
1.25
 49
-0.25
 49
0.25
 49
-0.25
  0
LTYPE
  2
PHANTOM2
 70
     0
  3
___ _ _ ___ _ _ ___ _ _ ___ _ _
 72
    65
 73
     6
 40
1.25
 49
0.625
 49
-0.125
 49
0.125
 49
-0.125
 49
0.125
 49
-0.125
  0
ENDTAB
  0
TABLE
  2
LAYER
 70
     4
  0
LAYER
  2
0
 70
     0
 62
     7
  6
CONTINUOUS
  0
LAYER
  2
1
 70
     0
 62
     1
  6
CENTER
  0
LAYER
  2
11
 70
     0
 62
     3
  6
CONTINUOUS
  0
LAYER
  2
DEFPOINTS
 70
     0
 62
     7
  6
CONTINUOUS
  0
ENDTAB
  0
TABLE
  2
STYLE
 70
     2
  0
STYLE
  2
STANDARD
 70
     0
 40
0.0
 41
1.0
 50
0.0
 71
     0
 42
4.000000000000048
  3
SIMPLEX
  4
BIGFONT
  0
STYLE
  2
STANDARD1
 70
     0
 40
0.0
 41
1.0
 50
0.0
 71
     0
 42
3.0
  3
txt
  4

  0
ENDTAB
  0
TABLE
  2
VIEW
 70
     1
  0
VIEW
  2
ALL
 70
     0
 40
270.0
 10
220.59941989218049
 20
135.0
 41
441.19883978436093
 11
0.0
 21
0.0
 31
1.0
 12
0.0
 22
0.0
 32
0.0
 42
50.0
 43
0.0
 44
0.0
 50
0.0
 71
     0
  0
ENDTAB
  0
TABLE
  2
UCS
 70
     0
  0
ENDTAB
  0
TABLE
  2
APPID
 70
    28
  0
APPID
  2
ACAD
 70
     0
  0
APPID
  2
DCO15
 70
     0
  0
APPID
  2
GENIUS_GENOREF_13
 70
     0
  0
APPID
  2
GENIUS_GENOENT_13
 70
     0
  0
APPID
  2
GENIUS_GENBH_13
 70
     0
  0
APPID
  2
GENIUS_GENOBJ_13
 70
     0
  0
APPID
  2
GENIUS_GENODEF_13
 70
     0
  0
APPID
  2
GENIUS_GENOLIS_13
 70
     0
  0
APPID
  2
GENIUS_GENOBJ-NBEHI-BHF_13
 70
     0
  0
APPID
  2
GENIUS_GENOBJ-NBEHI-BHB_13
 70
     0
  0
APPID
  2
GENIUS_GENOBJ-F-PART_13
 70
     0
  0
APPID
  2
GENIUS_GEFSTDP_13
 70
     0
  0
APPID
  2
GENIUS_GENOBJ-N-RSSYM_13
 70
     0
  0
APPID
  2
GENIUS_GENSYMENT_13
 70
     0
  0
APPID
  2
GENIUS_GENOBJ-N-TIT_13
 70
     0
  0
APPID
  2
GENIUS_GENTITLE_13
 70
     0
  0
APPID
  2
GENIUS_GENZVEED_13
 70
     0
  0
APPID
  2
GENIUS_GENOBJ-N-LEADER_13
 70
     0
  0
APPID
  2
GENIUS_GENOBJ-N-FIL_13
 70
     0
  0
APPID
  2
GENIUS_GENOBJ-N-SEC_13
 70
     0
  0
APPID
  2
GENIUS_GENOBJ-N-CRS_13
 70
     0
  0
APPID
  2
GENIUS_GENOBJ-N-ZOO_13
 70
     0
  0
APPID
  2
GENIUS_GENZOO_13
 70
     0
  0
APPID
  2
GENIUS_GENOBJ-F-TOL_13
 70
     0
  0
APPID
  2
GENIUS_GENFIL_13
 70
     0
  0
APPID
  2
GENIUS_GENOBJ-N-CHA_13
 70
     0
  0
APPID
  2
ACAD_MLEADERVER
 70
     0
  0
APPID
  2
ACAD_NAV_VCDISPLAY
 70
     0
  0
ENDTAB
  0
TABLE
  2
DIMSTYLE
 70
     1
  0
DIMSTYLE
  2
STANDARD
 70
     0
  3

  4

  5

  6

  7

 40
1.0
 41
0.18
 42
0.0625
 43
0.38
 44
0.18
 45
0.0
 46
0.0
 47
0.0
 48
0.0
140
0.18
141
0.09
142
0.0
143
25.399999999999999
144
1.0
145
0.0
146
1.0
147
0.09
 71
     0
 72
     0
 73
     1
 74
     1
 75
     0
 76
     0
 77
     0
 78
     0
170
     0
171
     2
172
     0
173
     0
174
     0
175
     0
176
     0
177
     0
178
     0
  0
ENDTAB
  0
ENDSEC
  0
SECTION
  2
BLOCKS
  0
BLOCK
  8
0
  2
$MODEL_SPACE
 70
     0
 10
0.0
 20
0.0
 30
0.0
  3
$MODEL_SPACE
  1

  0
ENDBLK
  5
10E
  8
0
  0
BLOCK
 67
     1
  8
0
  2
$PAPER_SPACE
 70
     0
 10
0.0
 20
0.0
 30
0.0
  3
$PAPER_SPACE
  1

  0
ENDBLK
  5
10C
 67
     1
  8
0
  0
BLOCK
  8
0
  2
STDGX5
 70
     0
 10
0.0
 20
0.0
 30
0.0
  3
STDGX5
  1

  0
ENDBLK
  5
2B
  8
0
  0
ENDSEC
  0
SECTION
  2
ENTITIES
  0
LINE
  5
BF
  8
0
 10
152.0514774307708
 20
132.03184594679431
 30
0.0
 11
152.0514774307708
 21
32.031845946794313
 31
0.0
  0
LINE
  5
C0
  8
0
 10
160.05147743076989
 20
132.03184594679431
 30
0.0
 11
160.05147743076989
 21
32.031845946794313
 31
0.0
  0
LINE
  5
C1
  8
1
 10
156.05221893077029
 20
137.03184594679431
 30
0.0
 11
156.05221893077021
 21
27.031845946794309
 31
0.0
  0
LINE
  5
C2
  8
0
 10
136.05296043077021
 20
132.03184594679431
 30
0.0
 11
136.05296043077021
 21
82.031845946794306
 31
0.0
  0
LINE
  5
C3
  8
0
 10
176.0514774307704
 20
132.03184594679431
 30
0.0
 11
176.0514774307704
 21
82.031845946794249
 31
0.0
  0
LINE
  5
C5
  8
0
 10
136.05296043077021
 20
132.03184594679431
 30
0.0
 11
176.0514774307704
 21
132.03184594679431
 31
0.0
  0
LINE
  5
C6
  8
0
 10
136.05296043077021
 20
132.03184594679431
 30
0.0
 11
176.0514774307704
 21
132.03184594679431
 31
0.0
  0
LINE
  5
C8
  8
0
 10
176.0514774307704
 20
132.03184594679431
 30
0.0
 11
176.05147743077029
 21
32.031845946794313
 31
0.0
  0
LINE
  5
C9
  8
0
 10
136.05296043077021
 20
132.03184594679431
 30
0.0
 11
136.0529604307703
 21
32.031845946794313
 31
0.0
  0
POINT
  5
CA
  8
0
 10
136.05296043077021
 20
132.03184594679431
 30
0.0
  0
POINT
  5
CB
  8
0
 10
136.0529604307703
 20
248.03184594679439
 30
0.0
  0
LINE
  5
CC
  8
0
 10
136.0529604307703
 20
248.03184594679439
 30
0.0
 11
136.0529604307703
 21
348.03184594679442
 31
0.0
  0
LINE
  5
CD
  8
0
 10
176.0514774307704
 20
248.03184594679439
 30
0.0
 11
176.05147743077049
 21
348.03184594679442
 31
0.0
  0
LINE
  5
CF
  8
0
 10
136.0529604307703
 20
248.03184594679439
 30
0.0
 11
176.0514774307704
 21
248.03184594679439
 31
0.0
  0
LINE
  5
D0
  8
0
 10
136.0529604307703
 20
248.03184594679439
 30
0.0
 11
176.0514774307704
 21
248.03184594679439
 31
0.0
  0
LINE
  5
D4
  8
1
 10
156.05221893077029
 20
243.03184594679439
 30
0.0
 11
156.05221893077041
 21
353.03184594679442
 31
0.0
  0
LINE
  5
D5
  8
1
 10
221.05147743077049
 20
190.03184594679431
 30
0.0
 11
331.05147743077049
 21
190.03184594679419
 31
0.0
  0
LINE
  5
D6
  8
0
 10
226.05147743077049
 20
182.03184594679431
 30
0.0
 11
226.05147743077049
 21
198.03184594679431
 31
0.0
  0
LINE
  5
D8
  8
0
 10
326.05147743077049
 20
198.03184594679419
 30
0.0
 11
226.05147743077049
 21
198.03184594679431
 31
0.0
  0
LINE
  5
D9
  8
0
 10
326.05147743077049
 20
182.03184594679419
 30
0.0
 11
226.05147743077049
 21
182.03184594679431
 31
0.0
  0
INSERT
  5
DB
  8
0
  2
STDGX5
 10
0.0
 20
0.0
 30
0.0
  0
INSERT
  5
56B
  8
0
  2
STDGX5
 10
734.52110576104678
 20
45.805220243160981
 30
0.0
  0
INSERT
  5
56C
  8
0
  2
STDGX5
 10
734.52110576104678
 20
45.805220243160981
 30
0.0
  0
INSERT
  5
56D
  8
0
  2
STDGX5
 10
1009.521105761047
 20
45.805220243160981
 30
0.0
  0
INSERT
  5
56E
  8
0
  2
STDGX5
 10
1009.521105761047
 20
45.805220243160981
 30
0.0
  0
INSERT
  5
56F
  8
0
  2
STDGX5
 10
599.85544100766174
 20
57.581448967466251
 30
0.0
 41
0.25
 42
0.25
 43
0.25
  0
INSERT
  5
570
  8
0
  2
STDGX5
 10
599.85544100766174
 20
57.581448967466251
 30
0.0
 41
0.25
 42
0.25
 43
0.25
  0
INSERT
  5
571
  8
0
  2
STDGX5
 10
668.60544100766174
 20
57.581448967466251
 30
0.0
 41
0.25
 42
0.25
 43
0.25
  0
INSERT
  5
572
  8
0
  2
STDGX5
 10
668.60544100766174
 20
57.581448967466251
 30
0.0
 41
0.25
 42
0.25
 43
0.25
  0
INSERT
  5
573
  8
0
  2
STDGX5
 10
599.85544100766174
 20
57.581448967466251
 30
0.0
 41
0.5
 42
0.5
 43
0.5
  0
INSERT
  5
574
  8
0
  2
STDGX5
 10
599.85544100766174
 20
57.581448967466251
 30
0.0
 41
0.5
 42
0.5
 43
0.5
  0
INSERT
  5
575
  8
0
  2
STDGX5
 10
737.35544100766174
 20
57.581448967466251
 30
0.0
 41
0.5
 42
0.5
 43
0.5
  0
INSERT
  5
576
  8
0
  2
STDGX5
 10
737.35544100766174
 20
57.581448967466251
 30
0.0
 41
0.5
 42
0.5
 43
0.5
  0
INSERT
  5
578
  8
0
  2
STDGX5
 10
564.85544100766174
 20
-42.418551032533742
 30
0.0
 41
0.3333333333333144
 42
0.3333333333333144
 43
0.3333333333333144
  0
INSERT
  5
579
  8
0
  2
STDGX5
 10
564.85544100766174
 20
-42.418551032533742
 30
0.0
 41
0.3333333333333144
 42
0.3333333333333144
 43
0.3333333333333144
  0
INSERT
  5
57A
  8
0
  2
STDGX5
 10
656.52210767432825
 20
-42.418551032533742
 30
0.0
 41
0.3333333333333144
 42
0.3333333333333144
 43
0.3333333333333144
  0
INSERT
  5
57B
  8
0
  2
STDGX5
 10
656.52210767432825
 20
-42.418551032533742
 30
0.0
 41
0.3333333333333144
 42
0.3333333333333144
 43
0.3333333333333144
  0
INSERT
  5
57D
  8
0
  2
STDGX5
 10
564.85544100766174
 20
-42.418551032533742
 30
0.0
 41
0.3333333333333144
 42
0.3333333333333144
 43
0.3333333333333144
  0
INSERT
  5
57E
  8
0
  2
STDGX5
 10
564.85544100766174
 20
-42.418551032533742
 30
0.0
 41
0.3333333333333144
 42
0.3333333333333144
 43
0.3333333333333144
  0
INSERT
  5
57F
  8
0
  2
STDGX5
 10
656.52210767432825
 20
-42.418551032533742
 30
0.0
 41
0.3333333333333144
 42
0.3333333333333144
 43
0.3333333333333144
  0
INSERT
  5
580
  8
0
  2
STDGX5
 10
656.52210767432825
 20
-42.418551032533742
 30
0.0
 41
0.3333333333333144
 42
0.3333333333333144
 43
0.3333333333333144
  0
INSERT
  5
581
  8
0
  2
STDGX5
 10
599.85544100766174
 20
57.581448967466251
 30
0.0
  0
INSERT
  5
582
  8
0
  2
STDGX5
 10
599.85544100766174
 20
57.581448967466251
 30
0.0
  0
INSERT
  5
583
  8
0
  2
STDGX5
 10
874.85544100766185
 20
57.581448967466251
 30
0.0
  0
INSERT
  5
584
  8
0
  2
STDGX5
 10
874.85544100766185
 20
57.581448967466251
 30
0.0
  0
INSERT
  5
585
  8
0
  2
STDGX5
 10
599.85544100766174
 20
57.581448967466251
 30
0.0
 41
0.25
 42
0.25
 43
0.25
  0
INSERT
  5
586
  8
0
  2
STDGX5
 10
599.85544100766174
 20
57.581448967466251
 30
0.0
 41
0.25
 42
0.25
 43
0.25
  0
INSERT
  5
587
  8
0
  2
STDGX5
 10
668.60544100766174
 20
57.581448967466251
 30
0.0
 41
0.25
 42
0.25
 43
0.25
  0
INSERT
  5
588
  8
0
  2
STDGX5
 10
668.60544100766174
 20
57.581448967466251
 30
0.0
 41
0.25
 42
0.25
 43
0.25
  0
INSERT
  5
589
  8
0
  2
STDGX5
 10
599.85544100766174
 20
57.581448967466251
 30
0.0
 41
0.5
 42
0.5
 43
0.5
  0
INSERT
  5
58A
  8
0
  2
STDGX5
 10
599.85544100766174
 20
57.581448967466251
 30
0.0
 41
0.5
 42
0.5
 43
0.5
  0
INSERT
  5
58B
  8
0
  2
STDGX5
 10
737.35544100766174
 20
57.581448967466251
 30
0.0
 41
0.5
 42
0.5
 43
0.5
  0
INSERT
  5
58C
  8
0
  2
STDGX5
 10
737.35544100766174
 20
57.581448967466251
 30
0.0
 41
0.5
 42
0.5
 43
0.5
  0
INSERT
  5
58E
  8
0
  2
STDGX5
 10
564.85544100766174
 20
-42.418551032533742
 30
0.0
 41
0.3333333333333144
 42
0.3333333333333144
 43
0.3333333333333144
  0
INSERT
  5
58F
  8
0
  2
STDGX5
 10
564.85544100766174
 20
-42.418551032533742
 30
0.0
 41
0.3333333333333144
 42
0.3333333333333144
 43
0.3333333333333144
  0
INSERT
  5
590
  8
0
  2
STDGX5
 10
656.52210767432825
 20
-42.418551032533742
 30
0.0
 41
0.3333333333333144
 42
0.3333333333333144
 43
0.3333333333333144
  0
INSERT
  5
591
  8
0
  2
STDGX5
 10
656.52210767432825
 20
-42.418551032533742
 30
0.0
 41
0.3333333333333144
 42
0.3333333333333144
 43
0.3333333333333144
  0
INSERT
  5
593
  8
0
  2
STDGX5
 10
564.85544100766174
 20
-42.418551032533742
 30
0.0
 41
0.3333333333333144
 42
0.3333333333333144
 43
0.3333333333333144
  0
INSERT
  5
594
  8
0
  2
STDGX5
 10
564.85544100766174
 20
-42.418551032533742
 30
0.0
 41
0.3333333333333144
 42
0.3333333333333144
 43
0.3333333333333144
  0
INSERT
  5
595
  8
0
  2
STDGX5
 10
656.52210767432825
 20
-42.418551032533742
 30
0.0
 41
0.3333333333333144
 42
0.3333333333333144
 43
0.3333333333333144
  0
INSERT
  5
596
  8
0
  2
STDGX5
 10
656.52210767432825
 20
-42.418551032533742
 30
0.0
 41
0.3333333333333144
 42
0.3333333333333144
 43
0.3333333333333144
  0
INSERT
  5
597
  8
0
  2
STDGX5
 10
599.85544100766174
 20
57.581448967466251
 30
0.0
  0
INSERT
  5
598
  8
0
  2
STDGX5
 10
599.85544100766174
 20
57.581448967466251
 30
0.0
  0
INSERT
  5
599
  8
0
  2
STDGX5
 10
874.85544100766185
 20
57.581448967466251
 30
0.0
  0
INSERT
  5
59A
  8
0
  2
STDGX5
 10
874.85544100766185
 20
57.581448967466251
 30
0.0
  0
INSERT
  5
59B
  8
0
  2
STDGX5
 10
599.85544100766174
 20
57.581448967466251
 30
0.0
 41
0.25
 42
0.25
 43
0.25
  0
INSERT
  5
59C
  8
0
  2
STDGX5
 10
599.85544100766174
 20
57.581448967466251
 30
0.0
 41
0.25
 42
0.25
 43
0.25
  0
INSERT
  5
59D
  8
0
  2
STDGX5
 10
668.60544100766174
 20
57.581448967466251
 30
0.0
 41
0.25
 42
0.25
 43
0.25
  0
INSERT
  5
59E
  8
0
  2
STDGX5
 10
668.60544100766174
 20
57.581448967466251
 30
0.0
 41
0.25
 42
0.25
 43
0.25
  0
INSERT
  5
59F
  8
0
  2
STDGX5
 10
599.85544100766174
 20
57.581448967466251
 30
0.0
 41
0.5
 42
0.5
 43
0.5
  0
INSERT
  5
5A0
  8
0
  2
STDGX5
 10
599.85544100766174
 20
57.581448967466251
 30
0.0
 41
0.5
 42
0.5
 43
0.5
  0
INSERT
  5
5A1
  8
0
  2
STDGX5
 10
737.35544100766174
 20
57.581448967466251
 30
0.0
 41
0.5
 42
0.5
 43
0.5
  0
INSERT
  5
5A2
  8
0
  2
STDGX5
 10
737.35544100766174
 20
57.581448967466251
 30
0.0
 41
0.5
 42
0.5
 43
0.5
  0
INSERT
  5
5A4
  8
0
  2
STDGX5
 10
564.85544100766174
 20
-42.418551032533742
 30
0.0
 41
0.3333333333333144
 42
0.3333333333333144
 43
0.3333333333333144
  0
INSERT
  5
5A5
  8
0
  2
STDGX5
 10
564.85544100766174
 20
-42.418551032533742
 30
0.0
 41
0.3333333333333144
 42
0.3333333333333144
 43
0.3333333333333144
  0
INSERT
  5
5A6
  8
0
  2
STDGX5
 10
656.52210767432825
 20
-42.418551032533742
 30
0.0
 41
0.3333333333333144
 42
0.3333333333333144
 43
0.3333333333333144
  0
INSERT
  5
5A7
  8
0
  2
STDGX5
 10
656.52210767432825
 20
-42.418551032533742
 30
0.0
 41
0.3333333333333144
 42
0.3333333333333144
 43
0.3333333333333144
  0
INSERT
  5
5A9
  8
0
  2
STDGX5
 10
564.85544100766174
 20
-42.418551032533742
 30
0.0
 41
0.3333333333333144
 42
0.3333333333333144
 43
0.3333333333333144
  0
INSERT
  5
5AA
  8
0
  2
STDGX5
 10
564.85544100766174
 20
-42.418551032533742
 30
0.0
 41
0.3333333333333144
 42
0.3333333333333144
 43
0.3333333333333144
  0
INSERT
  5
5AB
  8
0
  2
STDGX5
 10
656.52210767432825
 20
-42.418551032533742
 30
0.0
 41
0.3333333333333144
 42
0.3333333333333144
 43
0.3333333333333144
  0
INSERT
  5
5AC
  8
0
  2
STDGX5
 10
656.52210767432825
 20
-42.418551032533742
 30
0.0
 41
0.3333333333333144
 42
0.3333333333333144
 43
0.3333333333333144
  0
INSERT
  5
5AD
  8
0
  2
STDGX5
 10
599.85544100766174
 20
57.581448967466251
 30
0.0
  0
INSERT
  5
5AE
  8
0
  2
STDGX5
 10
599.85544100766174
 20
57.581448967466251
 30
0.0
  0
INSERT
  5
5AF
  8
0
  2
STDGX5
 10
874.85544100766185
 20
57.581448967466251
 30
0.0
  0
INSERT
  5
5B0
  8
0
  2
STDGX5
 10
874.85544100766185
 20
57.581448967466251
 30
0.0
  0
INSERT
  5
5B1
  8
0
  2
STDGX5
 10
599.85544100766174
 20
57.581448967466251
 30
0.0
 41
0.25
 42
0.25
 43
0.25
  0
INSERT
  5
5B2
  8
0
  2
STDGX5
 10
599.85544100766174
 20
57.581448967466251
 30
0.0
 41
0.25
 42
0.25
 43
0.25
  0
INSERT
  5
5B3
  8
0
  2
STDGX5
 10
668.60544100766174
 20
57.581448967466251
 30
0.0
 41
0.25
 42
0.25
 43
0.25
  0
INSERT
  5
5B4
  8
0
  2
STDGX5
 10
668.60544100766174
 20
57.581448967466251
 30
0.0
 41
0.25
 42
0.25
 43
0.25
  0
INSERT
  5
5B5
  8
0
  2
STDGX5
 10
599.85544100766174
 20
57.581448967466251
 30
0.0
 41
0.5
 42
0.5
 43
0.5
  0
INSERT
  5
5B6
  8
0
  2
STDGX5
 10
599.85544100766174
 20
57.581448967466251
 30
0.0
 41
0.5
 42
0.5
 43
0.5
  0
INSERT
  5
5B7
  8
0
  2
STDGX5
 10
737.35544100766174
 20
57.581448967466251
 30
0.0
 41
0.5
 42
0.5
 43
0.5
  0
INSERT
  5
5B8
  8
0
  2
STDGX5
 10
737.35544100766174
 20
57.581448967466251
 30
0.0
 41
0.5
 42
0.5
 43
0.5
  0
INSERT
  5
5BA
  8
0
  2
STDGX5
 10
564.85544100766174
 20
-42.418551032533742
 30
0.0
 41
0.3333333333333144
 42
0.3333333333333144
 43
0.3333333333333144
  0
INSERT
  5
5BB
  8
0
  2
STDGX5
 10
564.85544100766174
 20
-42.418551032533742
 30
0.0
 41
0.3333333333333144
 42
0.3333333333333144
 43
0.3333333333333144
  0
INSERT
  5
5BC
  8
0
  2
STDGX5
 10
656.52210767432825
 20
-42.418551032533742
 30
0.0
 41
0.3333333333333144
 42
0.3333333333333144
 43
0.3333333333333144
  0
INSERT
  5
5BD
  8
0
  2
STDGX5
 10
656.52210767432825
 20
-42.418551032533742
 30
0.0
 41
0.3333333333333144
 42
0.3333333333333144
 43
0.3333333333333144
  0
INSERT
  5
5BF
  8
0
  2
STDGX5
 10
564.85544100766174
 20
-42.418551032533742
 30
0.0
 41
0.3333333333333144
 42
0.3333333333333144
 43
0.3333333333333144
  0
INSERT
  5
5C0
  8
0
  2
STDGX5
 10
564.85544100766174
 20
-42.418551032533742
 30
0.0
 41
0.3333333333333144
 42
0.3333333333333144
 43
0.3333333333333144
  0
INSERT
  5
5C1
  8
0
  2
STDGX5
 10
656.52210767432825
 20
-42.418551032533742
 30
0.0
 41
0.3333333333333144
 42
0.3333333333333144
 43
0.3333333333333144
  0
INSERT
  5
5C2
  8
0
  2
STDGX5
 10
656.52210767432825
 20
-42.418551032533742
 30
0.0
 41
0.3333333333333144
 42
0.3333333333333144
 43
0.3333333333333144
  0
INSERT
  5
5C3
  8
0
  2
STDGX5
 10
599.85544100766174
 20
57.581448967466251
 30
0.0
  0
INSERT
  5
5C4
  8
0
  2
STDGX5
 10
599.85544100766174
 20
57.581448967466251
 30
0.0
  0
INSERT
  5
5C5
  8
0
  2
STDGX5
 10
874.85544100766185
 20
57.581448967466251
 30
0.0
  0
INSERT
  5
5C6
  8
0
  2
STDGX5
 10
874.85544100766185
 20
57.581448967466251
 30
0.0
  0
INSERT
  5
5C7
  8
0
  2
STDGX5
 10
599.85544100766174
 20
57.581448967466251
 30
0.0
 41
0.25
 42
0.25
 43
0.25
  0
INSERT
  5
5C8
  8
0
  2
STDGX5
 10
599.85544100766174
 20
57.581448967466251
 30
0.0
 41
0.25
 42
0.25
 43
0.25
  0
INSERT
  5
5C9
  8
0
  2
STDGX5
 10
668.60544100766174
 20
57.581448967466251
 30
0.0
 41
0.25
 42
0.25
 43
0.25
  0
INSERT
  5
5CA
  8
0
  2
STDGX5
 10
668.60544100766174
 20
57.581448967466251
 30
0.0
 41
0.25
 42
0.25
 43
0.25
  0
INSERT
  5
5CB
  8
0
  2
STDGX5
 10
599.85544100766174
 20
57.581448967466251
 30
0.0
 41
0.5
 42
0.5
 43
0.5
  0
INSERT
  5
5CC
  8
0
  2
STDGX5
 10
599.85544100766174
 20
57.581448967466251
 30
0.0
 41
0.5
 42
0.5
 43
0.5
  0
INSERT
  5
5CD
  8
0
  2
STDGX5
 10
737.35544100766174
 20
57.581448967466251
 30
0.0
 41
0.5
 42
0.5
 43
0.5
  0
INSERT
  5
5CE
  8
0
  2
STDGX5
 10
737.35544100766174
 20
57.581448967466251
 30
0.0
 41
0.5
 42
0.5
 43
0.5
  0
INSERT
  5
5D0
  8
0
  2
STDGX5
 10
564.85544100766174
 20
-42.418551032533742
 30
0.0
 41
0.3333333333333144
 42
0.3333333333333144
 43
0.3333333333333144
  0
INSERT
  5
5D1
  8
0
  2
STDGX5
 10
564.85544100766174
 20
-42.418551032533742
 30
0.0
 41
0.3333333333333144
 42
0.3333333333333144
 43
0.3333333333333144
  0
INSERT
  5
5D2
  8
0
  2
STDGX5
 10
656.52210767432825
 20
-42.418551032533742
 30
0.0
 41
0.3333333333333144
 42
0.3333333333333144
 43
0.3333333333333144
  0
INSERT
  5
5D3
  8
0
  2
STDGX5
 10
656.52210767432825
 20
-42.418551032533742
 30
0.0
 41
0.3333333333333144
 42
0.3333333333333144
 43
0.3333333333333144
  0
INSERT
  5
5D5
  8
0
  2
STDGX5
 10
564.85544100766174
 20
-42.418551032533742
 30
0.0
 41
0.3333333333333144
 42
0.3333333333333144
 43
0.3333333333333144
  0
INSERT
  5
5D6
  8
0
  2
STDGX5
 10
564.85544100766174
 20
-42.418551032533742
 30
0.0
 41
0.3333333333333144
 42
0.3333333333333144
 43
0.3333333333333144
  0
INSERT
  5
5D7
  8
0
  2
STDGX5
 10
656.52210767432825
 20
-42.418551032533742
 30
0.0
 41
0.3333333333333144
 42
0.3333333333333144
 43
0.3333333333333144
  0
INSERT
  5
5D8
  8
0
  2
STDGX5
 10
656.52210767432825
 20
-42.418551032533742
 30
0.0
 41
0.3333333333333144
 42
0.3333333333333144
 43
0.3333333333333144
  0
INSERT
  5
5D9
  8
0
  2
STDGX5
 10
599.85544100766174
 20
57.581448967466251
 30
0.0
  0
INSERT
  5
5DA
  8
0
  2
STDGX5
 10
599.85544100766174
 20
57.581448967466251
 30
0.0
  0
INSERT
  5
5DB
  8
0
  2
STDGX5
 10
874.85544100766185
 20
57.581448967466251
 30
0.0
  0
INSERT
  5
5DC
  8
0
  2
STDGX5
 10
874.85544100766185
 20
57.581448967466251
 30
0.0
  0
INSERT
  5
5DD
  8
0
  2
STDGX5
 10
599.85544100766174
 20
57.581448967466251
 30
0.0
 41
0.25
 42
0.25
 43
0.25
  0
INSERT
  5
5DE
  8
0
  2
STDGX5
 10
599.85544100766174
 20
57.581448967466251
 30
0.0
 41
0.25
 42
0.25
 43
0.25
  0
INSERT
  5
5DF
  8
0
  2
STDGX5
 10
668.60544100766174
 20
57.581448967466251
 30
0.0
 41
0.25
 42
0.25
 43
0.25
  0
INSERT
  5
5E0
  8
0
  2
STDGX5
 10
668.60544100766174
 20
57.581448967466251
 30
0.0
 41
0.25
 42
0.25
 43
0.25
  0
INSERT
  5
5E1
  8
0
  2
STDGX5
 10
599.85544100766174
 20
57.581448967466251
 30
0.0
 41
0.5
 42
0.5
 43
0.5
  0
INSERT
  5
5E2
  8
0
  2
STDGX5
 10
599.85544100766174
 20
57.581448967466251
 30
0.0
 41
0.5
 42
0.5
 43
0.5
  0
INSERT
  5
5E3
  8
0
  2
STDGX5
 10
737.35544100766174
 20
57.581448967466251
 30
0.0
 41
0.5
 42
0.5
 43
0.5
  0
INSERT
  5
5E4
  8
0
  2
STDGX5
 10
737.35544100766174
 20
57.581448967466251
 30
0.0
 41
0.5
 42
0.5
 43
0.5
  0
INSERT
  5
5E6
  8
0
  2
STDGX5
 10
564.85544100766174
 20
-42.418551032533742
 30
0.0
 41
0.3333333333333144
 42
0.3333333333333144
 43
0.3333333333333144
  0
INSERT
  5
5E7
  8
0
  2
STDGX5
 10
564.85544100766174
 20
-42.418551032533742
 30
0.0
 41
0.3333333333333144
 42
0.3333333333333144
 43
0.3333333333333144
  0
INSERT
  5
5E8
  8
0
  2
STDGX5
 10
656.52210767432825
 20
-42.418551032533742
 30
0.0
 41
0.3333333333333144
 42
0.3333333333333144
 43
0.3333333333333144
  0
INSERT
  5
5E9
  8
0
  2
STDGX5
 10
656.52210767432825
 20
-42.418551032533742
 30
0.0
 41
0.3333333333333144
 42
0.3333333333333144
 43
0.3333333333333144
  0
INSERT
  5
5EB
  8
0
  2
STDGX5
 10
564.85544100766174
 20
-42.418551032533742
 30
0.0
 41
0.3333333333333144
 42
0.3333333333333144
 43
0.3333333333333144
  0
INSERT
  5
5EC
  8
0
  2
STDGX5
 10
564.85544100766174
 20
-42.418551032533742
 30
0.0
 41
0.3333333333333144
 42
0.3333333333333144
 43
0.3333333333333144
  0
INSERT
  5
5ED
  8
0
  2
STDGX5
 10
656.52210767432825
 20
-42.418551032533742
 30
0.0
 41
0.3333333333333144
 42
0.3333333333333144
 43
0.3333333333333144
  0
INSERT
  5
5EE
  8
0
  2
STDGX5
 10
656.52210767432825
 20
-42.418551032533742
 30
0.0
 41
0.3333333333333144
 42
0.3333333333333144
 43
0.3333333333333144
  0
INSERT
  5
5EF
  8
0
  2
STDGX5
 10
599.85544100766174
 20
57.581448967466251
 30
0.0
  0
INSERT
  5
5F0
  8
0
  2
STDGX5
 10
599.85544100766174
 20
57.581448967466251
 30
0.0
  0
INSERT
  5
5F1
  8
0
  2
STDGX5
 10
874.85544100766185
 20
57.581448967466251
 30
0.0
  0
INSERT
  5
5F2
  8
0
  2
STDGX5
 10
874.85544100766185
 20
57.581448967466251
 30
0.0
  0
INSERT
  5
5F3
  8
0
  2
STDGX5
 10
599.85544100766174
 20
57.581448967466251
 30
0.0
 41
0.25
 42
0.25
 43
0.25
  0
INSERT
  5
5F4
  8
0
  2
STDGX5
 10
599.85544100766174
 20
57.581448967466251
 30
0.0
 41
0.25
 42
0.25
 43
0.25
  0
INSERT
  5
5F5
  8
0
  2
STDGX5
 10
668.60544100766174
 20
57.581448967466251
 30
0.0
 41
0.25
 42
0.25
 43
0.25
  0
INSERT
  5
5F6
  8
0
  2
STDGX5
 10
668.60544100766174
 20
57.581448967466251
 30
0.0
 41
0.25
 42
0.25
 43
0.25
  0
INSERT
  5
5F7
  8
0
  2
STDGX5
 10
599.85544100766174
 20
57.581448967466251
 30
0.0
 41
0.5
 42
0.5
 43
0.5
  0
INSERT
  5
5F8
  8
0
  2
STDGX5
 10
599.85544100766174
 20
57.581448967466251
 30
0.0
 41
0.5
 42
0.5
 43
0.5
  0
INSERT
  5
5F9
  8
0
  2
STDGX5
 10
737.35544100766174
 20
57.581448967466251
 30
0.0
 41
0.5
 42
0.5
 43
0.5
  0
INSERT
  5
5FA
  8
0
  2
STDGX5
 10
737.35544100766174
 20
57.581448967466251
 30
0.0
 41
0.5
 42
0.5
 43
0.5
  0
INSERT
  5
5FC
  8
0
  2
STDGX5
 10
564.85544100766174
 20
-42.418551032533742
 30
0.0
 41
0.3333333333333144
 42
0.3333333333333144
 43
0.3333333333333144
  0
INSERT
  5
5FD
  8
0
  2
STDGX5
 10
564.85544100766174
 20
-42.418551032533742
 30
0.0
 41
0.3333333333333144
 42
0.3333333333333144
 43
0.3333333333333144
  0
INSERT
  5
5FE
  8
0
  2
STDGX5
 10
656.52210767432825
 20
-42.418551032533742
 30
0.0
 41
0.3333333333333144
 42
0.3333333333333144
 43
0.3333333333333144
  0
INSERT
  5
5FF
  8
0
  2
STDGX5
 10
656.52210767432825
 20
-42.418551032533742
 30
0.0
 41
0.3333333333333144
 42
0.3333333333333144
 43
0.3333333333333144
  0
INSERT
  5
601
  8
0
  2
STDGX5
 10
564.85544100766174
 20
-42.418551032533742
 30
0.0
 41
0.3333333333333144
 42
0.3333333333333144
 43
0.3333333333333144
  0
INSERT
  5
602
  8
0
  2
STDGX5
 10
564.85544100766174
 20
-42.418551032533742
 30
0.0
 41
0.3333333333333144
 42
0.3333333333333144
 43
0.3333333333333144
  0
INSERT
  5
603
  8
0
  2
STDGX5
 10
656.52210767432825
 20
-42.418551032533742
 30
0.0
 41
0.3333333333333144
 42
0.3333333333333144
 43
0.3333333333333144
  0
INSERT
  5
604
  8
0
  2
STDGX5
 10
656.52210767432825
 20
-42.418551032533742
 30
0.0
 41
0.3333333333333144
 42
0.3333333333333144
 43
0.3333333333333144
  0
INSERT
  5
605
  8
0
  2
STDGX5
 10
599.85544100766174
 20
57.581448967466251
 30
0.0
  0
INSERT
  5
606
  8
0
  2
STDGX5
 10
599.85544100766174
 20
57.581448967466251
 30
0.0
  0
INSERT
  5
607
  8
0
  2
STDGX5
 10
874.85544100766185
 20
57.581448967466251
 30
0.0
  0
INSERT
  5
608
  8
0
  2
STDGX5
 10
874.85544100766185
 20
57.581448967466251
 30
0.0
  0
INSERT
  5
609
  8
0
  2
STDGX5
 10
599.85544100766174
 20
57.581448967466251
 30
0.0
 41
0.25
 42
0.25
 43
0.25
  0
INSERT
  5
60A
  8
0
  2
STDGX5
 10
599.85544100766174
 20
57.581448967466251
 30
0.0
 41
0.25
 42
0.25
 43
0.25
  0
INSERT
  5
60B
  8
0
  2
STDGX5
 10
668.60544100766174
 20
57.581448967466251
 30
0.0
 41
0.25
 42
0.25
 43
0.25
  0
INSERT
  5
60C
  8
0
  2
STDGX5
 10
668.60544100766174
 20
57.581448967466251
 30
0.0
 41
0.25
 42
0.25
 43
0.25
  0
INSERT
  5
60D
  8
0
  2
STDGX5
 10
599.85544100766174
 20
57.581448967466251
 30
0.0
 41
0.5
 42
0.5
 43
0.5
  0
INSERT
  5
60E
  8
0
  2
STDGX5
 10
599.85544100766174
 20
57.581448967466251
 30
0.0
 41
0.5
 42
0.5
 43
0.5
  0
INSERT
  5
60F
  8
0
  2
STDGX5
 10
737.35544100766174
 20
57.581448967466251
 30
0.0
 41
0.5
 42
0.5
 43
0.5
  0
INSERT
  5
610
  8
0
  2
STDGX5
 10
737.35544100766174
 20
57.581448967466251
 30
0.0
 41
0.5
 42
0.5
 43
0.5
  0
INSERT
  5
612
  8
0
  2
STDGX5
 10
564.85544100766174
 20
-42.418551032533742
 30
0.0
 41
0.3333333333333144
 42
0.3333333333333144
 43
0.3333333333333144
  0
INSERT
  5
613
  8
0
  2
STDGX5
 10
564.85544100766174
 20
-42.418551032533742
 30
0.0
 41
0.3333333333333144
 42
0.3333333333333144
 43
0.3333333333333144
  0
INSERT
  5
614
  8
0
  2
STDGX5
 10
656.52210767432825
 20
-42.418551032533742
 30
0.0
 41
0.3333333333333144
 42
0.3333333333333144
 43
0.3333333333333144
  0
INSERT
  5
615
  8
0
  2
STDGX5
 10
656.52210767432825
 20
-42.418551032533742
 30
0.0
 41
0.3333333333333144
 42
0.3333333333333144
 43
0.3333333333333144
  0
INSERT
  5
617
  8
0
  2
STDGX5
 10
564.85544100766174
 20
-42.418551032533742
 30
0.0
 41
0.3333333333333144
 42
0.3333333333333144
 43
0.3333333333333144
  0
INSERT
  5
618
  8
0
  2
STDGX5
 10
564.85544100766174
 20
-42.418551032533742
 30
0.0
 41
0.3333333333333144
 42
0.3333333333333144
 43
0.3333333333333144
  0
INSERT
  5
619
  8
0
  2
STDGX5
 10
656.52210767432825
 20
-42.418551032533742
 30
0.0
 41
0.3333333333333144
 42
0.3333333333333144
 43
0.3333333333333144
  0
INSERT
  5
61A
  8
0
  2
STDGX5
 10
656.52210767432825
 20
-42.418551032533742
 30
0.0
 41
0.3333333333333144
 42
0.3333333333333144
 43
0.3333333333333144
  0
INSERT
  5
61B
  8
0
  2
STDGX5
 10
599.85544100766174
 20
57.581448967466251
 30
0.0
  0
INSERT
  5
61C
  8
0
  2
STDGX5
 10
599.85544100766174
 20
57.581448967466251
 30
0.0
  0
INSERT
  5
61D
  8
0
  2
STDGX5
 10
874.85544100766185
 20
57.581448967466251
 30
0.0
  0
INSERT
  5
61E
  8
0
  2
STDGX5
 10
874.85544100766185
 20
57.581448967466251
 30
0.0
  0
INSERT
  5
61F
  8
0
  2
STDGX5
 10
579.97687516021745
 20
106.5808650759093
 30
0.0
  0
INSERT
  5
620
  8
0
  2
STDGX5
 10
579.97687516021745
 20
106.5808650759093
 30
0.0
  0
INSERT
  5
621
  8
0
  2
STDGX5
 10
854.97687516021745
 20
106.5808650759093
 30
0.0
  0
INSERT
  5
622
  8
0
  2
STDGX5
 10
854.97687516021745
 20
106.5808650759093
 30
0.0
  0
INSERT
  5
623
  8
0
  2
STDGX5
 10
579.97687516021745
 20
106.5808650759093
 30
0.0
  0
INSERT
  5
624
  8
0
  2
STDGX5
 10
579.97687516021745
 20
106.5808650759093
 30
0.0
  0
INSERT
  5
625
  8
0
  2
STDGX5
 10
854.97687516021745
 20
106.5808650759093
 30
0.0
  0
INSERT
  5
626
  8
0
  2
STDGX5
 10
854.97687516021745
 20
106.5808650759093
 30
0.0
  0
INSERT
  5
627
  8
0
  2
STDGX5
 10
921.97127160804655
 20
150.92671701724311
 30
0.0
 41
0.25
 42
0.25
 43
0.25
  0
INSERT
  5
628
  8
0
  2
STDGX5
 10
921.97127160804655
 20
150.92671701724311
 30
0.0
 41
0.25
 42
0.25
 43
0.25
  0
INSERT
  5
629
  8
0
  2
STDGX5
 10
990.72127160804655
 20
150.92671701724311
 30
0.0
 41
0.25
 42
0.25
 43
0.25
  0
INSERT
  5
62A
  8
0
  2
STDGX5
 10
990.72127160804655
 20
150.92671701724311
 30
0.0
 41
0.25
 42
0.25
 43
0.25
  0
INSERT
  5
62B
  8
0
  2
STDGX5
 10
921.97127160804655
 20
150.92671701724311
 30
0.0
 41
0.5
 42
0.5
 43
0.5
  0
INSERT
  5
62C
  8
0
  2
STDGX5
 10
921.97127160804655
 20
150.92671701724311
 30
0.0
 41
0.5
 42
0.5
 43
0.5
  0
INSERT
  5
62D
  8
0
  2
STDGX5
 10
1059.471271608046
 20
150.92671701724311
 30
0.0
 41
0.5
 42
0.5
 43
0.5
  0
INSERT
  5
62E
  8
0
  2
STDGX5
 10
1059.471271608046
 20
150.92671701724311
 30
0.0
 41
0.5
 42
0.5
 43
0.5
  0
INSERT
  5
630
  8
0
  2
STDGX5
 10
886.97127160804655
 20
50.92671701724317
 30
0.0
 41
0.3333333333333144
 42
0.3333333333333144
 43
0.3333333333333144
  0
INSERT
  5
631
  8
0
  2
STDGX5
 10
886.97127160804655
 20
50.92671701724317
 30
0.0
 41
0.3333333333333144
 42
0.3333333333333144
 43
0.3333333333333144
  0
INSERT
  5
632
  8
0
  2
STDGX5
 10
978.63793827471306
 20
50.92671701724317
 30
0.0
 41
0.3333333333333144
 42
0.3333333333333144
 43
0.3333333333333144
  0
INSERT
  5
633
  8
0
  2
STDGX5
 10
978.63793827471306
 20
50.92671701724317
 30
0.0
 41
0.3333333333333144
 42
0.3333333333333144
 43
0.3333333333333144
  0
INSERT
  5
635
  8
0
  2
STDGX5
 10
886.97127160804655
 20
50.92671701724317
 30
0.0
 41
0.3333333333333144
 42
0.3333333333333144
 43
0.3333333333333144
  0
INSERT
  5
636
  8
0
  2
STDGX5
 10
886.97127160804655
 20
50.92671701724317
 30
0.0
 41
0.3333333333333144
 42
0.3333333333333144
 43
0.3333333333333144
  0
INSERT
  5
637
  8
0
  2
STDGX5
 10
978.63793827471306
 20
50.92671701724317
 30
0.0
 41
0.3333333333333144
 42
0.3333333333333144
 43
0.3333333333333144
  0
INSERT
  5
638
  8
0
  2
STDGX5
 10
978.63793827471306
 20
50.92671701724317
 30
0.0
 41
0.3333333333333144
 42
0.3333333333333144
 43
0.3333333333333144
  0
INSERT
  5
639
  8
0
  2
STDGX5
 10
921.97127160804655
 20
150.92671701724311
 30
0.0
  0
INSERT
  5
63A
  8
0
  2
STDGX5
 10
921.97127160804655
 20
150.92671701724311
 30
0.0
  0
INSERT
  5
63B
  8
0
  2
STDGX5
 10
1196.971271608046
 20
150.92671701724311
 30
0.0
  0
INSERT
  5
63C
  8
0
  2
STDGX5
 10
1196.971271608046
 20
150.92671701724311
 30
0.0
  0
INSERT
  5
63D
  8
0
  2
STDGX5
 10
921.97127160804655
 20
150.92671701724311
 30
0.0
 41
0.25
 42
0.25
 43
0.25
  0
INSERT
  5
63E
  8
0
  2
STDGX5
 10
921.97127160804655
 20
150.92671701724311
 30
0.0
 41
0.25
 42
0.25
 43
0.25
  0
INSERT
  5
63F
  8
0
  2
STDGX5
 10
990.72127160804655
 20
150.92671701724311
 30
0.0
 41
0.25
 42
0.25
 43
0.25
  0
INSERT
  5
640
  8
0
  2
STDGX5
 10
990.72127160804655
 20
150.92671701724311
 30
0.0
 41
0.25
 42
0.25
 43
0.25
  0
INSERT
  5
641
  8
0
  2
STDGX5
 10
921.97127160804655
 20
150.92671701724311
 30
0.0
 41
0.5
 42
0.5
 43
0.5
  0
INSERT
  5
642
  8
0
  2
STDGX5
 10
921.97127160804655
 20
150.92671701724311
 30
0.0
 41
0.5
 42
0.5
 43
0.5
  0
INSERT
  5
643
  8
0
  2
STDGX5
 10
1059.471271608046
 20
150.92671701724311
 30
0.0
 41
0.5
 42
0.5
 43
0.5
  0
INSERT
  5
644
  8
0
  2
STDGX5
 10
1059.471271608046
 20
150.92671701724311
 30
0.0
 41
0.5
 42
0.5
 43
0.5
  0
INSERT
  5
646
  8
0
  2
STDGX5
 10
886.97127160804655
 20
50.92671701724317
 30
0.0
 41
0.3333333333333144
 42
0.3333333333333144
 43
0.3333333333333144
  0
INSERT
  5
647
  8
0
  2
STDGX5
 10
886.97127160804655
 20
50.92671701724317
 30
0.0
 41
0.3333333333333144
 42
0.3333333333333144
 43
0.3333333333333144
  0
INSERT
  5
648
  8
0
  2
STDGX5
 10
978.63793827471306
 20
50.92671701724317
 30
0.0
 41
0.3333333333333144
 42
0.3333333333333144
 43
0.3333333333333144
  0
INSERT
  5
649
  8
0
  2
STDGX5
 10
978.63793827471306
 20
50.92671701724317
 30
0.0
 41
0.3333333333333144
 42
0.3333333333333144
 43
0.3333333333333144
  0
INSERT
  5
64B
  8
0
  2
STDGX5
 10
886.97127160804655
 20
50.92671701724317
 30
0.0
 41
0.3333333333333144
 42
0.3333333333333144
 43
0.3333333333333144
  0
INSERT
  5
64C
  8
0
  2
STDGX5
 10
886.97127160804655
 20
50.92671701724317
 30
0.0
 41
0.3333333333333144
 42
0.3333333333333144
 43
0.3333333333333144
  0
INSERT
  5
64D
  8
0
  2
STDGX5
 10
978.63793827471306
 20
50.92671701724317
 30
0.0
 41
0.3333333333333144
 42
0.3333333333333144
 43
0.3333333333333144
  0
INSERT
  5
64E
  8
0
  2
STDGX5
 10
978.63793827471306
 20
50.92671701724317
 30
0.0
 41
0.3333333333333144
 42
0.3333333333333144
 43
0.3333333333333144
  0
INSERT
  5
64F
  8
0
  2
STDGX5
 10
921.97127160804655
 20
150.92671701724311
 30
0.0
  0
INSERT
  5
650
  8
0
  2
STDGX5
 10
921.97127160804655
 20
150.92671701724311
 30
0.0
  0
INSERT
  5
651
  8
0
  2
STDGX5
 10
1196.971271608046
 20
150.92671701724311
 30
0.0
  0
INSERT
  5
652
  8
0
  2
STDGX5
 10
1196.971271608046
 20
150.92671701724311
 30
0.0
  0
INSERT
  5
653
  8
0
  2
STDGX5
 10
921.97127160804655
 20
150.92671701724311
 30
0.0
 41
0.25
 42
0.25
 43
0.25
  0
INSERT
  5
654
  8
0
  2
STDGX5
 10
921.97127160804655
 20
150.92671701724311
 30
0.0
 41
0.25
 42
0.25
 43
0.25
  0
INSERT
  5
655
  8
0
  2
STDGX5
 10
990.72127160804655
 20
150.92671701724311
 30
0.0
 41
0.25
 42
0.25
 43
0.25
  0
INSERT
  5
656
  8
0
  2
STDGX5
 10
990.72127160804655
 20
150.92671701724311
 30
0.0
 41
0.25
 42
0.25
 43
0.25
  0
INSERT
  5
657
  8
0
  2
STDGX5
 10
921.97127160804655
 20
150.92671701724311
 30
0.0
 41
0.5
 42
0.5
 43
0.5
  0
INSERT
  5
658
  8
0
  2
STDGX5
 10
921.97127160804655
 20
150.92671701724311
 30
0.0
 41
0.5
 42
0.5
 43
0.5
  0
INSERT
  5
659
  8
0
  2
STDGX5
 10
1059.471271608046
 20
150.92671701724311
 30
0.0
 41
0.5
 42
0.5
 43
0.5
  0
INSERT
  5
65A
  8
0
  2
STDGX5
 10
1059.471271608046
 20
150.92671701724311
 30
0.0
 41
0.5
 42
0.5
 43
0.5
  0
INSERT
  5
65C
  8
0
  2
STDGX5
 10
886.97127160804655
 20
50.92671701724317
 30
0.0
 41
0.3333333333333144
 42
0.3333333333333144
 43
0.3333333333333144
  0
INSERT
  5
65D
  8
0
  2
STDGX5
 10
886.97127160804655
 20
50.92671701724317
 30
0.0
 41
0.3333333333333144
 42
0.3333333333333144
 43
0.3333333333333144
  0
INSERT
  5
65E
  8
0
  2
STDGX5
 10
978.63793827471306
 20
50.92671701724317
 30
0.0
 41
0.3333333333333144
 42
0.3333333333333144
 43
0.3333333333333144
  0
INSERT
  5
65F
  8
0
  2
STDGX5
 10
978.63793827471306
 20
50.92671701724317
 30
0.0
 41
0.3333333333333144
 42
0.3333333333333144
 43
0.3333333333333144
  0
INSERT
  5
661
  8
0
  2
STDGX5
 10
886.97127160804655
 20
50.92671701724317
 30
0.0
 41
0.3333333333333144
 42
0.3333333333333144
 43
0.3333333333333144
  0
INSERT
  5
662
  8
0
  2
STDGX5
 10
886.97127160804655
 20
50.92671701724317
 30
0.0
 41
0.3333333333333144
 42
0.3333333333333144
 43
0.3333333333333144
  0
INSERT
  5
663
  8
0
  2
STDGX5
 10
978.63793827471306
 20
50.92671701724317
 30
0.0
 41
0.3333333333333144
 42
0.3333333333333144
 43
0.3333333333333144
  0
INSERT
  5
664
  8
0
  2
STDGX5
 10
978.63793827471306
 20
50.92671701724317
 30
0.0
 41
0.3333333333333144
 42
0.3333333333333144
 43
0.3333333333333144
  0
INSERT
  5
665
  8
0
  2
STDGX5
 10
921.97127160804655
 20
150.92671701724311
 30
0.0
  0
INSERT
  5
666
  8
0
  2
STDGX5
 10
921.97127160804655
 20
150.92671701724311
 30
0.0
  0
INSERT
  5
667
  8
0
  2
STDGX5
 10
1196.971271608046
 20
150.92671701724311
 30
0.0
  0
INSERT
  5
668
  8
0
  2
STDGX5
 10
1196.971271608046
 20
150.92671701724311
 30
0.0
  0
INSERT
  5
669
  8
0
  2
STDGX5
 10
921.97127160804655
 20
150.92671701724311
 30
0.0
 41
0.25
 42
0.25
 43
0.25
  0
INSERT
  5
66A
  8
0
  2
STDGX5
 10
921.97127160804655
 20
150.92671701724311
 30
0.0
 41
0.25
 42
0.25
 43
0.25
  0
INSERT
  5
66B
  8
0
  2
STDGX5
 10
990.72127160804655
 20
150.92671701724311
 30
0.0
 41
0.25
 42
0.25
 43
0.25
  0
INSERT
  5
66C
  8
0
  2
STDGX5
 10
990.72127160804655
 20
150.92671701724311
 30
0.0
 41
0.25
 42
0.25
 43
0.25
  0
INSERT
  5
66D
  8
0
  2
STDGX5
 10
921.97127160804655
 20
150.92671701724311
 30
0.0
 41
0.5
 42
0.5
 43
0.5
  0
INSERT
  5
66E
  8
0
  2
STDGX5
 10
921.97127160804655
 20
150.92671701724311
 30
0.0
 41
0.5
 42
0.5
 43
0.5
  0
INSERT
  5
66F
  8
0
  2
STDGX5
 10
1059.471271608046
 20
150.92671701724311
 30
0.0
 41
0.5
 42
0.5
 43
0.5
  0
INSERT
  5
670
  8
0
  2
STDGX5
 10
1059.471271608046
 20
150.92671701724311
 30
0.0
 41
0.5
 42
0.5
 43
0.5
  0
INSERT
  5
672
  8
0
  2
STDGX5
 10
886.97127160804655
 20
50.92671701724317
 30
0.0
 41
0.3333333333333144
 42
0.3333333333333144
 43
0.3333333333333144
  0
INSERT
  5
673
  8
0
  2
STDGX5
 10
886.97127160804655
 20
50.92671701724317
 30
0.0
 41
0.3333333333333144
 42
0.3333333333333144
 43
0.3333333333333144
  0
INSERT
  5
674
  8
0
  2
STDGX5
 10
978.63793827471306
 20
50.92671701724317
 30
0.0
 41
0.3333333333333144
 42
0.3333333333333144
 43
0.3333333333333144
  0
INSERT
  5
675
  8
0
  2
STDGX5
 10
978.63793827471306
 20
50.92671701724317
 30
0.0
 41
0.3333333333333144
 42
0.3333333333333144
 43
0.3333333333333144
  0
INSERT
  5
677
  8
0
  2
STDGX5
 10
886.97127160804655
 20
50.92671701724317
 30
0.0
 41
0.3333333333333144
 42
0.3333333333333144
 43
0.3333333333333144
  0
INSERT
  5
678
  8
0
  2
STDGX5
 10
886.97127160804655
 20
50.92671701724317
 30
0.0
 41
0.3333333333333144
 42
0.3333333333333144
 43
0.3333333333333144
  0
INSERT
  5
679
  8
0
  2
STDGX5
 10
978.63793827471306
 20
50.92671701724317
 30
0.0
 41
0.3333333333333144
 42
0.3333333333333144
 43
0.3333333333333144
  0
INSERT
  5
67A
  8
0
  2
STDGX5
 10
978.63793827471306
 20
50.92671701724317
 30
0.0
 41
0.3333333333333144
 42
0.3333333333333144
 43
0.3333333333333144
  0
INSERT
  5
67B
  8
0
  2
STDGX5
 10
921.97127160804655
 20
150.92671701724311
 30
0.0
  0
INSERT
  5
67C
  8
0
  2
STDGX5
 10
921.97127160804655
 20
150.92671701724311
 30
0.0
  0
INSERT
  5
67D
  8
0
  2
STDGX5
 10
1196.971271608046
 20
150.92671701724311
 30
0.0
  0
INSERT
  5
67E
  8
0
  2
STDGX5
 10
1196.971271608046
 20
150.92671701724311
 30
0.0
  0
INSERT
  5
67F
  8
0
  2
STDGX5
 10
921.97127160804655
 20
150.92671701724311
 30
0.0
 41
0.25
 42
0.25
 43
0.25
  0
INSERT
  5
680
  8
0
  2
STDGX5
 10
921.97127160804655
 20
150.92671701724311
 30
0.0
 41
0.25
 42
0.25
 43
0.25
  0
INSERT
  5
681
  8
0
  2
STDGX5
 10
990.72127160804655
 20
150.92671701724311
 30
0.0
 41
0.25
 42
0.25
 43
0.25
  0
INSERT
  5
682
  8
0
  2
STDGX5
 10
990.72127160804655
 20
150.92671701724311
 30
0.0
 41
0.25
 42
0.25
 43
0.25
  0
INSERT
  5
683
  8
0
  2
STDGX5
 10
921.97127160804655
 20
150.92671701724311
 30
0.0
 41
0.5
 42
0.5
 43
0.5
  0
INSERT
  5
684
  8
0
  2
STDGX5
 10
921.97127160804655
 20
150.92671701724311
 30
0.0
 41
0.5
 42
0.5
 43
0.5
  0
INSERT
  5
685
  8
0
  2
STDGX5
 10
1059.471271608046
 20
150.92671701724311
 30
0.0
 41
0.5
 42
0.5
 43
0.5
  0
INSERT
  5
686
  8
0
  2
STDGX5
 10
1059.471271608046
 20
150.92671701724311
 30
0.0
 41
0.5
 42
0.5
 43
0.5
  0
INSERT
  5
688
  8
0
  2
STDGX5
 10
886.97127160804655
 20
50.92671701724317
 30
0.0
 41
0.3333333333333144
 42
0.3333333333333144
 43
0.3333333333333144
  0
INSERT
  5
689
  8
0
  2
STDGX5
 10
886.97127160804655
 20
50.92671701724317
 30
0.0
 41
0.3333333333333144
 42
0.3333333333333144
 43
0.3333333333333144
  0
INSERT
  5
68A
  8
0
  2
STDGX5
 10
978.63793827471306
 20
50.92671701724317
 30
0.0
 41
0.3333333333333144
 42
0.3333333333333144
 43
0.3333333333333144
  0
INSERT
  5
68B
  8
0
  2
STDGX5
 10
978.63793827471306
 20
50.92671701724317
 30
0.0
 41
0.3333333333333144
 42
0.3333333333333144
 43
0.3333333333333144
  0
INSERT
  5
68D
  8
0
  2
STDGX5
 10
886.97127160804655
 20
50.92671701724317
 30
0.0
 41
0.3333333333333144
 42
0.3333333333333144
 43
0.3333333333333144
  0
INSERT
  5
68E
  8
0
  2
STDGX5
 10
886.97127160804655
 20
50.92671701724317
 30
0.0
 41
0.3333333333333144
 42
0.3333333333333144
 43
0.3333333333333144
  0
INSERT
  5
68F
  8
0
  2
STDGX5
 10
978.63793827471306
 20
50.92671701724317
 30
0.0
 41
0.3333333333333144
 42
0.3333333333333144
 43
0.3333333333333144
  0
INSERT
  5
690
  8
0
  2
STDGX5
 10
978.63793827471306
 20
50.92671701724317
 30
0.0
 41
0.3333333333333144
 42
0.3333333333333144
 43
0.3333333333333144
  0
INSERT
  5
691
  8
0
  2
STDGX5
 10
921.97127160804655
 20
150.92671701724311
 30
0.0
  0
INSERT
  5
692
  8
0
  2
STDGX5
 10
921.97127160804655
 20
150.92671701724311
 30
0.0
  0
INSERT
  5
693
  8
0
  2
STDGX5
 10
1196.971271608046
 20
150.92671701724311
 30
0.0
  0
INSERT
  5
694
  8
0
  2
STDGX5
 10
1196.971271608046
 20
150.92671701724311
 30
0.0
  0
INSERT
  5
695
  8
0
  2
STDGX5
 10
921.97127160804655
 20
150.92671701724311
 30
0.0
 41
0.25
 42
0.25
 43
0.25
  0
INSERT
  5
696
  8
0
  2
STDGX5
 10
921.97127160804655
 20
150.92671701724311
 30
0.0
 41
0.25
 42
0.25
 43
0.25
  0
INSERT
  5
697
  8
0
  2
STDGX5
 10
990.72127160804655
 20
150.92671701724311
 30
0.0
 41
0.25
 42
0.25
 43
0.25
  0
INSERT
  5
698
  8
0
  2
STDGX5
 10
990.72127160804655
 20
150.92671701724311
 30
0.0
 41
0.25
 42
0.25
 43
0.25
  0
INSERT
  5
699
  8
0
  2
STDGX5
 10
921.97127160804655
 20
150.92671701724311
 30
0.0
 41
0.5
 42
0.5
 43
0.5
  0
INSERT
  5
69A
  8
0
  2
STDGX5
 10
921.97127160804655
 20
150.92671701724311
 30
0.0
 41
0.5
 42
0.5
 43
0.5
  0
INSERT
  5
69B
  8
0
  2
STDGX5
 10
1059.471271608046
 20
150.92671701724311
 30
0.0
 41
0.5
 42
0.5
 43
0.5
  0
INSERT
  5
69C
  8
0
  2
STDGX5
 10
1059.471271608046
 20
150.92671701724311
 30
0.0
 41
0.5
 42
0.5
 43
0.5
  0
INSERT
  5
69E
  8
0
  2
STDGX5
 10
886.97127160804655
 20
50.92671701724317
 30
0.0
 41
0.3333333333333144
 42
0.3333333333333144
 43
0.3333333333333144
  0
INSERT
  5
69F
  8
0
  2
STDGX5
 10
886.97127160804655
 20
50.92671701724317
 30
0.0
 41
0.3333333333333144
 42
0.3333333333333144
 43
0.3333333333333144
  0
INSERT
  5
6A0
  8
0
  2
STDGX5
 10
978.63793827471306
 20
50.92671701724317
 30
0.0
 41
0.3333333333333144
 42
0.3333333333333144
 43
0.3333333333333144
  0
INSERT
  5
6A1
  8
0
  2
STDGX5
 10
978.63793827471306
 20
50.92671701724317
 30
0.0
 41
0.3333333333333144
 42
0.3333333333333144
 43
0.3333333333333144
  0
INSERT
  5
6A3
  8
0
  2
STDGX5
 10
886.97127160804655
 20
50.92671701724317
 30
0.0
 41
0.3333333333333144
 42
0.3333333333333144
 43
0.3333333333333144
  0
INSERT
  5
6A4
  8
0
  2
STDGX5
 10
886.97127160804655
 20
50.92671701724317
 30
0.0
 41
0.3333333333333144
 42
0.3333333333333144
 43
0.3333333333333144
  0
INSERT
  5
6A5
  8
0
  2
STDGX5
 10
978.63793827471306
 20
50.92671701724317
 30
0.0
 41
0.3333333333333144
 42
0.3333333333333144
 43
0.3333333333333144
  0
INSERT
  5
6A6
  8
0
  2
STDGX5
 10
978.63793827471306
 20
50.92671701724317
 30
0.0
 41
0.3333333333333144
 42
0.3333333333333144
 43
0.3333333333333144
  0
INSERT
  5
6A7
  8
0
  2
STDGX5
 10
921.97127160804655
 20
150.92671701724311
 30
0.0
  0
INSERT
  5
6A8
  8
0
  2
STDGX5
 10
921.97127160804655
 20
150.92671701724311
 30
0.0
  0
INSERT
  5
6A9
  8
0
  2
STDGX5
 10
1196.971271608046
 20
150.92671701724311
 30
0.0
  0
INSERT
  5
6AA
  8
0
  2
STDGX5
 10
1196.971271608046
 20
150.92671701724311
 30
0.0
  0
INSERT
  5
6AB
  8
0
  2
STDGX5
 10
921.97127160804655
 20
150.92671701724311
 30
0.0
 41
0.25
 42
0.25
 43
0.25
  0
INSERT
  5
6AC
  8
0
  2
STDGX5
 10
921.97127160804655
 20
150.92671701724311
 30
0.0
 41
0.25
 42
0.25
 43
0.25
  0
INSERT
  5
6AD
  8
0
  2
STDGX5
 10
990.72127160804655
 20
150.92671701724311
 30
0.0
 41
0.25
 42
0.25
 43
0.25
  0
INSERT
  5
6AE
  8
0
  2
STDGX5
 10
990.72127160804655
 20
150.92671701724311
 30
0.0
 41
0.25
 42
0.25
 43
0.25
  0
INSERT
  5
6AF
  8
0
  2
STDGX5
 10
921.97127160804655
 20
150.92671701724311
 30
0.0
 41
0.5
 42
0.5
 43
0.5
  0
INSERT
  5
6B0
  8
0
  2
STDGX5
 10
921.97127160804655
 20
150.92671701724311
 30
0.0
 41
0.5
 42
0.5
 43
0.5
  0
INSERT
  5
6B1
  8
0
  2
STDGX5
 10
1059.471271608046
 20
150.92671701724311
 30
0.0
 41
0.5
 42
0.5
 43
0.5
  0
INSERT
  5
6B2
  8
0
  2
STDGX5
 10
1059.471271608046
 20
150.92671701724311
 30
0.0
 41
0.5
 42
0.5
 43
0.5
  0
INSERT
  5
6B4
  8
0
  2
STDGX5
 10
886.97127160804655
 20
50.92671701724317
 30
0.0
 41
0.3333333333333144
 42
0.3333333333333144
 43
0.3333333333333144
  0
INSERT
  5
6B5
  8
0
  2
STDGX5
 10
886.97127160804655
 20
50.92671701724317
 30
0.0
 41
0.3333333333333144
 42
0.3333333333333144
 43
0.3333333333333144
  0
INSERT
  5
6B6
  8
0
  2
STDGX5
 10
978.63793827471306
 20
50.92671701724317
 30
0.0
 41
0.3333333333333144
 42
0.3333333333333144
 43
0.3333333333333144
  0
INSERT
  5
6B7
  8
0
  2
STDGX5
 10
978.63793827471306
 20
50.92671701724317
 30
0.0
 41
0.3333333333333144
 42
0.3333333333333144
 43
0.3333333333333144
  0
INSERT
  5
6B9
  8
0
  2
STDGX5
 10
886.97127160804655
 20
50.92671701724317
 30
0.0
 41
0.3333333333333144
 42
0.3333333333333144
 43
0.3333333333333144
  0
INSERT
  5
6BA
  8
0
  2
STDGX5
 10
886.97127160804655
 20
50.92671701724317
 30
0.0
 41
0.3333333333333144
 42
0.3333333333333144
 43
0.3333333333333144
  0
INSERT
  5
6BB
  8
0
  2
STDGX5
 10
978.63793827471306
 20
50.92671701724317
 30
0.0
 41
0.3333333333333144
 42
0.3333333333333144
 43
0.3333333333333144
  0
INSERT
  5
6BC
  8
0
  2
STDGX5
 10
978.63793827471306
 20
50.92671701724317
 30
0.0
 41
0.3333333333333144
 42
0.3333333333333144
 43
0.3333333333333144
  0
INSERT
  5
6BD
  8
0
  2
STDGX5
 10
921.97127160804655
 20
150.92671701724311
 30
0.0
  0
INSERT
  5
6BE
  8
0
  2
STDGX5
 10
921.97127160804655
 20
150.92671701724311
 30
0.0
  0
INSERT
  5
6BF
  8
0
  2
STDGX5
 10
1196.971271608046
 20
150.92671701724311
 30
0.0
  0
INSERT
  5
6C0
  8
0
  2
STDGX5
 10
1196.971271608046
 20
150.92671701724311
 30
0.0
  0
INSERT
  5
6C1
  8
0
  2
STDGX5
 10
921.97127160804655
 20
150.92671701724311
 30
0.0
 41
0.25
 42
0.25
 43
0.25
  0
INSERT
  5
6C2
  8
0
  2
STDGX5
 10
921.97127160804655
 20
150.92671701724311
 30
0.0
 41
0.25
 42
0.25
 43
0.25
  0
INSERT
  5
6C3
  8
0
  2
STDGX5
 10
990.72127160804655
 20
150.92671701724311
 30
0.0
 41
0.25
 42
0.25
 43
0.25
  0
INSERT
  5
6C4
  8
0
  2
STDGX5
 10
990.72127160804655
 20
150.92671701724311
 30
0.0
 41
0.25
 42
0.25
 43
0.25
  0
INSERT
  5
6C5
  8
0
  2
STDGX5
 10
921.97127160804655
 20
150.92671701724311
 30
0.0
 41
0.5
 42
0.5
 43
0.5
  0
INSERT
  5
6C6
  8
0
  2
STDGX5
 10
921.97127160804655
 20
150.92671701724311
 30
0.0
 41
0.5
 42
0.5
 43
0.5
  0
INSERT
  5
6C7
  8
0
  2
STDGX5
 10
1059.471271608046
 20
150.92671701724311
 30
0.0
 41
0.5
 42
0.5
 43
0.5
  0
INSERT
  5
6C8
  8
0
  2
STDGX5
 10
1059.471271608046
 20
150.92671701724311
 30
0.0
 41
0.5
 42
0.5
 43
0.5
  0
INSERT
  5
6CA
  8
0
  2
STDGX5
 10
886.97127160804655
 20
50.92671701724317
 30
0.0
 41
0.3333333333333144
 42
0.3333333333333144
 43
0.3333333333333144
  0
INSERT
  5
6CB
  8
0
  2
STDGX5
 10
886.97127160804655
 20
50.92671701724317
 30
0.0
 41
0.3333333333333144
 42
0.3333333333333144
 43
0.3333333333333144
  0
INSERT
  5
6CC
  8
0
  2
STDGX5
 10
978.63793827471306
 20
50.92671701724317
 30
0.0
 41
0.3333333333333144
 42
0.3333333333333144
 43
0.3333333333333144
  0
INSERT
  5
6CD
  8
0
  2
STDGX5
 10
978.63793827471306
 20
50.92671701724317
 30
0.0
 41
0.3333333333333144
 42
0.3333333333333144
 43
0.3333333333333144
  0
INSERT
  5
6CF
  8
0
  2
STDGX5
 10
886.97127160804655
 20
50.92671701724317
 30
0.0
 41
0.3333333333333144
 42
0.3333333333333144
 43
0.3333333333333144
  0
INSERT
  5
6D0
  8
0
  2
STDGX5
 10
886.97127160804655
 20
50.92671701724317
 30
0.0
 41
0.3333333333333144
 42
0.3333333333333144
 43
0.3333333333333144
  0
INSERT
  5
6D1
  8
0
  2
STDGX5
 10
978.63793827471306
 20
50.92671701724317
 30
0.0
 41
0.3333333333333144
 42
0.3333333333333144
 43
0.3333333333333144
  0
INSERT
  5
6D2
  8
0
  2
STDGX5
 10
978.63793827471306
 20
50.92671701724317
 30
0.0
 41
0.3333333333333144
 42
0.3333333333333144
 43
0.3333333333333144
  0
INSERT
  5
6D3
  8
0
  2
STDGX5
 10
921.97127160804655
 20
150.92671701724311
 30
0.0
  0
INSERT
  5
6D4
  8
0
  2
STDGX5
 10
921.97127160804655
 20
150.92671701724311
 30
0.0
  0
INSERT
  5
6D5
  8
0
  2
STDGX5
 10
1196.971271608046
 20
150.92671701724311
 30
0.0
  0
INSERT
  5
6D6
  8
0
  2
STDGX5
 10
1196.971271608046
 20
150.92671701724311
 30
0.0
  0
INSERT
  5
6D7
  8
0
  2
STDGX5
 10
902.09270576060226
 20
199.92613312568619
 30
0.0
  0
INSERT
  5
6D8
  8
0
  2
STDGX5
 10
902.09270576060226
 20
199.92613312568619
 30
0.0
  0
INSERT
  5
6D9
  8
0
  2
STDGX5
 10
1177.092705760602
 20
199.92613312568619
 30
0.0
  0
INSERT
  5
6DA
  8
0
  2
STDGX5
 10
1177.092705760602
 20
199.92613312568619
 30
0.0
  0
INSERT
  5
6DB
  8
0
  2
STDGX5
 10
902.09270576060226
 20
199.92613312568619
 30
0.0
  0
INSERT
  5
6DC
  8
0
  2
STDGX5
 10
902.09270576060226
 20
199.92613312568619
 30
0.0
  0
INSERT
  5
6DD
  8
0
  2
STDGX5
 10
1177.092705760602
 20
199.92613312568619
 30
0.0
  0
INSERT
  5
6DE
  8
0
  2
STDGX5
 10
1177.092705760602
 20
199.92613312568619
 30
0.0
  0
INSERT
  5
6DF
  8
0
  2
STDGX5
 10
850.71386734178589
 20
240.48082090810459
 30
0.0
  0
INSERT
  5
6E0
  8
0
  2
STDGX5
 10
850.71386734178589
 20
240.48082090810459
 30
0.0
  0
INSERT
  5
6E1
  8
0
  2
STDGX5
 10
1125.713867341786
 20
240.48082090810459
 30
0.0
  0
INSERT
  5
6E2
  8
0
  2
STDGX5
 10
1125.713867341786
 20
240.48082090810459
 30
0.0
  0
INSERT
  5
6E3
  8
0
  2
STDGX5
 10
850.71386734178589
 20
240.48082090810459
 30
0.0
  0
INSERT
  5
6E4
  8
0
  2
STDGX5
 10
850.71386734178589
 20
240.48082090810459
 30
0.0
  0
INSERT
  5
6E5
  8
0
  2
STDGX5
 10
1125.713867341786
 20
240.48082090810459
 30
0.0
  0
INSERT
  5
6E6
  8
0
  2
STDGX5
 10
1125.713867341786
 20
240.48082090810459
 30
0.0
  0
INSERT
  5
6E7
  8
0
  2
STDGX5
 10
613.57805830652887
 20
127.3155250365056
 30
0.0
  0
INSERT
  5
6E8
  8
0
  2
STDGX5
 10
613.57805830652887
 20
127.3155250365056
 30
0.0
  0
INSERT
  5
6E9
  8
0
  2
STDGX5
 10
888.57805830652899
 20
127.3155250365056
 30
0.0
  0
INSERT
  5
6EA
  8
0
  2
STDGX5
 10
888.57805830652899
 20
127.3155250365056
 30
0.0
  0
INSERT
  5
6EB
  8
0
  2
STDGX5
 10
613.57805830652887
 20
127.3155250365056
 30
0.0
  0
INSERT
  5
6EC
  8
0
  2
STDGX5
 10
613.57805830652887
 20
127.3155250365056
 30
0.0
  0
INSERT
  5
6ED
  8
0
  2
STDGX5
 10
888.57805830652899
 20
127.3155250365056
 30
0.0
  0
INSERT
  5
6EE
  8
0
  2
STDGX5
 10
888.57805830652899
 20
127.3155250365056
 30
0.0
  0
INSERT
  5
6EF
  8
0
  2
STDGX5
 10
904.45627087964067
 20
145.78040719120199
 30
0.0
 41
0.25
 42
0.25
 43
0.25
  0
INSERT
  5
6F0
  8
0
  2
STDGX5
 10
904.45627087964067
 20
145.78040719120199
 30
0.0
 41
0.25
 42
0.25
 43
0.25
  0
INSERT
  5
6F1
  8
0
  2
STDGX5
 10
973.20627087964067
 20
145.78040719120199
 30
0.0
 41
0.25
 42
0.25
 43
0.25
  0
INSERT
  5
6F2
  8
0
  2
STDGX5
 10
973.20627087964067
 20
145.78040719120199
 30
0.0
 41
0.25
 42
0.25
 43
0.25
  0
INSERT
  5
6F3
  8
0
  2
STDGX5
 10
904.45627087964067
 20
145.78040719120199
 30
0.0
 41
0.5
 42
0.5
 43
0.5
  0
INSERT
  5
6F4
  8
0
  2
STDGX5
 10
904.45627087964067
 20
145.78040719120199
 30
0.0
 41
0.5
 42
0.5
 43
0.5
  0
INSERT
  5
6F5
  8
0
  2
STDGX5
 10
1041.9562708796409
 20
145.78040719120199
 30
0.0
 41
0.5
 42
0.5
 43
0.5
  0
INSERT
  5
6F6
  8
0
  2
STDGX5
 10
1041.9562708796409
 20
145.78040719120199
 30
0.0
 41
0.5
 42
0.5
 43
0.5
  0
INSERT
  5
6F8
  8
0
  2
STDGX5
 10
869.45627087964067
 20
45.780407191202023
 30
0.0
 41
0.3333333333333144
 42
0.3333333333333144
 43
0.3333333333333144
  0
INSERT
  5
6F9
  8
0
  2
STDGX5
 10
869.45627087964067
 20
45.780407191202023
 30
0.0
 41
0.3333333333333144
 42
0.3333333333333144
 43
0.3333333333333144
  0
INSERT
  5
6FA
  8
0
  2
STDGX5
 10
961.1229375463073
 20
45.780407191202023
 30
0.0
 41
0.3333333333333144
 42
0.3333333333333144
 43
0.3333333333333144
  0
INSERT
  5
6FB
  8
0
  2
STDGX5
 10
961.1229375463073
 20
45.780407191202023
 30
0.0
 41
0.3333333333333144
 42
0.3333333333333144
 43
0.3333333333333144
  0
INSERT
  5
6FD
  8
0
  2
STDGX5
 10
869.45627087964067
 20
45.780407191202023
 30
0.0
 41
0.3333333333333144
 42
0.3333333333333144
 43
0.3333333333333144
  0
INSERT
  5
6FE
  8
0
  2
STDGX5
 10
869.45627087964067
 20
45.780407191202023
 30
0.0
 41
0.3333333333333144
 42
0.3333333333333144
 43
0.3333333333333144
  0
INSERT
  5
6FF
  8
0
  2
STDGX5
 10
961.1229375463073
 20
45.780407191202023
 30
0.0
 41
0.3333333333333144
 42
0.3333333333333144
 43
0.3333333333333144
  0
INSERT
  5
700
  8
0
  2
STDGX5
 10
961.1229375463073
 20
45.780407191202023
 30
0.0
 41
0.3333333333333144
 42
0.3333333333333144
 43
0.3333333333333144
  0
INSERT
  5
701
  8
0
  2
STDGX5
 10
904.45627087964067
 20
145.78040719120199
 30
0.0
  0
INSERT
  5
702
  8
0
  2
STDGX5
 10
904.45627087964067
 20
145.78040719120199
 30
0.0
  0
INSERT
  5
703
  8
0
  2
STDGX5
 10
1179.45627087964
 20
145.78040719120199
 30
0.0
  0
INSERT
  5
704
  8
0
  2
STDGX5
 10
1179.45627087964
 20
145.78040719120199
 30
0.0
  0
INSERT
  5
705
  8
0
  2
STDGX5
 10
904.45627087964067
 20
145.78040719120199
 30
0.0
 41
0.25
 42
0.25
 43
0.25
  0
INSERT
  5
706
  8
0
  2
STDGX5
 10
904.45627087964067
 20
145.78040719120199
 30
0.0
 41
0.25
 42
0.25
 43
0.25
  0
INSERT
  5
707
  8
0
  2
STDGX5
 10
973.20627087964067
 20
145.78040719120199
 30
0.0
 41
0.25
 42
0.25
 43
0.25
  0
INSERT
  5
708
  8
0
  2
STDGX5
 10
973.20627087964067
 20
145.78040719120199
 30
0.0
 41
0.25
 42
0.25
 43
0.25
  0
INSERT
  5
709
  8
0
  2
STDGX5
 10
904.45627087964067
 20
145.78040719120199
 30
0.0
 41
0.5
 42
0.5
 43
0.5
  0
INSERT
  5
70A
  8
0
  2
STDGX5
 10
904.45627087964067
 20
145.78040719120199
 30
0.0
 41
0.5
 42
0.5
 43
0.5
  0
INSERT
  5
70B
  8
0
  2
STDGX5
 10
1041.9562708796409
 20
145.78040719120199
 30
0.0
 41
0.5
 42
0.5
 43
0.5
  0
INSERT
  5
70C
  8
0
  2
STDGX5
 10
1041.9562708796409
 20
145.78040719120199
 30
0.0
 41
0.5
 42
0.5
 43
0.5
  0
INSERT
  5
70E
  8
0
  2
STDGX5
 10
869.45627087964067
 20
45.780407191202023
 30
0.0
 41
0.3333333333333144
 42
0.3333333333333144
 43
0.3333333333333144
  0
INSERT
  5
70F
  8
0
  2
STDGX5
 10
869.45627087964067
 20
45.780407191202023
 30
0.0
 41
0.3333333333333144
 42
0.3333333333333144
 43
0.3333333333333144
  0
INSERT
  5
710
  8
0
  2
STDGX5
 10
961.1229375463073
 20
45.780407191202023
 30
0.0
 41
0.3333333333333144
 42
0.3333333333333144
 43
0.3333333333333144
  0
INSERT
  5
711
  8
0
  2
STDGX5
 10
961.1229375463073
 20
45.780407191202023
 30
0.0
 41
0.3333333333333144
 42
0.3333333333333144
 43
0.3333333333333144
  0
INSERT
  5
713
  8
0
  2
STDGX5
 10
869.45627087964067
 20
45.780407191202023
 30
0.0
 41
0.3333333333333144
 42
0.3333333333333144
 43
0.3333333333333144
  0
INSERT
  5
714
  8
0
  2
STDGX5
 10
869.45627087964067
 20
45.780407191202023
 30
0.0
 41
0.3333333333333144
 42
0.3333333333333144
 43
0.3333333333333144
  0
INSERT
  5
715
  8
0
  2
STDGX5
 10
961.1229375463073
 20
45.780407191202023
 30
0.0
 41
0.3333333333333144
 42
0.3333333333333144
 43
0.3333333333333144
  0
INSERT
  5
716
  8
0
  2
STDGX5
 10
961.1229375463073
 20
45.780407191202023
 30
0.0
 41
0.3333333333333144
 42
0.3333333333333144
 43
0.3333333333333144
  0
INSERT
  5
717
  8
0
  2
STDGX5
 10
904.45627087964067
 20
145.78040719120199
 30
0.0
  0
INSERT
  5
718
  8
0
  2
STDGX5
 10
904.45627087964067
 20
145.78040719120199
 30
0.0
  0
INSERT
  5
719
  8
0
  2
STDGX5
 10
1179.45627087964
 20
145.78040719120199
 30
0.0
  0
INSERT
  5
71A
  8
0
  2
STDGX5
 10
1179.45627087964
 20
145.78040719120199
 30
0.0
  0
INSERT
  5
71B
  8
0
  2
STDGX5
 10
904.45627087964067
 20
145.78040719120199
 30
0.0
 41
0.25
 42
0.25
 43
0.25
  0
INSERT
  5
71C
  8
0
  2
STDGX5
 10
904.45627087964067
 20
145.78040719120199
 30
0.0
 41
0.25
 42
0.25
 43
0.25
  0
INSERT
  5
71D
  8
0
  2
STDGX5
 10
973.20627087964067
 20
145.78040719120199
 30
0.0
 41
0.25
 42
0.25
 43
0.25
  0
INSERT
  5
71E
  8
0
  2
STDGX5
 10
973.20627087964067
 20
145.78040719120199
 30
0.0
 41
0.25
 42
0.25
 43
0.25
  0
INSERT
  5
71F
  8
0
  2
STDGX5
 10
904.45627087964067
 20
145.78040719120199
 30
0.0
 41
0.5
 42
0.5
 43
0.5
  0
INSERT
  5
720
  8
0
  2
STDGX5
 10
904.45627087964067
 20
145.78040719120199
 30
0.0
 41
0.5
 42
0.5
 43
0.5
  0
INSERT
  5
721
  8
0
  2
STDGX5
 10
1041.9562708796409
 20
145.78040719120199
 30
0.0
 41
0.5
 42
0.5
 43
0.5
  0
INSERT
  5
722
  8
0
  2
STDGX5
 10
1041.9562708796409
 20
145.78040719120199
 30
0.0
 41
0.5
 42
0.5
 43
0.5
  0
INSERT
  5
724
  8
0
  2
STDGX5
 10
869.45627087964067
 20
45.780407191202023
 30
0.0
 41
0.3333333333333144
 42
0.3333333333333144
 43
0.3333333333333144
  0
INSERT
  5
725
  8
0
  2
STDGX5
 10
869.45627087964067
 20
45.780407191202023
 30
0.0
 41
0.3333333333333144
 42
0.3333333333333144
 43
0.3333333333333144
  0
INSERT
  5
726
  8
0
  2
STDGX5
 10
961.1229375463073
 20
45.780407191202023
 30
0.0
 41
0.3333333333333144
 42
0.3333333333333144
 43
0.3333333333333144
  0
INSERT
  5
727
  8
0
  2
STDGX5
 10
961.1229375463073
 20
45.780407191202023
 30
0.0
 41
0.3333333333333144
 42
0.3333333333333144
 43
0.3333333333333144
  0
INSERT
  5
729
  8
0
  2
STDGX5
 10
869.45627087964067
 20
45.780407191202023
 30
0.0
 41
0.3333333333333144
 42
0.3333333333333144
 43
0.3333333333333144
  0
INSERT
  5
72A
  8
0
  2
STDGX5
 10
869.45627087964067
 20
45.780407191202023
 30
0.0
 41
0.3333333333333144
 42
0.3333333333333144
 43
0.3333333333333144
  0
INSERT
  5
72B
  8
0
  2
STDGX5
 10
961.1229375463073
 20
45.780407191202023
 30
0.0
 41
0.3333333333333144
 42
0.3333333333333144
 43
0.3333333333333144
  0
INSERT
  5
72C
  8
0
  2
STDGX5
 10
961.1229375463073
 20
45.780407191202023
 30
0.0
 41
0.3333333333333144
 42
0.3333333333333144
 43
0.3333333333333144
  0
INSERT
  5
72D
  8
0
  2
STDGX5
 10
904.45627087964067
 20
145.78040719120199
 30
0.0
  0
INSERT
  5
72E
  8
0
  2
STDGX5
 10
904.45627087964067
 20
145.78040719120199
 30
0.0
  0
INSERT
  5
72F
  8
0
  2
STDGX5
 10
1179.45627087964
 20
145.78040719120199
 30
0.0
  0
INSERT
  5
730
  8
0
  2
STDGX5
 10
1179.45627087964
 20
145.78040719120199
 30
0.0
  0
INSERT
  5
731
  8
0
  2
STDGX5
 10
904.45627087964067
 20
145.78040719120199
 30
0.0
 41
0.25
 42
0.25
 43
0.25
  0
INSERT
  5
732
  8
0
  2
STDGX5
 10
904.45627087964067
 20
145.78040719120199
 30
0.0
 41
0.25
 42
0.25
 43
0.25
  0
INSERT
  5
733
  8
0
  2
STDGX5
 10
973.20627087964067
 20
145.78040719120199
 30
0.0
 41
0.25
 42
0.25
 43
0.25
  0
INSERT
  5
734
  8
0
  2
STDGX5
 10
973.20627087964067
 20
145.78040719120199
 30
0.0
 41
0.25
 42
0.25
 43
0.25
  0
INSERT
  5
735
  8
0
  2
STDGX5
 10
904.45627087964067
 20
145.78040719120199
 30
0.0
 41
0.5
 42
0.5
 43
0.5
  0
INSERT
  5
736
  8
0
  2
STDGX5
 10
904.45627087964067
 20
145.78040719120199
 30
0.0
 41
0.5
 42
0.5
 43
0.5
  0
INSERT
  5
737
  8
0
  2
STDGX5
 10
1041.9562708796409
 20
145.78040719120199
 30
0.0
 41
0.5
 42
0.5
 43
0.5
  0
INSERT
  5
738
  8
0
  2
STDGX5
 10
1041.9562708796409
 20
145.78040719120199
 30
0.0
 41
0.5
 42
0.5
 43
0.5
  0
INSERT
  5
73A
  8
0
  2
STDGX5
 10
869.45627087964067
 20
45.780407191202023
 30
0.0
 41
0.3333333333333144
 42
0.3333333333333144
 43
0.3333333333333144
  0
INSERT
  5
73B
  8
0
  2
STDGX5
 10
869.45627087964067
 20
45.780407191202023
 30
0.0
 41
0.3333333333333144
 42
0.3333333333333144
 43
0.3333333333333144
  0
INSERT
  5
73C
  8
0
  2
STDGX5
 10
961.1229375463073
 20
45.780407191202023
 30
0.0
 41
0.3333333333333144
 42
0.3333333333333144
 43
0.3333333333333144
  0
INSERT
  5
73D
  8
0
  2
STDGX5
 10
961.1229375463073
 20
45.780407191202023
 30
0.0
 41
0.3333333333333144
 42
0.3333333333333144
 43
0.3333333333333144
  0
INSERT
  5
73F
  8
0
  2
STDGX5
 10
869.45627087964067
 20
45.780407191202023
 30
0.0
 41
0.3333333333333144
 42
0.3333333333333144
 43
0.3333333333333144
  0
INSERT
  5
740
  8
0
  2
STDGX5
 10
869.45627087964067
 20
45.780407191202023
 30
0.0
 41
0.3333333333333144
 42
0.3333333333333144
 43
0.3333333333333144
  0
INSERT
  5
741
  8
0
  2
STDGX5
 10
961.1229375463073
 20
45.780407191202023
 30
0.0
 41
0.3333333333333144
 42
0.3333333333333144
 43
0.3333333333333144
  0
INSERT
  5
742
  8
0
  2
STDGX5
 10
961.1229375463073
 20
45.780407191202023
 30
0.0
 41
0.3333333333333144
 42
0.3333333333333144
 43
0.3333333333333144
  0
INSERT
  5
743
  8
0
  2
STDGX5
 10
904.45627087964067
 20
145.78040719120199
 30
0.0
  0
INSERT
  5
744
  8
0
  2
STDGX5
 10
904.45627087964067
 20
145.78040719120199
 30
0.0
  0
INSERT
  5
745
  8
0
  2
STDGX5
 10
1179.45627087964
 20
145.78040719120199
 30
0.0
  0
INSERT
  5
746
  8
0
  2
STDGX5
 10
1179.45627087964
 20
145.78040719120199
 30
0.0
  0
INSERT
  5
747
  8
0
  2
STDGX5
 10
904.45627087964067
 20
145.78040719120199
 30
0.0
 41
0.25
 42
0.25
 43
0.25
  0
INSERT
  5
748
  8
0
  2
STDGX5
 10
904.45627087964067
 20
145.78040719120199
 30
0.0
 41
0.25
 42
0.25
 43
0.25
  0
INSERT
  5
749
  8
0
  2
STDGX5
 10
973.20627087964067
 20
145.78040719120199
 30
0.0
 41
0.25
 42
0.25
 43
0.25
  0
INSERT
  5
74A
  8
0
  2
STDGX5
 10
973.20627087964067
 20
145.78040719120199
 30
0.0
 41
0.25
 42
0.25
 43
0.25
  0
INSERT
  5
74B
  8
0
  2
STDGX5
 10
904.45627087964067
 20
145.78040719120199
 30
0.0
 41
0.5
 42
0.5
 43
0.5
  0
INSERT
  5
74C
  8
0
  2
STDGX5
 10
904.45627087964067
 20
145.78040719120199
 30
0.0
 41
0.5
 42
0.5
 43
0.5
  0
INSERT
  5
74D
  8
0
  2
STDGX5
 10
1041.9562708796409
 20
145.78040719120199
 30
0.0
 41
0.5
 42
0.5
 43
0.5
  0
INSERT
  5
74E
  8
0
  2
STDGX5
 10
1041.9562708796409
 20
145.78040719120199
 30
0.0
 41
0.5
 42
0.5
 43
0.5
  0
INSERT
  5
750
  8
0
  2
STDGX5
 10
869.45627087964067
 20
45.780407191202023
 30
0.0
 41
0.3333333333333144
 42
0.3333333333333144
 43
0.3333333333333144
  0
INSERT
  5
751
  8
0
  2
STDGX5
 10
869.45627087964067
 20
45.780407191202023
 30
0.0
 41
0.3333333333333144
 42
0.3333333333333144
 43
0.3333333333333144
  0
INSERT
  5
752
  8
0
  2
STDGX5
 10
961.1229375463073
 20
45.780407191202023
 30
0.0
 41
0.3333333333333144
 42
0.3333333333333144
 43
0.3333333333333144
  0
INSERT
  5
753
  8
0
  2
STDGX5
 10
961.1229375463073
 20
45.780407191202023
 30
0.0
 41
0.3333333333333144
 42
0.3333333333333144
 43
0.3333333333333144
  0
INSERT
  5
755
  8
0
  2
STDGX5
 10
869.45627087964067
 20
45.780407191202023
 30
0.0
 41
0.3333333333333144
 42
0.3333333333333144
 43
0.3333333333333144
  0
INSERT
  5
756
  8
0
  2
STDGX5
 10
869.45627087964067
 20
45.780407191202023
 30
0.0
 41
0.3333333333333144
 42
0.3333333333333144
 43
0.3333333333333144
  0
INSERT
  5
757
  8
0
  2
STDGX5
 10
961.1229375463073
 20
45.780407191202023
 30
0.0
 41
0.3333333333333144
 42
0.3333333333333144
 43
0.3333333333333144
  0
INSERT
  5
758
  8
0
  2
STDGX5
 10
961.1229375463073
 20
45.780407191202023
 30
0.0
 41
0.3333333333333144
 42
0.3333333333333144
 43
0.3333333333333144
  0
INSERT
  5
759
  8
0
  2
STDGX5
 10
904.45627087964067
 20
145.78040719120199
 30
0.0
  0
INSERT
  5
75A
  8
0
  2
STDGX5
 10
904.45627087964067
 20
145.78040719120199
 30
0.0
  0
INSERT
  5
75B
  8
0
  2
STDGX5
 10
1179.45627087964
 20
145.78040719120199
 30
0.0
  0
INSERT
  5
75C
  8
0
  2
STDGX5
 10
1179.45627087964
 20
145.78040719120199
 30
0.0
  0
INSERT
  5
75D
  8
0
  2
STDGX5
 10
904.45627087964067
 20
145.78040719120199
 30
0.0
 41
0.25
 42
0.25
 43
0.25
  0
INSERT
  5
75E
  8
0
  2
STDGX5
 10
904.45627087964067
 20
145.78040719120199
 30
0.0
 41
0.25
 42
0.25
 43
0.25
  0
INSERT
  5
75F
  8
0
  2
STDGX5
 10
973.20627087964067
 20
145.78040719120199
 30
0.0
 41
0.25
 42
0.25
 43
0.25
  0
INSERT
  5
760
  8
0
  2
STDGX5
 10
973.20627087964067
 20
145.78040719120199
 30
0.0
 41
0.25
 42
0.25
 43
0.25
  0
INSERT
  5
761
  8
0
  2
STDGX5
 10
904.45627087964067
 20
145.78040719120199
 30
0.0
 41
0.5
 42
0.5
 43
0.5
  0
INSERT
  5
762
  8
0
  2
STDGX5
 10
904.45627087964067
 20
145.78040719120199
 30
0.0
 41
0.5
 42
0.5
 43
0.5
  0
INSERT
  5
763
  8
0
  2
STDGX5
 10
1041.9562708796409
 20
145.78040719120199
 30
0.0
 41
0.5
 42
0.5
 43
0.5
  0
INSERT
  5
764
  8
0
  2
STDGX5
 10
1041.9562708796409
 20
145.78040719120199
 30
0.0
 41
0.5
 42
0.5
 43
0.5
  0
INSERT
  5
766
  8
0
  2
STDGX5
 10
869.45627087964067
 20
45.780407191202023
 30
0.0
 41
0.3333333333333144
 42
0.3333333333333144
 43
0.3333333333333144
  0
INSERT
  5
767
  8
0
  2
STDGX5
 10
869.45627087964067
 20
45.780407191202023
 30
0.0
 41
0.3333333333333144
 42
0.3333333333333144
 43
0.3333333333333144
  0
INSERT
  5
768
  8
0
  2
STDGX5
 10
961.1229375463073
 20
45.780407191202023
 30
0.0
 41
0.3333333333333144
 42
0.3333333333333144
 43
0.3333333333333144
  0
INSERT
  5
769
  8
0
  2
STDGX5
 10
961.1229375463073
 20
45.780407191202023
 30
0.0
 41
0.3333333333333144
 42
0.3333333333333144
 43
0.3333333333333144
  0
INSERT
  5
76B
  8
0
  2
STDGX5
 10
869.45627087964067
 20
45.780407191202023
 30
0.0
 41
0.3333333333333144
 42
0.3333333333333144
 43
0.3333333333333144
  0
INSERT
  5
76C
  8
0
  2
STDGX5
 10
869.45627087964067
 20
45.780407191202023
 30
0.0
 41
0.3333333333333144
 42
0.3333333333333144
 43
0.3333333333333144
  0
INSERT
  5
76D
  8
0
  2
STDGX5
 10
961.1229375463073
 20
45.780407191202023
 30
0.0
 41
0.3333333333333144
 42
0.3333333333333144
 43
0.3333333333333144
  0
INSERT
  5
76E
  8
0
  2
STDGX5
 10
961.1229375463073
 20
45.780407191202023
 30
0.0
 41
0.3333333333333144
 42
0.3333333333333144
 43
0.3333333333333144
  0
INSERT
  5
76F
  8
0
  2
STDGX5
 10
904.45627087964067
 20
145.78040719120199
 30
0.0
  0
INSERT
  5
770
  8
0
  2
STDGX5
 10
904.45627087964067
 20
145.78040719120199
 30
0.0
  0
INSERT
  5
771
  8
0
  2
STDGX5
 10
1179.45627087964
 20
145.78040719120199
 30
0.0
  0
INSERT
  5
772
  8
0
  2
STDGX5
 10
1179.45627087964
 20
145.78040719120199
 30
0.0
  0
INSERT
  5
773
  8
0
  2
STDGX5
 10
904.45627087964067
 20
145.78040719120199
 30
0.0
 41
0.25
 42
0.25
 43
0.25
  0
INSERT
  5
774
  8
0
  2
STDGX5
 10
904.45627087964067
 20
145.78040719120199
 30
0.0
 41
0.25
 42
0.25
 43
0.25
  0
INSERT
  5
775
  8
0
  2
STDGX5
 10
973.20627087964067
 20
145.78040719120199
 30
0.0
 41
0.25
 42
0.25
 43
0.25
  0
INSERT
  5
776
  8
0
  2
STDGX5
 10
973.20627087964067
 20
145.78040719120199
 30
0.0
 41
0.25
 42
0.25
 43
0.25
  0
INSERT
  5
777
  8
0
  2
STDGX5
 10
904.45627087964067
 20
145.78040719120199
 30
0.0
 41
0.5
 42
0.5
 43
0.5
  0
INSERT
  5
778
  8
0
  2
STDGX5
 10
904.45627087964067
 20
145.78040719120199
 30
0.0
 41
0.5
 42
0.5
 43
0.5
  0
INSERT
  5
779
  8
0
  2
STDGX5
 10
1041.9562708796409
 20
145.78040719120199
 30
0.0
 41
0.5
 42
0.5
 43
0.5
  0
INSERT
  5
77A
  8
0
  2
STDGX5
 10
1041.9562708796409
 20
145.78040719120199
 30
0.0
 41
0.5
 42
0.5
 43
0.5
  0
INSERT
  5
77C
  8
0
  2
STDGX5
 10
869.45627087964067
 20
45.780407191202023
 30
0.0
 41
0.3333333333333144
 42
0.3333333333333144
 43
0.3333333333333144
  0
INSERT
  5
77D
  8
0
  2
STDGX5
 10
869.45627087964067
 20
45.780407191202023
 30
0.0
 41
0.3333333333333144
 42
0.3333333333333144
 43
0.3333333333333144
  0
INSERT
  5
77E
  8
0
  2
STDGX5
 10
961.1229375463073
 20
45.780407191202023
 30
0.0
 41
0.3333333333333144
 42
0.3333333333333144
 43
0.3333333333333144
  0
INSERT
  5
77F
  8
0
  2
STDGX5
 10
961.1229375463073
 20
45.780407191202023
 30
0.0
 41
0.3333333333333144
 42
0.3333333333333144
 43
0.3333333333333144
  0
INSERT
  5
781
  8
0
  2
STDGX5
 10
869.45627087964067
 20
45.780407191202023
 30
0.0
 41
0.3333333333333144
 42
0.3333333333333144
 43
0.3333333333333144
  0
INSERT
  5
782
  8
0
  2
STDGX5
 10
869.45627087964067
 20
45.780407191202023
 30
0.0
 41
0.3333333333333144
 42
0.3333333333333144
 43
0.3333333333333144
  0
INSERT
  5
783
  8
0
  2
STDGX5
 10
961.1229375463073
 20
45.780407191202023
 30
0.0
 41
0.3333333333333144
 42
0.3333333333333144
 43
0.3333333333333144
  0
INSERT
  5
784
  8
0
  2
STDGX5
 10
961.1229375463073
 20
45.780407191202023
 30
0.0
 41
0.3333333333333144
 42
0.3333333333333144
 43
0.3333333333333144
  0
INSERT
  5
785
  8
0
  2
STDGX5
 10
904.45627087964067
 20
145.78040719120199
 30
0.0
  0
INSERT
  5
786
  8
0
  2
STDGX5
 10
904.45627087964067
 20
145.78040719120199
 30
0.0
  0
INSERT
  5
787
  8
0
  2
STDGX5
 10
1179.45627087964
 20
145.78040719120199
 30
0.0
  0
INSERT
  5
788
  8
0
  2
STDGX5
 10
1179.45627087964
 20
145.78040719120199
 30
0.0
  0
INSERT
  5
789
  8
0
  2
STDGX5
 10
904.45627087964067
 20
145.78040719120199
 30
0.0
 41
0.25
 42
0.25
 43
0.25
  0
INSERT
  5
78A
  8
0
  2
STDGX5
 10
904.45627087964067
 20
145.78040719120199
 30
0.0
 41
0.25
 42
0.25
 43
0.25
  0
INSERT
  5
78B
  8
0
  2
STDGX5
 10
973.20627087964067
 20
145.78040719120199
 30
0.0
 41
0.25
 42
0.25
 43
0.25
  0
INSERT
  5
78C
  8
0
  2
STDGX5
 10
973.20627087964067
 20
145.78040719120199
 30
0.0
 41
0.25
 42
0.25
 43
0.25
  0
INSERT
  5
78D
  8
0
  2
STDGX5
 10
904.45627087964067
 20
145.78040719120199
 30
0.0
 41
0.5
 42
0.5
 43
0.5
  0
INSERT
  5
78E
  8
0
  2
STDGX5
 10
904.45627087964067
 20
145.78040719120199
 30
0.0
 41
0.5
 42
0.5
 43
0.5
  0
INSERT
  5
78F
  8
0
  2
STDGX5
 10
1041.9562708796409
 20
145.78040719120199
 30
0.0
 41
0.5
 42
0.5
 43
0.5
  0
INSERT
  5
790
  8
0
  2
STDGX5
 10
1041.9562708796409
 20
145.78040719120199
 30
0.0
 41
0.5
 42
0.5
 43
0.5
  0
INSERT
  5
792
  8
0
  2
STDGX5
 10
869.45627087964067
 20
45.780407191202023
 30
0.0
 41
0.3333333333333144
 42
0.3333333333333144
 43
0.3333333333333144
  0
INSERT
  5
793
  8
0
  2
STDGX5
 10
869.45627087964067
 20
45.780407191202023
 30
0.0
 41
0.3333333333333144
 42
0.3333333333333144
 43
0.3333333333333144
  0
INSERT
  5
794
  8
0
  2
STDGX5
 10
961.1229375463073
 20
45.780407191202023
 30
0.0
 41
0.3333333333333144
 42
0.3333333333333144
 43
0.3333333333333144
  0
INSERT
  5
795
  8
0
  2
STDGX5
 10
961.1229375463073
 20
45.780407191202023
 30
0.0
 41
0.3333333333333144
 42
0.3333333333333144
 43
0.3333333333333144
  0
INSERT
  5
797
  8
0
  2
STDGX5
 10
869.45627087964067
 20
45.780407191202023
 30
0.0
 41
0.3333333333333144
 42
0.3333333333333144
 43
0.3333333333333144
  0
INSERT
  5
798
  8
0
  2
STDGX5
 10
869.45627087964067
 20
45.780407191202023
 30
0.0
 41
0.3333333333333144
 42
0.3333333333333144
 43
0.3333333333333144
  0
INSERT
  5
799
  8
0
  2
STDGX5
 10
961.1229375463073
 20
45.780407191202023
 30
0.0
 41
0.3333333333333144
 42
0.3333333333333144
 43
0.3333333333333144
  0
INSERT
  5
79A
  8
0
  2
STDGX5
 10
961.1229375463073
 20
45.780407191202023
 30
0.0
 41
0.3333333333333144
 42
0.3333333333333144
 43
0.3333333333333144
  0
INSERT
  5
79B
  8
0
  2
STDGX5
 10
904.45627087964067
 20
145.78040719120199
 30
0.0
  0
INSERT
  5
79C
  8
0
  2
STDGX5
 10
904.45627087964067
 20
145.78040719120199
 30
0.0
  0
INSERT
  5
79D
  8
0
  2
STDGX5
 10
1179.45627087964
 20
145.78040719120199
 30
0.0
  0
INSERT
  5
79E
  8
0
  2
STDGX5
 10
1179.45627087964
 20
145.78040719120199
 30
0.0
  0
INSERT
  5
79F
  8
0
  2
STDGX5
 10
884.57770503219649
 20
194.77982329964499
 30
0.0
  0
INSERT
  5
7A0
  8
0
  2
STDGX5
 10
884.57770503219649
 20
194.77982329964499
 30
0.0
  0
INSERT
  5
7A1
  8
0
  2
STDGX5
 10
1159.577705032196
 20
194.77982329964499
 30
0.0
  0
INSERT
  5
7A2
  8
0
  2
STDGX5
 10
1159.577705032196
 20
194.77982329964499
 30
0.0
  0
INSERT
  5
7A3
  8
0
  2
STDGX5
 10
884.57770503219649
 20
194.77982329964499
 30
0.0
  0
INSERT
  5
7A4
  8
0
  2
STDGX5
 10
884.57770503219649
 20
194.77982329964499
 30
0.0
  0
INSERT
  5
7A5
  8
0
  2
STDGX5
 10
1159.577705032196
 20
194.77982329964499
 30
0.0
  0
INSERT
  5
7A6
  8
0
  2
STDGX5
 10
1159.577705032196
 20
194.77982329964499
 30
0.0
  0
INSERT
  5
7A7
  8
0
  2
STDGX5
 10
853.48803809661888
 20
192.9690847743305
 30
0.0
  0
INSERT
  5
7A8
  8
0
  2
STDGX5
 10
853.48803809661888
 20
192.9690847743305
 30
0.0
  0
INSERT
  5
7A9
  8
0
  2
STDGX5
 10
1128.488038096619
 20
192.9690847743305
 30
0.0
  0
INSERT
  5
7AA
  8
0
  2
STDGX5
 10
1128.488038096619
 20
192.9690847743305
 30
0.0
  0
INSERT
  5
7AB
  8
0
  2
STDGX5
 10
853.48803809661888
 20
192.9690847743305
 30
0.0
  0
INSERT
  5
7AC
  8
0
  2
STDGX5
 10
853.48803809661888
 20
192.9690847743305
 30
0.0
  0
INSERT
  5
7AD
  8
0
  2
STDGX5
 10
1128.488038096619
 20
192.9690847743305
 30
0.0
  0
INSERT
  5
7AE
  8
0
  2
STDGX5
 10
1128.488038096619
 20
192.9690847743305
 30
0.0
  0
INSERT
  5
7AF
  8
0
  2
STDGX5
 10
862.2597612256958
 20
132.92548640012731
 30
0.0
 41
0.25
 42
0.25
 43
0.25
  0
INSERT
  5
7B0
  8
0
  2
STDGX5
 10
862.2597612256958
 20
132.92548640012731
 30
0.0
 41
0.25
 42
0.25
 43
0.25
  0
INSERT
  5
7B1
  8
0
  2
STDGX5
 10
931.0097612256958
 20
132.92548640012731
 30
0.0
 41
0.25
 42
0.25
 43
0.25
  0
INSERT
  5
7B2
  8
0
  2
STDGX5
 10
931.0097612256958
 20
132.92548640012731
 30
0.0
 41
0.25
 42
0.25
 43
0.25
  0
INSERT
  5
7B3
  8
0
  2
STDGX5
 10
862.2597612256958
 20
132.92548640012731
 30
0.0
 41
0.5
 42
0.5
 43
0.5
  0
INSERT
  5
7B4
  8
0
  2
STDGX5
 10
862.2597612256958
 20
132.92548640012731
 30
0.0
 41
0.5
 42
0.5
 43
0.5
  0
INSERT
  5
7B5
  8
0
  2
STDGX5
 10
999.7597612256958
 20
132.92548640012731
 30
0.0
 41
0.5
 42
0.5
 43
0.5
  0
INSERT
  5
7B6
  8
0
  2
STDGX5
 10
999.7597612256958
 20
132.92548640012731
 30
0.0
 41
0.5
 42
0.5
 43
0.5
  0
INSERT
  5
7B8
  8
0
  2
STDGX5
 10
827.25976122569568
 20
32.925486400127291
 30
0.0
 41
0.3333333333333144
 42
0.3333333333333144
 43
0.3333333333333144
  0
INSERT
  5
7B9
  8
0
  2
STDGX5
 10
827.25976122569568
 20
32.925486400127291
 30
0.0
 41
0.3333333333333144
 42
0.3333333333333144
 43
0.3333333333333144
  0
INSERT
  5
7BA
  8
0
  2
STDGX5
 10
918.92642789236254
 20
32.925486400127291
 30
0.0
 41
0.3333333333333144
 42
0.3333333333333144
 43
0.3333333333333144
  0
INSERT
  5
7BB
  8
0
  2
STDGX5
 10
918.92642789236254
 20
32.925486400127291
 30
0.0
 41
0.3333333333333144
 42
0.3333333333333144
 43
0.3333333333333144
  0
INSERT
  5
7BD
  8
0
  2
STDGX5
 10
827.25976122569568
 20
32.925486400127291
 30
0.0
 41
0.3333333333333144
 42
0.3333333333333144
 43
0.3333333333333144
  0
INSERT
  5
7BE
  8
0
  2
STDGX5
 10
827.25976122569568
 20
32.925486400127291
 30
0.0
 41
0.3333333333333144
 42
0.3333333333333144
 43
0.3333333333333144
  0
INSERT
  5
7BF
  8
0
  2
STDGX5
 10
918.92642789236254
 20
32.925486400127291
 30
0.0
 41
0.3333333333333144
 42
0.3333333333333144
 43
0.3333333333333144
  0
INSERT
  5
7C0
  8
0
  2
STDGX5
 10
918.92642789236254
 20
32.925486400127291
 30
0.0
 41
0.3333333333333144
 42
0.3333333333333144
 43
0.3333333333333144
  0
INSERT
  5
7C1
  8
0
  2
STDGX5
 10
862.2597612256958
 20
132.92548640012731
 30
0.0
  0
INSERT
  5
7C2
  8
0
  2
STDGX5
 10
862.2597612256958
 20
132.92548640012731
 30
0.0
  0
INSERT
  5
7C3
  8
0
  2
STDGX5
 10
1137.2597612256959
 20
132.92548640012731
 30
0.0
  0
INSERT
  5
7C4
  8
0
  2
STDGX5
 10
1137.2597612256959
 20
132.92548640012731
 30
0.0
  0
INSERT
  5
7C5
  8
0
  2
STDGX5
 10
862.2597612256958
 20
132.92548640012731
 30
0.0
 41
0.25
 42
0.25
 43
0.25
  0
INSERT
  5
7C6
  8
0
  2
STDGX5
 10
862.2597612256958
 20
132.92548640012731
 30
0.0
 41
0.25
 42
0.25
 43
0.25
  0
INSERT
  5
7C7
  8
0
  2
STDGX5
 10
931.0097612256958
 20
132.92548640012731
 30
0.0
 41
0.25
 42
0.25
 43
0.25
  0
INSERT
  5
7C8
  8
0
  2
STDGX5
 10
931.0097612256958
 20
132.92548640012731
 30
0.0
 41
0.25
 42
0.25
 43
0.25
  0
INSERT
  5
7C9
  8
0
  2
STDGX5
 10
862.2597612256958
 20
132.92548640012731
 30
0.0
 41
0.5
 42
0.5
 43
0.5
  0
INSERT
  5
7CA
  8
0
  2
STDGX5
 10
862.2597612256958
 20
132.92548640012731
 30
0.0
 41
0.5
 42
0.5
 43
0.5
  0
INSERT
  5
7CB
  8
0
  2
STDGX5
 10
999.7597612256958
 20
132.92548640012731
 30
0.0
 41
0.5
 42
0.5
 43
0.5
  0
INSERT
  5
7CC
  8
0
  2
STDGX5
 10
999.7597612256958
 20
132.92548640012731
 30
0.0
 41
0.5
 42
0.5
 43
0.5
  0
INSERT
  5
7CE
  8
0
  2
STDGX5
 10
827.25976122569568
 20
32.925486400127291
 30
0.0
 41
0.3333333333333144
 42
0.3333333333333144
 43
0.3333333333333144
  0
INSERT
  5
7CF
  8
0
  2
STDGX5
 10
827.25976122569568
 20
32.925486400127291
 30
0.0
 41
0.3333333333333144
 42
0.3333333333333144
 43
0.3333333333333144
  0
INSERT
  5
7D0
  8
0
  2
STDGX5
 10
918.92642789236254
 20
32.925486400127291
 30
0.0
 41
0.3333333333333144
 42
0.3333333333333144
 43
0.3333333333333144
  0
INSERT
  5
7D1
  8
0
  2
STDGX5
 10
918.92642789236254
 20
32.925486400127291
 30
0.0
 41
0.3333333333333144
 42
0.3333333333333144
 43
0.3333333333333144
  0
INSERT
  5
7D3
  8
0
  2
STDGX5
 10
827.25976122569568
 20
32.925486400127291
 30
0.0
 41
0.3333333333333144
 42
0.3333333333333144
 43
0.3333333333333144
  0
INSERT
  5
7D4
  8
0
  2
STDGX5
 10
827.25976122569568
 20
32.925486400127291
 30
0.0
 41
0.3333333333333144
 42
0.3333333333333144
 43
0.3333333333333144
  0
INSERT
  5
7D5
  8
0
  2
STDGX5
 10
918.92642789236254
 20
32.925486400127291
 30
0.0
 41
0.3333333333333144
 42
0.3333333333333144
 43
0.3333333333333144
  0
INSERT
  5
7D6
  8
0
  2
STDGX5
 10
918.92642789236254
 20
32.925486400127291
 30
0.0
 41
0.3333333333333144
 42
0.3333333333333144
 43
0.3333333333333144
  0
INSERT
  5
7D7
  8
0
  2
STDGX5
 10
862.2597612256958
 20
132.92548640012731
 30
0.0
  0
INSERT
  5
7D8
  8
0
  2
STDGX5
 10
862.2597612256958
 20
132.92548640012731
 30
0.0
  0
INSERT
  5
7D9
  8
0
  2
STDGX5
 10
1137.2597612256959
 20
132.92548640012731
 30
0.0
  0
INSERT
  5
7DA
  8
0
  2
STDGX5
 10
1137.2597612256959
 20
132.92548640012731
 30
0.0
  0
INSERT
  5
7DB
  8
0
  2
STDGX5
 10
862.2597612256958
 20
132.92548640012731
 30
0.0
 41
0.25
 42
0.25
 43
0.25
  0
INSERT
  5
7DC
  8
0
  2
STDGX5
 10
862.2597612256958
 20
132.92548640012731
 30
0.0
 41
0.25
 42
0.25
 43
0.25
  0
INSERT
  5
7DD
  8
0
  2
STDGX5
 10
931.0097612256958
 20
132.92548640012731
 30
0.0
 41
0.25
 42
0.25
 43
0.25
  0
INSERT
  5
7DE
  8
0
  2
STDGX5
 10
931.0097612256958
 20
132.92548640012731
 30
0.0
 41
0.25
 42
0.25
 43
0.25
  0
INSERT
  5
7DF
  8
0
  2
STDGX5
 10
862.2597612256958
 20
132.92548640012731
 30
0.0
 41
0.5
 42
0.5
 43
0.5
  0
INSERT
  5
7E0
  8
0
  2
STDGX5
 10
862.2597612256958
 20
132.92548640012731
 30
0.0
 41
0.5
 42
0.5
 43
0.5
  0
INSERT
  5
7E1
  8
0
  2
STDGX5
 10
999.7597612256958
 20
132.92548640012731
 30
0.0
 41
0.5
 42
0.5
 43
0.5
  0
INSERT
  5
7E2
  8
0
  2
STDGX5
 10
999.7597612256958
 20
132.92548640012731
 30
0.0
 41
0.5
 42
0.5
 43
0.5
  0
INSERT
  5
7E4
  8
0
  2
STDGX5
 10
827.25976122569568
 20
32.925486400127291
 30
0.0
 41
0.3333333333333144
 42
0.3333333333333144
 43
0.3333333333333144
  0
INSERT
  5
7E5
  8
0
  2
STDGX5
 10
827.25976122569568
 20
32.925486400127291
 30
0.0
 41
0.3333333333333144
 42
0.3333333333333144
 43
0.3333333333333144
  0
INSERT
  5
7E6
  8
0
  2
STDGX5
 10
918.92642789236254
 20
32.925486400127291
 30
0.0
 41
0.3333333333333144
 42
0.3333333333333144
 43
0.3333333333333144
  0
INSERT
  5
7E7
  8
0
  2
STDGX5
 10
918.92642789236254
 20
32.925486400127291
 30
0.0
 41
0.3333333333333144
 42
0.3333333333333144
 43
0.3333333333333144
  0
INSERT
  5
7E9
  8
0
  2
STDGX5
 10
827.25976122569568
 20
32.925486400127291
 30
0.0
 41
0.3333333333333144
 42
0.3333333333333144
 43
0.3333333333333144
  0
INSERT
  5
7EA
  8
0
  2
STDGX5
 10
827.25976122569568
 20
32.925486400127291
 30
0.0
 41
0.3333333333333144
 42
0.3333333333333144
 43
0.3333333333333144
  0
INSERT
  5
7EB
  8
0
  2
STDGX5
 10
918.92642789236254
 20
32.925486400127291
 30
0.0
 41
0.3333333333333144
 42
0.3333333333333144
 43
0.3333333333333144
  0
INSERT
  5
7EC
  8
0
  2
STDGX5
 10
918.92642789236254
 20
32.925486400127291
 30
0.0
 41
0.3333333333333144
 42
0.3333333333333144
 43
0.3333333333333144
  0
INSERT
  5
7ED
  8
0
  2
STDGX5
 10
862.2597612256958
 20
132.92548640012731
 30
0.0
  0
INSERT
  5
7EE
  8
0
  2
STDGX5
 10
862.2597612256958
 20
132.92548640012731
 30
0.0
  0
INSERT
  5
7EF
  8
0
  2
STDGX5
 10
1137.2597612256959
 20
132.92548640012731
 30
0.0
  0
INSERT
  5
7F0
  8
0
  2
STDGX5
 10
1137.2597612256959
 20
132.92548640012731
 30
0.0
  0
INSERT
  5
7F1
  8
0
  2
STDGX5
 10
862.2597612256958
 20
132.92548640012731
 30
0.0
 41
0.25
 42
0.25
 43
0.25
  0
INSERT
  5
7F2
  8
0
  2
STDGX5
 10
862.2597612256958
 20
132.92548640012731
 30
0.0
 41
0.25
 42
0.25
 43
0.25
  0
INSERT
  5
7F3
  8
0
  2
STDGX5
 10
931.0097612256958
 20
132.92548640012731
 30
0.0
 41
0.25
 42
0.25
 43
0.25
  0
INSERT
  5
7F4
  8
0
  2
STDGX5
 10
931.0097612256958
 20
132.92548640012731
 30
0.0
 41
0.25
 42
0.25
 43
0.25
  0
INSERT
  5
7F5
  8
0
  2
STDGX5
 10
862.2597612256958
 20
132.92548640012731
 30
0.0
 41
0.5
 42
0.5
 43
0.5
  0
INSERT
  5
7F6
  8
0
  2
STDGX5
 10
862.2597612256958
 20
132.92548640012731
 30
0.0
 41
0.5
 42
0.5
 43
0.5
  0
INSERT
  5
7F7
  8
0
  2
STDGX5
 10
999.7597612256958
 20
132.92548640012731
 30
0.0
 41
0.5
 42
0.5
 43
0.5
  0
INSERT
  5
7F8
  8
0
  2
STDGX5
 10
999.7597612256958
 20
132.92548640012731
 30
0.0
 41
0.5
 42
0.5
 43
0.5
  0
INSERT
  5
7FA
  8
0
  2
STDGX5
 10
827.25976122569568
 20
32.925486400127291
 30
0.0
 41
0.3333333333333144
 42
0.3333333333333144
 43
0.3333333333333144
  0
INSERT
  5
7FB
  8
0
  2
STDGX5
 10
827.25976122569568
 20
32.925486400127291
 30
0.0
 41
0.3333333333333144
 42
0.3333333333333144
 43
0.3333333333333144
  0
INSERT
  5
7FC
  8
0
  2
STDGX5
 10
918.92642789236254
 20
32.925486400127291
 30
0.0
 41
0.3333333333333144
 42
0.3333333333333144
 43
0.3333333333333144
  0
INSERT
  5
7FD
  8
0
  2
STDGX5
 10
918.92642789236254
 20
32.925486400127291
 30
0.0
 41
0.3333333333333144
 42
0.3333333333333144
 43
0.3333333333333144
  0
INSERT
  5
7FF
  8
0
  2
STDGX5
 10
827.25976122569568
 20
32.925486400127291
 30
0.0
 41
0.3333333333333144
 42
0.3333333333333144
 43
0.3333333333333144
  0
INSERT
  5
800
  8
0
  2
STDGX5
 10
827.25976122569568
 20
32.925486400127291
 30
0.0
 41
0.3333333333333144
 42
0.3333333333333144
 43
0.3333333333333144
  0
INSERT
  5
801
  8
0
  2
STDGX5
 10
918.92642789236254
 20
32.925486400127291
 30
0.0
 41
0.3333333333333144
 42
0.3333333333333144
 43
0.3333333333333144
  0
INSERT
  5
802
  8
0
  2
STDGX5
 10
918.92642789236254
 20
32.925486400127291
 30
0.0
 41
0.3333333333333144
 42
0.3333333333333144
 43
0.3333333333333144
  0
INSERT
  5
803
  8
0
  2
STDGX5
 10
862.2597612256958
 20
132.92548640012731
 30
0.0
  0
INSERT
  5
804
  8
0
  2
STDGX5
 10
862.2597612256958
 20
132.92548640012731
 30
0.0
  0
INSERT
  5
805
  8
0
  2
STDGX5
 10
1137.2597612256959
 20
132.92548640012731
 30
0.0
  0
INSERT
  5
806
  8
0
  2
STDGX5
 10
1137.2597612256959
 20
132.92548640012731
 30
0.0
  0
INSERT
  5
807
  8
0
  2
STDGX5
 10
862.2597612256958
 20
132.92548640012731
 30
0.0
 41
0.25
 42
0.25
 43
0.25
  0
INSERT
  5
808
  8
0
  2
STDGX5
 10
862.2597612256958
 20
132.92548640012731
 30
0.0
 41
0.25
 42
0.25
 43
0.25
  0
INSERT
  5
809
  8
0
  2
STDGX5
 10
931.0097612256958
 20
132.92548640012731
 30
0.0
 41
0.25
 42
0.25
 43
0.25
  0
INSERT
  5
80A
  8
0
  2
STDGX5
 10
931.0097612256958
 20
132.92548640012731
 30
0.0
 41
0.25
 42
0.25
 43
0.25
  0
INSERT
  5
80B
  8
0
  2
STDGX5
 10
862.2597612256958
 20
132.92548640012731
 30
0.0
 41
0.5
 42
0.5
 43
0.5
  0
INSERT
  5
80C
  8
0
  2
STDGX5
 10
862.2597612256958
 20
132.92548640012731
 30
0.0
 41
0.5
 42
0.5
 43
0.5
  0
INSERT
  5
80D
  8
0
  2
STDGX5
 10
999.7597612256958
 20
132.92548640012731
 30
0.0
 41
0.5
 42
0.5
 43
0.5
  0
INSERT
  5
80E
  8
0
  2
STDGX5
 10
999.7597612256958
 20
132.92548640012731
 30
0.0
 41
0.5
 42
0.5
 43
0.5
  0
INSERT
  5
810
  8
0
  2
STDGX5
 10
827.25976122569568
 20
32.925486400127291
 30
0.0
 41
0.3333333333333144
 42
0.3333333333333144
 43
0.3333333333333144
  0
INSERT
  5
811
  8
0
  2
STDGX5
 10
827.25976122569568
 20
32.925486400127291
 30
0.0
 41
0.3333333333333144
 42
0.3333333333333144
 43
0.3333333333333144
  0
INSERT
  5
812
  8
0
  2
STDGX5
 10
918.92642789236254
 20
32.925486400127291
 30
0.0
 41
0.3333333333333144
 42
0.3333333333333144
 43
0.3333333333333144
  0
INSERT
  5
813
  8
0
  2
STDGX5
 10
918.92642789236254
 20
32.925486400127291
 30
0.0
 41
0.3333333333333144
 42
0.3333333333333144
 43
0.3333333333333144
  0
INSERT
  5
815
  8
0
  2
STDGX5
 10
827.25976122569568
 20
32.925486400127291
 30
0.0
 41
0.3333333333333144
 42
0.3333333333333144
 43
0.3333333333333144
  0
INSERT
  5
816
  8
0
  2
STDGX5
 10
827.25976122569568
 20
32.925486400127291
 30
0.0
 41
0.3333333333333144
 42
0.3333333333333144
 43
0.3333333333333144
  0
INSERT
  5
817
  8
0
  2
STDGX5
 10
918.92642789236254
 20
32.925486400127291
 30
0.0
 41
0.3333333333333144
 42
0.3333333333333144
 43
0.3333333333333144
  0
INSERT
  5
818
  8
0
  2
STDGX5
 10
918.92642789236254
 20
32.925486400127291
 30
0.0
 41
0.3333333333333144
 42
0.3333333333333144
 43
0.3333333333333144
  0
INSERT
  5
819
  8
0
  2
STDGX5
 10
862.2597612256958
 20
132.92548640012731
 30
0.0
  0
INSERT
  5
81A
  8
0
  2
STDGX5
 10
862.2597612256958
 20
132.92548640012731
 30
0.0
  0
INSERT
  5
81B
  8
0
  2
STDGX5
 10
1137.2597612256959
 20
132.92548640012731
 30
0.0
  0
INSERT
  5
81C
  8
0
  2
STDGX5
 10
1137.2597612256959
 20
132.92548640012731
 30
0.0
  0
INSERT
  5
81D
  8
0
  2
STDGX5
 10
862.2597612256958
 20
132.92548640012731
 30
0.0
 41
0.25
 42
0.25
 43
0.25
  0
INSERT
  5
81E
  8
0
  2
STDGX5
 10
862.2597612256958
 20
132.92548640012731
 30
0.0
 41
0.25
 42
0.25
 43
0.25
  0
INSERT
  5
81F
  8
0
  2
STDGX5
 10
931.0097612256958
 20
132.92548640012731
 30
0.0
 41
0.25
 42
0.25
 43
0.25
  0
INSERT
  5
820
  8
0
  2
STDGX5
 10
931.0097612256958
 20
132.92548640012731
 30
0.0
 41
0.25
 42
0.25
 43
0.25
  0
INSERT
  5
821
  8
0
  2
STDGX5
 10
862.2597612256958
 20
132.92548640012731
 30
0.0
 41
0.5
 42
0.5
 43
0.5
  0
INSERT
  5
822
  8
0
  2
STDGX5
 10
862.2597612256958
 20
132.92548640012731
 30
0.0
 41
0.5
 42
0.5
 43
0.5
  0
INSERT
  5
823
  8
0
  2
STDGX5
 10
999.7597612256958
 20
132.92548640012731
 30
0.0
 41
0.5
 42
0.5
 43
0.5
  0
INSERT
  5
824
  8
0
  2
STDGX5
 10
999.7597612256958
 20
132.92548640012731
 30
0.0
 41
0.5
 42
0.5
 43
0.5
  0
INSERT
  5
826
  8
0
  2
STDGX5
 10
827.25976122569568
 20
32.925486400127291
 30
0.0
 41
0.3333333333333144
 42
0.3333333333333144
 43
0.3333333333333144
  0
INSERT
  5
827
  8
0
  2
STDGX5
 10
827.25976122569568
 20
32.925486400127291
 30
0.0
 41
0.3333333333333144
 42
0.3333333333333144
 43
0.3333333333333144
  0
INSERT
  5
828
  8
0
  2
STDGX5
 10
918.92642789236254
 20
32.925486400127291
 30
0.0
 41
0.3333333333333144
 42
0.3333333333333144
 43
0.3333333333333144
  0
INSERT
  5
829
  8
0
  2
STDGX5
 10
918.92642789236254
 20
32.925486400127291
 30
0.0
 41
0.3333333333333144
 42
0.3333333333333144
 43
0.3333333333333144
  0
INSERT
  5
82B
  8
0
  2
STDGX5
 10
827.25976122569568
 20
32.925486400127291
 30
0.0
 41
0.3333333333333144
 42
0.3333333333333144
 43
0.3333333333333144
  0
INSERT
  5
82C
  8
0
  2
STDGX5
 10
827.25976122569568
 20
32.925486400127291
 30
0.0
 41
0.3333333333333144
 42
0.3333333333333144
 43
0.3333333333333144
  0
INSERT
  5
82D
  8
0
  2
STDGX5
 10
918.92642789236254
 20
32.925486400127291
 30
0.0
 41
0.3333333333333144
 42
0.3333333333333144
 43
0.3333333333333144
  0
INSERT
  5
82E
  8
0
  2
STDGX5
 10
918.92642789236254
 20
32.925486400127291
 30
0.0
 41
0.3333333333333144
 42
0.3333333333333144
 43
0.3333333333333144
  0
INSERT
  5
82F
  8
0
  2
STDGX5
 10
862.2597612256958
 20
132.92548640012731
 30
0.0
  0
INSERT
  5
830
  8
0
  2
STDGX5
 10
862.2597612256958
 20
132.92548640012731
 30
0.0
  0
INSERT
  5
831
  8
0
  2
STDGX5
 10
1137.2597612256959
 20
132.92548640012731
 30
0.0
  0
INSERT
  5
832
  8
0
  2
STDGX5
 10
1137.2597612256959
 20
132.92548640012731
 30
0.0
  0
INSERT
  5
833
  8
0
  2
STDGX5
 10
862.2597612256958
 20
132.92548640012731
 30
0.0
 41
0.25
 42
0.25
 43
0.25
  0
INSERT
  5
834
  8
0
  2
STDGX5
 10
862.2597612256958
 20
132.92548640012731
 30
0.0
 41
0.25
 42
0.25
 43
0.25
  0
INSERT
  5
835
  8
0
  2
STDGX5
 10
931.0097612256958
 20
132.92548640012731
 30
0.0
 41
0.25
 42
0.25
 43
0.25
  0
INSERT
  5
836
  8
0
  2
STDGX5
 10
931.0097612256958
 20
132.92548640012731
 30
0.0
 41
0.25
 42
0.25
 43
0.25
  0
INSERT
  5
837
  8
0
  2
STDGX5
 10
862.2597612256958
 20
132.92548640012731
 30
0.0
 41
0.5
 42
0.5
 43
0.5
  0
INSERT
  5
838
  8
0
  2
STDGX5
 10
862.2597612256958
 20
132.92548640012731
 30
0.0
 41
0.5
 42
0.5
 43
0.5
  0
INSERT
  5
839
  8
0
  2
STDGX5
 10
999.7597612256958
 20
132.92548640012731
 30
0.0
 41
0.5
 42
0.5
 43
0.5
  0
INSERT
  5
83A
  8
0
  2
STDGX5
 10
999.7597612256958
 20
132.92548640012731
 30
0.0
 41
0.5
 42
0.5
 43
0.5
  0
INSERT
  5
83C
  8
0
  2
STDGX5
 10
827.25976122569568
 20
32.925486400127291
 30
0.0
 41
0.3333333333333144
 42
0.3333333333333144
 43
0.3333333333333144
  0
INSERT
  5
83D
  8
0
  2
STDGX5
 10
827.25976122569568
 20
32.925486400127291
 30
0.0
 41
0.3333333333333144
 42
0.3333333333333144
 43
0.3333333333333144
  0
INSERT
  5
83E
  8
0
  2
STDGX5
 10
918.92642789236254
 20
32.925486400127291
 30
0.0
 41
0.3333333333333144
 42
0.3333333333333144
 43
0.3333333333333144
  0
INSERT
  5
83F
  8
0
  2
STDGX5
 10
918.92642789236254
 20
32.925486400127291
 30
0.0
 41
0.3333333333333144
 42
0.3333333333333144
 43
0.3333333333333144
  0
INSERT
  5
841
  8
0
  2
STDGX5
 10
827.25976122569568
 20
32.925486400127291
 30
0.0
 41
0.3333333333333144
 42
0.3333333333333144
 43
0.3333333333333144
  0
INSERT
  5
842
  8
0
  2
STDGX5
 10
827.25976122569568
 20
32.925486400127291
 30
0.0
 41
0.3333333333333144
 42
0.3333333333333144
 43
0.3333333333333144
  0
INSERT
  5
843
  8
0
  2
STDGX5
 10
918.92642789236254
 20
32.925486400127291
 30
0.0
 41
0.3333333333333144
 42
0.3333333333333144
 43
0.3333333333333144
  0
INSERT
  5
844
  8
0
  2
STDGX5
 10
918.92642789236254
 20
32.925486400127291
 30
0.0
 41
0.3333333333333144
 42
0.3333333333333144
 43
0.3333333333333144
  0
INSERT
  5
845
  8
0
  2
STDGX5
 10
862.2597612256958
 20
132.92548640012731
 30
0.0
  0
INSERT
  5
846
  8
0
  2
STDGX5
 10
862.2597612256958
 20
132.92548640012731
 30
0.0
  0
INSERT
  5
847
  8
0
  2
STDGX5
 10
1137.2597612256959
 20
132.92548640012731
 30
0.0
  0
INSERT
  5
848
  8
0
  2
STDGX5
 10
1137.2597612256959
 20
132.92548640012731
 30
0.0
  0
INSERT
  5
849
  8
0
  2
STDGX5
 10
862.2597612256958
 20
132.92548640012731
 30
0.0
 41
0.25
 42
0.25
 43
0.25
  0
INSERT
  5
84A
  8
0
  2
STDGX5
 10
862.2597612256958
 20
132.92548640012731
 30
0.0
 41
0.25
 42
0.25
 43
0.25
  0
INSERT
  5
84B
  8
0
  2
STDGX5
 10
931.0097612256958
 20
132.92548640012731
 30
0.0
 41
0.25
 42
0.25
 43
0.25
  0
INSERT
  5
84C
  8
0
  2
STDGX5
 10
931.0097612256958
 20
132.92548640012731
 30
0.0
 41
0.25
 42
0.25
 43
0.25
  0
INSERT
  5
84D
  8
0
  2
STDGX5
 10
862.2597612256958
 20
132.92548640012731
 30
0.0
 41
0.5
 42
0.5
 43
0.5
  0
INSERT
  5
84E
  8
0
  2
STDGX5
 10
862.2597612256958
 20
132.92548640012731
 30
0.0
 41
0.5
 42
0.5
 43
0.5
  0
INSERT
  5
84F
  8
0
  2
STDGX5
 10
999.7597612256958
 20
132.92548640012731
 30
0.0
 41
0.5
 42
0.5
 43
0.5
  0
INSERT
  5
850
  8
0
  2
STDGX5
 10
999.7597612256958
 20
132.92548640012731
 30
0.0
 41
0.5
 42
0.5
 43
0.5
  0
INSERT
  5
852
  8
0
  2
STDGX5
 10
827.25976122569568
 20
32.925486400127291
 30
0.0
 41
0.3333333333333144
 42
0.3333333333333144
 43
0.3333333333333144
  0
INSERT
  5
853
  8
0
  2
STDGX5
 10
827.25976122569568
 20
32.925486400127291
 30
0.0
 41
0.3333333333333144
 42
0.3333333333333144
 43
0.3333333333333144
  0
INSERT
  5
854
  8
0
  2
STDGX5
 10
918.92642789236254
 20
32.925486400127291
 30
0.0
 41
0.3333333333333144
 42
0.3333333333333144
 43
0.3333333333333144
  0
INSERT
  5
855
  8
0
  2
STDGX5
 10
918.92642789236254
 20
32.925486400127291
 30
0.0
 41
0.3333333333333144
 42
0.3333333333333144
 43
0.3333333333333144
  0
INSERT
  5
857
  8
0
  2
STDGX5
 10
827.25976122569568
 20
32.925486400127291
 30
0.0
 41
0.3333333333333144
 42
0.3333333333333144
 43
0.3333333333333144
  0
INSERT
  5
858
  8
0
  2
STDGX5
 10
827.25976122569568
 20
32.925486400127291
 30
0.0
 41
0.3333333333333144
 42
0.3333333333333144
 43
0.3333333333333144
  0
INSERT
  5
859
  8
0
  2
STDGX5
 10
918.92642789236254
 20
32.925486400127291
 30
0.0
 41
0.3333333333333144
 42
0.3333333333333144
 43
0.3333333333333144
  0
INSERT
  5
85A
  8
0
  2
STDGX5
 10
918.92642789236254
 20
32.925486400127291
 30
0.0
 41
0.3333333333333144
 42
0.3333333333333144
 43
0.3333333333333144
  0
INSERT
  5
85B
  8
0
  2
STDGX5
 10
862.2597612256958
 20
132.92548640012731
 30
0.0
  0
INSERT
  5
85C
  8
0
  2
STDGX5
 10
862.2597612256958
 20
132.92548640012731
 30
0.0
  0
INSERT
  5
85D
  8
0
  2
STDGX5
 10
1137.2597612256959
 20
132.92548640012731
 30
0.0
  0
INSERT
  5
85E
  8
0
  2
STDGX5
 10
1137.2597612256959
 20
132.92548640012731
 30
0.0
  0
INSERT
  5
85F
  8
0
  2
STDGX5
 10
842.38119537825139
 20
181.92490250857031
 30
0.0
  0
INSERT
  5
860
  8
0
  2
STDGX5
 10
842.38119537825139
 20
181.92490250857031
 30
0.0
  0
INSERT
  5
861
  8
0
  2
STDGX5
 10
1117.381195378251
 20
181.92490250857031
 30
0.0
  0
INSERT
  5
862
  8
0
  2
STDGX5
 10
1117.381195378251
 20
181.92490250857031
 30
0.0
  0
INSERT
  5
863
  8
0
  2
STDGX5
 10
842.38119537825139
 20
181.92490250857031
 30
0.0
  0
INSERT
  5
864
  8
0
  2
STDGX5
 10
842.38119537825139
 20
181.92490250857031
 30
0.0
  0
INSERT
  5
865
  8
0
  2
STDGX5
 10
1117.381195378251
 20
181.92490250857031
 30
0.0
  0
INSERT
  5
866
  8
0
  2
STDGX5
 10
1117.381195378251
 20
181.92490250857031
 30
0.0
  0
INSERT
  5
867
  8
0
  2
STDGX5
 10
811.29152844267401
 20
180.11416398325579
 30
0.0
  0
INSERT
  5
868
  8
0
  2
STDGX5
 10
811.29152844267401
 20
180.11416398325579
 30
0.0
  0
INSERT
  5
869
  8
0
  2
STDGX5
 10
1086.291528442674
 20
180.11416398325579
 30
0.0
  0
INSERT
  5
86A
  8
0
  2
STDGX5
 10
1086.291528442674
 20
180.11416398325579
 30
0.0
  0
INSERT
  5
86B
  8
0
  2
STDGX5
 10
811.29152844267401
 20
180.11416398325579
 30
0.0
  0
INSERT
  5
86C
  8
0
  2
STDGX5
 10
811.29152844267401
 20
180.11416398325579
 30
0.0
  0
INSERT
  5
86D
  8
0
  2
STDGX5
 10
1086.291528442674
 20
180.11416398325579
 30
0.0
  0
INSERT
  5
86E
  8
0
  2
STDGX5
 10
1086.291528442674
 20
180.11416398325579
 30
0.0
  0
INSERT
  5
86F
  8
0
  2
STDGX5
 10
787.02162837206549
 20
184.45754624440039
 30
0.0
  0
INSERT
  5
870
  8
0
  2
STDGX5
 10
787.02162837206549
 20
184.45754624440039
 30
0.0
  0
INSERT
  5
871
  8
0
  2
STDGX5
 10
1062.0216283720661
 20
184.45754624440039
 30
0.0
  0
INSERT
  5
872
  8
0
  2
STDGX5
 10
1062.0216283720661
 20
184.45754624440039
 30
0.0
  0
INSERT
  5
873
  8
0
  2
STDGX5
 10
787.02162837206549
 20
184.45754624440039
 30
0.0
  0
INSERT
  5
874
  8
0
  2
STDGX5
 10
787.02162837206549
 20
184.45754624440039
 30
0.0
  0
INSERT
  5
875
  8
0
  2
STDGX5
 10
1062.0216283720661
 20
184.45754624440039
 30
0.0
  0
INSERT
  5
876
  8
0
  2
STDGX5
 10
1062.0216283720661
 20
184.45754624440039
 30
0.0
  0
INSERT
  5
877
  8
0
  2
STDGX5
 10
614.08894712042775
 20
135.5429919918642
 30
0.0
  0
INSERT
  5
878
  8
0
  2
STDGX5
 10
614.08894712042775
 20
135.5429919918642
 30
0.0
  0
INSERT
  5
879
  8
0
  2
STDGX5
 10
889.08894712042775
 20
135.5429919918642
 30
0.0
  0
INSERT
  5
87A
  8
0
  2
STDGX5
 10
889.08894712042775
 20
135.5429919918642
 30
0.0
  0
INSERT
  5
87B
  8
0
  2
STDGX5
 10
614.08894712042775
 20
135.5429919918642
 30
0.0
  0
INSERT
  5
87C
  8
0
  2
STDGX5
 10
614.08894712042775
 20
135.5429919918642
 30
0.0
  0
INSERT
  5
87D
  8
0
  2
STDGX5
 10
889.08894712042775
 20
135.5429919918642
 30
0.0
  0
INSERT
  5
87E
  8
0
  2
STDGX5
 10
889.08894712042775
 20
135.5429919918642
 30
0.0
  0
INSERT
  5
87F
  8
0
  2
STDGX5
 10
538.7449535858832
 20
106.0372994283107
 30
0.0
  0
INSERT
  5
880
  8
0
  2
STDGX5
 10
538.7449535858832
 20
106.0372994283107
 30
0.0
  0
INSERT
  5
881
  8
0
  2
STDGX5
 10
813.74495358588308
 20
106.0372994283107
 30
0.0
  0
INSERT
  5
882
  8
0
  2
STDGX5
 10
813.74495358588308
 20
106.0372994283107
 30
0.0
  0
INSERT
  5
883
  8
0
  2
STDGX5
 10
538.7449535858832
 20
106.0372994283107
 30
0.0
  0
INSERT
  5
884
  8
0
  2
STDGX5
 10
538.7449535858832
 20
106.0372994283107
 30
0.0
  0
INSERT
  5
885
  8
0
  2
STDGX5
 10
813.74495358588308
 20
106.0372994283107
 30
0.0
  0
INSERT
  5
886
  8
0
  2
STDGX5
 10
813.74495358588308
 20
106.0372994283107
 30
0.0
  0
INSERT
  5
887
  8
0
  2
STDGX5
 10
522.83027894595318
 20
108.5579528268521
 30
0.0
  0
INSERT
  5
888
  8
0
  2
STDGX5
 10
522.83027894595318
 20
108.5579528268521
 30
0.0
  0
INSERT
  5
889
  8
0
  2
STDGX5
 10
797.8302789459533
 20
108.5579528268521
 30
0.0
  0
INSERT
  5
88A
  8
0
  2
STDGX5
 10
797.8302789459533
 20
108.5579528268521
 30
0.0
  0
INSERT
  5
88B
  8
0
  2
STDGX5
 10
522.83027894595318
 20
108.5579528268521
 30
0.0
  0
INSERT
  5
88C
  8
0
  2
STDGX5
 10
522.83027894595318
 20
108.5579528268521
 30
0.0
  0
INSERT
  5
88D
  8
0
  2
STDGX5
 10
797.8302789459533
 20
108.5579528268521
 30
0.0
  0
INSERT
  5
88E
  8
0
  2
STDGX5
 10
797.8302789459533
 20
108.5579528268521
 30
0.0
  0
INSERT
  5
88F
  8
0
  2
STDGX5
 10
531.14422867545341
 20
113.6374342195963
 30
0.0
  0
INSERT
  5
890
  8
0
  2
STDGX5
 10
531.14422867545341
 20
113.6374342195963
 30
0.0
  0
INSERT
  5
891
  8
0
  2
STDGX5
 10
806.14422867545341
 20
113.6374342195963
 30
0.0
  0
INSERT
  5
892
  8
0
  2
STDGX5
 10
806.14422867545341
 20
113.6374342195963
 30
0.0
  0
INSERT
  5
893
  8
0
  2
STDGX5
 10
531.14422867545341
 20
113.6374342195963
 30
0.0
  0
INSERT
  5
894
  8
0
  2
STDGX5
 10
531.14422867545341
 20
113.6374342195963
 30
0.0
  0
INSERT
  5
895
  8
0
  2
STDGX5
 10
806.14422867545341
 20
113.6374342195963
 30
0.0
  0
INSERT
  5
896
  8
0
  2
STDGX5
 10
806.14422867545341
 20
113.6374342195963
 30
0.0
  0
ARC
  5
897
  8
0
 10
163.55147929845839
 20
186.53184407910629
 30
0.0
 40
2.4999981323127409
 50
269.9999571957112
 51
0.0000428042867733
  0
ARC
  5
898
  8
0
 10
163.55147705723289
 20
184.5318455732567
 30
0.0
 40
0.4999996264625512
 50
179.99995719571319
 51
270.00004280428561
  0
LINE
  5
899
  8
0
 10
163.05147743077049
 20
186.03184594679431
 30
0.0
 11
163.05147743077049
 21
184.53184594679431
 31
0.0
  0
ARC
  5
89A
  8
0
 10
162.55147780430801
 20
186.03184632033191
 30
0.0
 40
0.4999996264625512
 50
359.99995719571331
 51
90.000042804285556
  0
LINE
  5
89B
  8
0
 10
161.05147743077049
 20
186.53184594679431
 30
0.0
 11
162.55147743077049
 21
186.53184594679431
 31
0.0
  0
ARC
  5
89C
  8
0
 10
161.05147668369531
 20
185.5318466938694
 30
0.0
 40
0.9999992529251022
 50
89.999957195714444
 51
180.00004280428669
  0
LINE
  5
89D
  8
0
 10
160.05147743077049
 20
183.53184594679431
 30
0.0
 11
160.05147743077049
 21
185.53184594679431
 31
0.0
  0
ARC
  5
89E
  8
0
 10
161.55147631015771
 20
183.5318448261815
 30
0.0
 40
1.4999988793876391
 50
179.9999571957128
 51
270.00004280428561
  0
LINE
  5
89F
  8
0
 10
172.05147743077049
 20
182.03184594679431
 30
0.0
 11
161.55147743077049
 21
182.03184594679431
 31
0.0
  0
ARC
  5
8A0
  8
0
 10
172.0514804190712
 20
186.03184295849351
 30
0.0
 40
3.9999970117003798
 50
269.9999571957112
 51
0.0000428042871804
  0
LINE
  5
8A1
  8
0
 10
176.05147743077049
 20
194.03184594679431
 30
0.0
 11
176.05147743077049
 21
186.03184594679431
 31
0.0
  0
ARC
  5
8A2
  8
0
 10
172.0514804190712
 20
194.03184893509501
 30
0.0
 40
3.9999970117003798
 50
359.9999571957128
 51
90.000042804285556
  0
LINE
  5
8A3
  8
0
 10
140.05296043077041
 20
198.03184594679431
 30
0.0
 11
172.05147743077049
 21
198.03184594679431
 31
0.0
  0
ARC
  5
8A4
  8
0
 10
140.0529574424697
 20
194.03184893509501
 30
0.0
 40
3.9999970117003798
 50
89.999957195714444
 51
180.0000428042872
  0
LINE
  5
8A5
  8
0
 10
136.0529604307703
 20
186.03184594679431
 30
0.0
 11
136.0529604307703
 21
194.03184594679431
 31
0.0
  0
ARC
  5
8A6
  8
0
 10
140.0529574424697
 20
186.03184295849351
 30
0.0
 40
3.9999970117003798
 50
179.9999571957128
 51
270.00004280428561
  0
LINE
  5
8A7
  8
0
 10
150.55147743077049
 20
182.03184594679431
 30
0.0
 11
140.05296043077041
 21
182.03184594679431
 31
0.0
  0
ARC
  5
8A8
  8
0
 10
150.55147855138321
 20
183.5318448261815
 30
0.0
 40
1.4999988793876391
 50
269.9999571957112
 51
0.0000428042871804
  0
LINE
  5
8A9
  8
0
 10
152.05147743077049
 20
185.53184594679431
 30
0.0
 11
152.05147743077049
 21
183.53184594679431
 31
0.0
  0
ARC
  5
8AA
  8
0
 10
151.05147817784569
 20
185.5318466938694
 30
0.0
 40
0.9999992529251022
 50
359.99995719571331
 51
90.000042804285556
  0
LINE
  5
8AB
  8
0
 10
149.5529604307703
 20
186.53184594679431
 30
0.0
 11
151.05147743077049
 21
186.53184594679431
 31
0.0
  0
ARC
  5
8AC
  8
0
 10
149.55296005723281
 20
186.03184632033191
 30
0.0
 40
0.4999996264625512
 50
89.999957195714444
 51
180.00004280428669
  0
LINE
  5
8AD
  8
0
 10
149.05296043077041
 20
184.53184594679431
 30
0.0
 11
149.05296043077041
 21
186.03184594679431
 31
0.0
  0
ARC
  5
8AE
  8
0
 10
148.5529608043079
 20
184.5318455732567
 30
0.0
 40
0.4999996264625512
 50
269.99995719571439
 51
0.0000428042867733
  0
ARC
  5
8AF
  8
0
 10
148.5529585630824
 20
186.53184407910629
 30
0.0
 40
2.4999981323127409
 50
179.9999571957128
 51
270.00004280428561
  0
LINE
  5
8B0
  8
0
 10
146.05296043077041
 20
187.31148594679439
 30
0.0
 11
146.05296043077041
 21
186.53184594679431
 31
0.0
  0
ARC
  5
8B1
  8
0
 10
148.05296255592671
 20
187.31148555340391
 30
0.0
 40
2.0000021251564539
 50
142.88174641946159
 51
179.99998873020709
  0
ARC
  5
8B2
  8
0
 10
166.3930202192613
 20
173.431784416742
 30
0.0
 40
25.000085141037509
 50
126.64195346678871
 51
142.8816781183383
  0
ARC
  5
8B3
  8
0
 10
153.85990347012509
 20
190.2818475230734
 30
0.0
 40
3.9999984237209971
 50
89.999986239765477
 51
126.64193104594661
  0
LINE
  5
8B4
  8
0
 10
158.24453343077039
 20
194.28184594679431
 30
0.0
 11
153.8599044307704
 21
194.28184594679431
 31
0.0
  0
ARC
  5
8B5
  8
0
 10
158.2445343914157
 20
190.2818475230734
 30
0.0
 40
3.9999984237209989
 50
53.358068954053081
 51
90.000013760234523
  0
ARC
  5
8B6
  8
0
 10
145.71141764227951
 20
173.431784416742
 30
0.0
 40
25.000085141037509
 50
37.11832188166165
 51
53.358046533211251
  0
ARC
  5
8B7
  8
0
 10
164.05147530561399
 20
187.31148555340391
 30
0.0
 40
2.0000021251564521
 50
0.0000112697924263
 51
37.118253580538351
  0
LINE
  5
8B8
  8
1
 10
181.05147743077049
 20
190.03184594679431
 30
0.0
 11
131.05296043077041
 21
190.03184594679431
 31
0.0
  0
LINE
  5
8B9
  8
1
 10
156.05221893077029
 20
203.03184594679431
 30
0.0
 11
156.05221893077029
 21
177.03184594679431
 31
0.0
  0
LINE
  5
8BA
  8
0
 10
166.05147743077049
 20
187.31148594679431
 30
0.0
 11
166.05147743077049
 21
186.53184594679431
 31
0.0
  0
LINE
  5
8BB
  8
0
 10
172.05147743077049
 20
196.83184594679429
 30
0.0
 11
161.1413184307703
 21
196.83184594679429
 31
0.0
  0
ARC
  5
8BC
  8
0
 10
145.7114774307704
 20
173.43184594679431
 30
0.0
 40
26.199999999999999
 50
40.896969000001043
 51
55.439678000000761
  0
LINE
  5
8BD
  8
0
 10
174.85147743077039
 20
188.93184594679431
 30
0.0
 11
174.85147743077039
 21
185.99074094679429
 31
0.0
  0
ARC
  5
8BE
  8
0
 10
172.05147743077049
 20
194.03184594679431
 30
0.0
 40
2.7999999999999989
 50
0.0
 51
90.0
  0
ARC
  5
8BF
  8
0
 10
167.75147743077051
 20
183.73184594679429
 30
0.0
 40
0.5
 50
180.0
 51
270.0
  0
LINE
  5
8C0
  8
0
 10
167.25147743077051
 20
186.45798294679429
 30
0.0
 11
167.25147743077051
 21
183.73184594679429
 31
0.0
  0
ARC
  5
8C1
  8
0
 10
172.09258243077051
 20
186.03184594679431
 30
0.0
 40
2.7999999999999989
 50
270.0
 51
314.4052199999993
  0
LINE
  5
8C2
  8
0
 10
167.75147743077051
 20
183.23184594679429
 30
0.0
 11
172.09258243077051
 21
183.23184594679429
 31
0.0
  0
LINE
  5
8C3
  8
0
 10
174.85147743077039
 20
194.03184594679431
 30
0.0
 11
174.85147743077039
 21
191.13184594679419
 31
0.0
  0
ARC
  5
8C4
  8
0
 10
172.05147743077049
 20
185.99074094679429
 30
0.0
 40
2.7999999999999989
 50
315.59477999999979
 51
0.0
  0
ARC
  5
8C5
  8
0
 10
161.1413184307703
 20
195.83184594679429
 30
0.0
 40
1.0
 50
90.0
 51
235.43967800000081
  0
ARC
  5
8C6
  8
0
 10
174.35147743077039
 20
188.93184594679431
 30
0.0
 40
0.5
 50
0.0
 51
90.0
  0
ARC
  5
8C7
  8
0
 10
174.35147743077039
 20
191.13184594679419
 30
0.0
 40
0.5
 50
270.0
 51
0.0
  0
LINE
  5
8C8
  8
0
 10
174.35147743077039
 20
189.43184594679431
 30
0.0
 11
174.15665743077051
 21
189.43184594679431
 31
0.0
  0
LINE
  5
8C9
  8
0
 10
174.35147743077039
 20
190.6318459467943
 30
0.0
 11
174.15665743077051
 21
190.6318459467943
 31
0.0
  0
LINE
  5
8CA
  8
0
 10
137.7529604307704
 20
190.6318459467943
 30
0.0
 11
137.94778043077031
 21
190.6318459467943
 31
0.0
  0
LINE
  5
8CB
  8
0
 10
137.7529604307704
 20
189.4318459467944
 30
0.0
 11
137.94778043077031
 21
189.4318459467944
 31
0.0
  0
ARC
  5
8CC
  8
0
 10
137.7529604307704
 20
191.13184594679419
 30
0.0
 40
0.5
 50
180.0
 51
270.0
  0
ARC
  5
8CD
  8
0
 10
137.7529604307704
 20
188.93184594679431
 30
0.0
 40
0.5
 50
90.0
 51
180.0
  0
ARC
  5
8CE
  8
0
 10
150.96311943077049
 20
195.83184594679429
 30
0.0
 40
1.0
 50
304.5603219999993
 51
90.0
  0
ARC
  5
8CF
  8
0
 10
140.05296043077041
 20
185.99074094679429
 30
0.0
 40
2.7999999999999989
 50
180.0
 51
224.40522000000021
  0
LINE
  5
8D0
  8
0
 10
137.2529604307704
 20
194.03184594679431
 30
0.0
 11
137.2529604307704
 21
191.1318459467943
 31
0.0
  0
LINE
  5
8D1
  8
0
 10
144.35296043077039
 20
183.23184594679429
 30
0.0
 11
140.01185543077031
 21
183.23184594679429
 31
0.0
  0
ARC
  5
8D2
  8
0
 10
140.01185543077031
 20
186.03184594679431
 30
0.0
 40
2.7999999999999989
 50
225.5947800000007
 51
270.0
  0
LINE
  5
8D3
  8
0
 10
144.85296043077039
 20
186.45798294679429
 30
0.0
 11
144.85296043077039
 21
183.73184594679429
 31
0.0
  0
ARC
  5
8D4
  8
0
 10
144.35296043077039
 20
183.73184594679429
 30
0.0
 40
0.5
 50
270.0
 51
0.0
  0
ARC
  5
8D5
  8
0
 10
140.05296043077041
 20
194.03184594679431
 30
0.0
 40
2.7999999999999989
 50
90.0
 51
180.0
  0
LINE
  5
8D6
  8
0
 10
137.2529604307704
 20
188.9318459467944
 30
0.0
 11
137.2529604307704
 21
185.9907409467944
 31
0.0
  0
ARC
  5
8D7
  8
0
 10
166.39296043077039
 20
173.43184594679431
 30
0.0
 40
26.199999999999999
 50
124.5603219999992
 51
139.10303099999891
  0
LINE
  5
8D8
  8
0
 10
140.05296043077041
 20
196.83184594679429
 30
0.0
 11
150.96311943077049
 21
196.83184594679429
 31
0.0
  0
ARC
  5
8D9
  8
0
 10
170.05147743077049
 20
190.03184594679431
 30
0.0
 40
2.5
 50
124.24802569176821
 51
235.75197430823201
  0
ARC
  5
8DA
  8
0
 10
170.05147743077049
 20
190.03184594679431
 30
0.0
 40
3.75
 50
15.000265999999719
 51
56.77035645693153
  0
ARC
  5
8DB
  8
0
 10
165.89368943077039
 20
190.91235794679429
 30
0.0
 40
0.5
 50
220.89696900000101
 51
348.04289499999999
  0
ARC
  5
8DC
  8
0
 10
146.21074843077051
 20
190.91235794679429
 30
0.0
 40
0.5
 50
191.95710500000001
 51
319.10303099999902
  0
ARC
  5
8DD
  8
0
 10
144.35296043077039
 20
186.45798294679429
 30
0.0
 40
0.5
 50
0.0
 51
119.2733752601623
  0
ARC
  5
8DE
  8
0
 10
137.94778043077031
 20
188.93184594679431
 30
0.0
 40
0.5
 50
15.000265999999719
 51
90.0
  0
ARC
  5
8DF
  8
0
 10
137.94778043077031
 20
191.13184594679419
 30
0.0
 40
0.5
 50
270.0
 51
344.99973400000027
  0
ARC
  5
8E0
  8
0
 10
174.15665743077051
 20
191.13184594679419
 30
0.0
 40
0.5
 50
195.0002659999997
 51
270.0
  0
ARC
  5
8E1
  8
0
 10
174.15665743077051
 20
188.93184594679431
 30
0.0
 40
0.5
 50
90.0
 51
164.9997340000003
  0
INSERT
  5
8E2
  8
0
  2
STDGX5
 10
420.9953527628017
 20
112.92374482742819
 30
0.0
  0
LINE
  5
939
  8
0
 10
171.39776875038859
 20
192.3636906298419
 30
0.0
 11
171.8236584097184
 21
193.1013531582195
 31
0.0
  0
LINE
  5
93A
  8
0
 10
168.7051861111523
 20
192.3636906298419
 30
0.0
 11
168.2792964518224
 21
193.1013531582195
 31
0.0
  0
ARC
  5
93B
  8
0
 10
170.05147743077049
 20
190.03184594679431
 30
0.0
 40
3.75
 50
123.2296435430687
 51
168.04289499999999
  0
ARC
  5
93C
  8
0
 10
170.05147743077049
 20
190.03184594679431
 30
0.0
 40
3.75
 50
303.22964354306828
 51
344.99973400000027
  0
ARC
  5
93D
  8
0
 10
170.05147743077049
 20
190.03184594679431
 30
0.0
 40
2.5
 50
304.24802569176478
 51
55.751974308235162
  0
LINE
  5
940
  8
1
 10
142.05296043077041
 20
196.28184594679431
 30
0.0
 11
142.05296043077041
 21
183.78184594679431
 31
0.0
  0
LINE
  5
941
  8
1
 10
170.05147743077049
 20
196.28184594679419
 30
0.0
 11
170.05147743077049
 21
183.78184594679419
 31
0.0
  0
ARC
  5
983
  8
0
 10
168.1060913710655
 20
193.0013531582195
 30
0.0
 40
0.2
 50
29.999999999996799
 51
123.2296435430689
  0
ARC
  5
984
  8
0
 10
168.5319810303954
 20
192.2636906298419
 30
0.0
 40
0.2
 50
304.24802569176802
 51
29.999999999996088
  0
ARC
  5
985
  8
0
 10
171.99686349047539
 20
193.0013531582195
 30
0.0
 40
0.2
 50
56.770356456931069
 51
150.00000000000389
  0
ARC
  5
986
  8
0
 10
171.57097383114549
 20
192.26369062984199
 30
0.0
 40
0.2
 50
150.00000000000321
 51
235.75197430823539
  0
ARC
  5
987
  8
0
 10
171.57097383114549
 20
187.80000126374651
 30
0.0
 40
0.2
 50
124.2480256917646
 51
209.99999999999679
  0
ARC
  5
988
  8
0
 10
171.99686349047539
 20
187.062338735369
 30
0.0
 40
0.2
 50
209.99999999999611
 51
303.2296435430689
  0
ARC
  5
989
  8
0
 10
168.5319810303954
 20
187.80000126374659
 30
0.0
 40
0.2
 50
330.00000000000392
 51
55.751974308232001
  0
ARC
  5
98A
  8
0
 10
168.10556522420089
 20
187.0614274222672
 30
0.0
 40
0.2
 50
236.77035645693101
 51
330.00000000000318
  0
LINE
  5
98B
  8
0
 10
168.7051861111523
 20
187.70000126374649
 30
0.0
 11
168.27877030495779
 21
186.96142742226721
 31
0.0
  0
LINE
  5
98C
  8
0
 10
171.39776875038859
 20
187.70000126374649
 30
0.0
 11
171.8236584097184
 21
186.962338735369
 31
0.0
  0
ARC
  5
98D
  8
0
 10
167.75147743077051
 20
186.45798294679429
 30
0.0
 40
0.5
 50
60.726624740121423
 51
180.0
  0
ARC
  5
98E
  8
0
 10
143.5724568311453
 20
192.2636906298419
 30
0.0
 40
0.2
 50
150.00000000000389
 51
235.75197430823201
  0
ARC
  5
98F
  8
0
 10
143.99834649047509
 20
193.0013531582195
 30
0.0
 40
0.2
 50
56.770356456931069
 51
150.00000000000321
  0
ARC
  5
990
  8
0
 10
142.0529604307701
 20
190.03184594679431
 30
0.0
 40
3.75
 50
11.957104999999981
 51
56.77035645693131
  0
LINE
  5
991
  8
0
 10
143.39925175038829
 20
192.3636906298419
 30
0.0
 11
143.82514140971821
 21
193.1013531582195
 31
0.0
  0
ARC
  5
992
  8
0
 10
142.0529604307701
 20
190.03184594679431
 30
0.0
 40
2.5
 50
304.24802569176802
 51
55.75197430823178
  0
ARC
  5
993
  8
0
 10
140.1075743710652
 20
193.0013531582195
 30
0.0
 40
0.2
 50
29.999999999996088
 51
123.2296435430689
  0
ARC
  5
994
  8
0
 10
140.53346403039509
 20
192.26369062984199
 30
0.0
 40
0.2
 50
304.24802569176461
 51
29.999999999996799
  0
LINE
  5
995
  8
0
 10
140.706669111152
 20
192.3636906298419
 30
0.0
 11
140.28077945182221
 21
193.1013531582195
 31
0.0
  0
ARC
  5
996
  8
0
 10
142.0529604307701
 20
190.03184594679431
 30
0.0
 40
3.75
 50
123.22964354306851
 51
164.9997340000003
  0
ARC
  5
997
  8
0
 10
142.0529604307701
 20
190.03184594679431
 30
0.0
 40
2.5
 50
124.24802569176479
 51
235.75197430823519
  0
LINE
  5
998
  8
0
 10
140.706669111152
 20
187.70000126374649
 30
0.0
 11
140.28077945182221
 21
186.962338735369
 31
0.0
  0
ARC
  5
999
  8
0
 10
140.1075743710652
 20
187.062338735369
 30
0.0
 40
0.2
 50
236.77035645693101
 51
330.00000000000392
  0
ARC
  5
99A
  8
0
 10
140.53346403039509
 20
187.80000126374651
 30
0.0
 40
0.2
 50
330.00000000000318
 51
55.751974308235368
  0
ARC
  5
99B
  8
0
 10
142.0529604307701
 20
190.03184594679431
 30
0.0
 40
3.75
 50
195.0002659999997
 51
236.77035645693149
  0
LINE
  5
99C
  8
0
 10
143.39925175038829
 20
187.70000126374649
 30
0.0
 11
143.82566755658291
 21
186.96142742226721
 31
0.0
  0
ARC
  5
99D
  8
0
 10
143.5724568311453
 20
187.80000126374659
 30
0.0
 40
0.2
 50
124.24802569176801
 51
209.99999999999611
  0
ARC
  5
99E
  8
0
 10
143.9988726373397
 20
187.0614274222672
 30
0.0
 40
0.2
 50
209.99999999999679
 51
303.2296435430689
  0
LINE
  5
9A1
  8
0
 10
326.05147743077049
 20
182.03184594679431
 30
0.0
 11
326.05147743077049
 21
198.03184594679431
 31
0.0
  0
LINE
  5
9A4
  8
0
 10
136.05296043077021
 20
32.031845946794313
 30
0.0
 11
176.0514774307704
 21
32.031845946794313
 31
0.0
  0
LINE
  5
9A7
  8
0
 10
136.0529604307703
 20
348.03184594679442
 30
0.0
 11
176.0514774307704
 21
348.03184594679442
 31
0.0
  0
TEXT
  5
A56
  8
0
 62
     3
 10
0.0
 20
0.0
 30
0.0
 40
10.0
  1
SPE4016N-3M
  7
STANDARD1
  0
ENDSEC
  0
EOF
