  0
SECTION
  2
HEADER
  9
$ACADVER
  1
AC1009
  9
$INSBASE
 10
0.0
 20
0.0
 30
0.0
  9
$EXTMIN
 10
0.0
 20
-2.960436562073669
 30
0.0
  9
$EXTMAX
 10
219.82794800389189
 20
226.3193218304007
 30
0.0
  9
$LIMMIN
 10
0.0
 20
0.0
  9
$LIMMAX
 10
375.0
 20
270.0
  9
$ORTHOMODE
 70
     1
  9
$REGENMODE
 70
     1
  9
$FILLMODE
 70
     1
  9
$QTEXTMODE
 70
     0
  9
$MIRRTEXT
 70
     0
  9
$DRAGMODE
 70
     2
  9
$LTSCALE
 40
5.0
  9
$OSMODE
 70
    55
  9
$ATTMODE
 70
     1
  9
$TEXTSIZE
 40
4.000000000000048
  9
$TRACEWID
 40
0.05
  9
$TEXTSTYLE
  7
STANDARD
  9
$CLAYER
  8
0
  9
$CELTYPE
  6
BYLAYER
  9
$CECOLOR
 62
   256
  9
$DIMSCALE
 40
0.5
  9
$DIMASZ
 40
3.0
  9
$DIMEXO
 40
2.0
  9
$DIMDLI
 40
0.38
  9
$DIMRND
 40
0.0
  9
$DIMDLE
 40
0.0
  9
$DIMEXE
 40
2.0
  9
$DIMTP
 40
0.0
  9
$DIMTM
 40
0.0
  9
$DIMTXT
 40
3.2000000000000002
  9
$DIMCEN
 40
0.0
  9
$DIMTSZ
 40
0.0
  9
$DIMTOL
 70
     0
  9
$DIMLIM
 70
     0
  9
$DIMTIH
 70
     0
  9
$DIMTOH
 70
     0
  9
$DIMSE1
 70
     0
  9
$DIMSE2
 70
     0
  9
$DIMTAD
 70
     1
  9
$DIMZIN
 70
     0
  9
$DIMBLK
  1

  9
$DIMASO
 70
     0
  9
$DIMSHO
 70
     0
  9
$DIMPOST
  1

  9
$DIMAPOST
  1

  9
$DIMALT
 70
     0
  9
$DIMALTD
 70
     2
  9
$DIMALTF
 40
25.399999999999999
  9
$DIMLFAC
 40
1.0
  9
$DIMTOFL
 70
     0
  9
$DIMTVP
 40
1.6000000000000001
  9
$DIMTIX
 70
     1
  9
$DIMSOXD
 70
     0
  9
$DIMSAH
 70
     0
  9
$DIMBLK1
  1

  9
$DIMBLK2
  1

  9
$DIMSTYLE
  2
STANDARD
  9
$DIMCLRD
 70
     4
  9
$DIMCLRE
 70
     4
  9
$DIMCLRT
 70
     4
  9
$DIMTFAC
 40
1.0
  9
$DIMGAP
 40
0.09
  9
$LUNITS
 70
     2
  9
$LUPREC
 70
     1
  9
$SKETCHINC
 40
0.1
  9
$FILLETRAD
 40
0.0
  9
$AUNITS
 70
     0
  9
$AUPREC
 70
     0
  9
$MENU
  1
E:\r13\win\SUPPORT\ACAD
  9
$ELEVATION
 40
0.0
  9
$PELEVATION
 40
0.0
  9
$THICKNESS
 40
0.0
  9
$LIMCHECK
 70
     0
  9
$BLIPMODE
 70
     0
  9
$CHAMFERA
 40
1.1999999999999991
  9
$CHAMFERB
 40
1.1999999999999991
  9
$SKPOLY
 70
     0
  9
$TDCREATE
 40
2449982.688402778
  9
$TDUPDATE
 40
2456598.5451186919
  9
$TDINDWG
 40
0.0023828356
  9
$TDUSRTIMER
 40
0.0023828356
  9
$USRTIMER
 70
     1
  9
$ANGBASE
 50
0.0
  9
$ANGDIR
 70
     0
  9
$PDMODE
 70
     0
  9
$PDSIZE
 40
0.0
  9
$PLINEWID
 40
0.0
  9
$COORDS
 70
     1
  9
$SPLFRAME
 70
     0
  9
$SPLINETYPE
 70
     6
  9
$SPLINESEGS
 70
     8
  9
$ATTDIA
 70
     0
  9
$ATTREQ
 70
     1
  9
$HANDLING
 70
     1
  9
$HANDSEED
  5
260
  9
$SURFTAB1
 70
     6
  9
$SURFTAB2
 70
     6
  9
$SURFTYPE
 70
     6
  9
$SURFU
 70
     6
  9
$SURFV
 70
     6
  9
$UCSNAME
  2

  9
$UCSORG
 10
0.0
 20
0.0
 30
0.0
  9
$UCSXDIR
 10
1.0
 20
0.0
 30
0.0
  9
$UCSYDIR
 10
0.0
 20
1.0
 30
0.0
  9
$PUCSNAME
  2

  9
$PUCSORG
 10
0.0
 20
0.0
 30
0.0
  9
$PUCSXDIR
 10
1.0
 20
0.0
 30
0.0
  9
$PUCSYDIR
 10
0.0
 20
1.0
 30
0.0
  9
$USERI1
 70
     0
  9
$USERI2
 70
     1
  9
$USERI3
 70
     0
  9
$USERI4
 70
     0
  9
$USERI5
 70
     0
  9
$USERR1
 40
0.0
  9
$USERR2
 40
0.0
  9
$USERR3
 40
0.0
  9
$USERR4
 40
0.0
  9
$USERR5
 40
0.0
  9
$WORLDVIEW
 70
     1
  9
$SHADEDGE
 70
     3
  9
$SHADEDIF
 70
    70
  9
$TILEMODE
 70
     1
  9
$MAXACTVP
 70
    16
  9
$PLIMCHECK
 70
     0
  9
$PEXTMIN
 10
1.0000000000000000E+020
 20
1.0000000000000000E+020
 30
1.0000000000000000E+020
  9
$PEXTMAX
 10
-1.0000000000000000E+020
 20
-1.0000000000000000E+020
 30
-1.0000000000000000E+020
  9
$PLIMMIN
 10
0.0
 20
0.0
  9
$PLIMMAX
 10
12.0
 20
9.0
  9
$UNITMODE
 70
     0
  9
$VISRETAIN
 70
     0
  9
$PLINEGEN
 70
     0
  9
$PSLTSCALE
 70
     0
  0
ENDSEC
  0
SECTION
  2
TABLES
  0
TABLE
  2
VPORT
 70
     1
  0
VPORT
  2
*ACTIVE
 70
     0
 10
0.0
 20
0.0
 11
1.0
 21
1.0
 12
187.49427839065231
 22
174.91677254346851
 13
0.0
 23
0.0
 14
5.0
 24
5.0
 15
5.0
 25
5.0
 16
0.0
 26
0.0
 36
1.0
 17
0.0
 27
0.0
 37
0.0
 40
358.92027899574339
 41
1.7807262569832401
 42
50.0
 43
0.0
 44
0.0
 50
0.0
 51
0.0
 71
     0
 72
   500
 73
     1
 74
     0
 75
     0
 76
     0
 77
     0
 78
     2
  0
ENDTAB
  0
TABLE
  2
LTYPE
 70
     3
  0
LTYPE
  2
CONTINUOUS
 70
     0
  3
Solid Line
 72
    65
 73
     0
 40
0.0
  0
LTYPE
  2
CENTER
 70
     0
  3
____ _ ____ _ ____ _ ____ _ ____ _ ____ _ ____
 72
    65
 73
     4
 40
2.0
 49
1.25
 49
-0.25
 49
0.25
 49
-0.25
  0
LTYPE
  2
PHANTOM2
 70
     0
  3
___ _ _ ___ _ _ ___ _ _ ___ _ _
 72
    65
 73
     6
 40
1.25
 49
0.625
 49
-0.125
 49
0.125
 49
-0.125
 49
0.125
 49
-0.125
  0
ENDTAB
  0
TABLE
  2
LAYER
 70
     2
  0
LAYER
  2
0
 70
     0
 62
     7
  6
CONTINUOUS
  0
LAYER
  2
1
 70
     0
 62
     1
  6
CENTER
  0
ENDTAB
  0
TABLE
  2
STYLE
 70
     2
  0
STYLE
  2
STANDARD
 70
     0
 40
0.0
 41
1.0
 50
0.0
 71
     0
 42
4.000000000000048
  3
SIMPLEX
  4
BIGFONT
  0
STYLE
  2
STANDARD1
 70
     0
 40
0.0
 41
1.0
 50
0.0
 71
     0
 42
3.0
  3
txt
  4

  0
ENDTAB
  0
TABLE
  2
VIEW
 70
     1
  0
VIEW
  2
ALL
 70
     0
 40
270.0
 10
220.78595317725751
 20
135.0
 41
441.57190635451502
 11
0.0
 21
0.0
 31
1.0
 12
0.0
 22
0.0
 32
0.0
 42
50.0
 43
0.0
 44
0.0
 50
0.0
 71
     0
  0
ENDTAB
  0
TABLE
  2
UCS
 70
     0
  0
ENDTAB
  0
TABLE
  2
APPID
 70
     3
  0
APPID
  2
ACAD
 70
     0
  0
APPID
  2
ACAD_MLEADERVER
 70
     0
  0
APPID
  2
ACAD_NAV_VCDISPLAY
 70
     0
  0
ENDTAB
  0
TABLE
  2
DIMSTYLE
 70
     1
  0
DIMSTYLE
  2
STANDARD
 70
     0
  3

  4

  5

  6

  7

 40
1.0
 41
0.18
 42
0.0625
 43
0.38
 44
0.18
 45
0.0
 46
0.0
 47
0.0
 48
0.0
140
0.18
141
0.09
142
0.0
143
25.399999999999999
144
1.0
145
0.0
146
1.0
147
0.09
 71
     0
 72
     0
 73
     1
 74
     1
 75
     0
 76
     0
 77
     0
 78
     0
170
     0
171
     2
172
     0
173
     0
174
     0
175
     0
176
     0
177
     0
178
     0
  0
ENDTAB
  0
ENDSEC
  0
SECTION
  2
BLOCKS
  0
BLOCK
  8
0
  2
$MODEL_SPACE
 70
     0
 10
0.0
 20
0.0
 30
0.0
  3
$MODEL_SPACE
  1

  0
ENDBLK
  5
11F
  8
0
  0
BLOCK
 67
     1
  8
0
  2
$PAPER_SPACE
 70
     0
 10
0.0
 20
0.0
 30
0.0
  3
$PAPER_SPACE
  1

  0
ENDBLK
  5
11D
 67
     1
  8
0
  0
BLOCK
  8
0
  2
STDGX5
 70
     0
 10
0.0
 20
0.0
 30
0.0
  3
STDGX5
  1

  0
ENDBLK
  5
30
  8
0
  0
ENDSEC
  0
SECTION
  2
ENTITIES
  0
LINE
  5
31
  8
0
 10
93.011501924393286
 20
144.25028685512129
 30
0.0
 11
143.01150192439329
 21
144.25028685512129
 31
0.0
  0
LINE
  5
32
  8
0
 10
143.01150192439329
 20
104.2502868551213
 30
0.0
 11
93.011501924393286
 21
104.2502868551213
 31
0.0
  0
LINE
  5
33
  8
0
 10
143.01150192439329
 20
104.2502868551213
 30
0.0
 11
143.01150192439329
 21
144.25028685512129
 31
0.0
  0
LINE
  5
35
  8
0
 10
93.011501924393286
 20
104.2502868551213
 30
0.0
 11
93.011501924393286
 21
144.25028685512129
 31
0.0
  0
LINE
  5
43
  8
1
 10
88.011501924393286
 20
124.2502868551213
 30
0.0
 11
148.01150192439329
 21
124.2502868551213
 31
0.0
  0
POLYLINE
  5
44
  8
0
 66
     1
 10
0.0
 20
0.0
 30
0.0
 70
     1
  0
VERTEX
  5
45
  8
0
 10
209.4983090038919
 20
135.45028685512131
 30
0.0
  0
VERTEX
  5
46
  8
0
 10
213.12794800389179
 20
135.45028685512131
 30
0.0
 42
0.4142140000000001
  0
VERTEX
  5
47
  8
0
 10
213.62794800389179
 20
135.95028685512131
 30
0.0
  0
VERTEX
  5
48
  8
0
 10
213.62794800389179
 20
140.25028685512129
 30
0.0
 42
0.4142140000000001
  0
VERTEX
  5
49
  8
0
 10
210.82794800389189
 20
143.05028685512119
 30
0.0
  0
VERTEX
  5
4A
  8
0
 10
206.52794800389191
 20
143.05028685512119
 30
0.0
 42
0.4142140000000001
  0
VERTEX
  5
4B
  8
0
 10
206.02794800389191
 20
142.55028685512119
 30
0.0
  0
VERTEX
  5
4C
  8
0
 10
206.02794800389191
 20
138.9206468551213
 30
0.0
 42
-0.16339
  0
VERTEX
  5
4D
  8
0
 10
205.37960100389191
 20
136.9895668551213
 30
0.0
 42
-0.004133
  0
VERTEX
  5
4E
  8
0
 10
205.1153590038918
 20
136.6463428551213
 30
0.0
 42
0.379193
  0
VERTEX
  5
4F
  8
0
 10
205.15545900389179
 20
135.98450785512131
 30
0.0
  0
VERTEX
  5
50
  8
0
 10
206.56216900389191
 20
134.57779785512119
 30
0.0
 42
0.379193
  0
VERTEX
  5
51
  8
0
 10
207.22400400389191
 20
134.53769785512131
 30
0.0
 42
-0.004133
  0
VERTEX
  5
52
  8
0
 10
207.56722800389181
 20
134.80193885512131
 30
0.0
 42
-0.16339
  0
SEQEND
  5
53
  8
0
  0
CIRCLE
  5
54
  8
0
 10
194.82794800389189
 20
124.2502868551213
 30
0.0
 40
3.399999999999999
  0
ARC
  5
55
  8
0
 10
213.12794800389179
 20
135.95028685512131
 30
0.0
 40
0.5
 50
270.0
 51
0.0
  0
ARC
  5
56
  8
0
 10
210.82794800389189
 20
140.25028685512129
 30
0.0
 40
2.7999999999999989
 50
0.0
 51
90.0
  0
ARC
  5
57
  8
0
 10
206.52794800389191
 20
142.55028685512119
 30
0.0
 40
0.5
 50
90.0
 51
180.0
  0
LINE
  5
58
  8
0
 10
206.52794800389191
 20
143.05028685512119
 30
0.0
 11
210.82794800389189
 21
143.05028685512119
 31
0.0
  0
LINE
  5
59
  8
0
 10
213.62794800389179
 20
140.25028685512129
 30
0.0
 11
213.62794800389179
 21
135.95028685512131
 31
0.0
  0
ARC
  5
5A
  8
0
 10
199.4377210038918
 20
127.2502868551213
 30
0.0
 40
0.5
 50
213.05573100000001
 51
270.0
  0
ARC
  5
5B
  8
0
 10
197.82794800389189
 20
128.86005885512131
 30
0.0
 40
0.5
 50
180.0
 51
236.94426899999999
  0
ARC
  5
5C
  8
0
 10
194.82794800389189
 20
124.2502868551213
 30
0.0
 40
5.0
 50
33.055731000000002
 51
56.944268999999991
  0
ARC
  5
5D
  8
0
 10
206.91572300389191
 20
134.93135085512131
 30
0.0
 40
0.5
 50
225.0
 51
308.065561
  0
LINE
  5
5E
  8
0
 10
206.56216900389191
 20
134.57779785512119
 30
0.0
 11
205.15545900389179
 21
135.98450785512131
 31
0.0
  0
ARC
  5
5F
  8
0
 10
205.50901200389191
 20
136.33806085512131
 30
0.0
 40
0.5
 50
141.934439
 51
225.0
  0
ARC
  5
60
  8
0
 10
184.4879480038918
 20
152.8002868551213
 30
0.0
 40
26.199999999999999
 50
321.934439
 51
322.88170700000001
  0
ARC
  5
61
  8
0
 10
202.82794800389189
 20
138.9206468551213
 30
0.0
 40
3.2000000000000002
 50
322.88170700000001
 51
0.0
  0
LINE
  5
62
  8
0
 10
206.02794800389191
 20
138.9206468551213
 30
0.0
 11
206.02794800389191
 21
142.55028685512119
 31
0.0
  0
LINE
  5
63
  8
0
 10
213.12794800389179
 20
135.45028685512131
 30
0.0
 11
209.4983090038919
 21
135.45028685512131
 31
0.0
  0
ARC
  5
64
  8
0
 10
209.4983090038919
 20
132.25028685512129
 30
0.0
 40
3.2000000000000002
 50
90.0
 51
127.11829299999999
  0
ARC
  5
65
  8
0
 10
223.3779480038919
 20
113.9102868551213
 30
0.0
 40
26.199999999999999
 50
127.11829299999999
 51
128.065561
  0
ARC
  5
66
  8
0
 10
186.82794800389189
 20
138.9206468551213
 30
0.0
 40
2.0
 50
180.0
 51
217.11829299999999
  0
LINE
  5
67
  8
1
 10
169.82794800389189
 20
124.2502868551213
 30
0.0
 11
219.82794800389189
 21
124.2502868551213
 31
0.0
  0
LINE
  5
68
  8
1
 10
194.82794800389189
 20
99.250286855121317
 30
0.0
 11
194.82794800389189
 21
149.25028685512129
 31
0.0
  0
ARC
  5
69
  8
0
 10
205.1678458042181
 20
152.8001818593826
 30
0.0
 40
24.999854683611922
 50
217.1182429761175
 51
233.13014535442051
  0
ARC
  5
6A
  8
0
 10
192.5679453550004
 20
136.00027890844709
 30
0.0
 40
3.999992053326674
 50
233.13006441150719
 51
270.0000379426512
  0
LINE
  5
6B
  8
0
 10
192.5679480038919
 20
132.00028685512129
 30
0.0
 11
194.82794800389189
 21
132.00028685512129
 31
0.0
  0
LINE
  5
6C
  8
0
 10
194.82794800389189
 20
132.00028685512129
 30
0.0
 11
197.08794800389191
 21
132.00028685512129
 31
0.0
  0
ARC
  5
6D
  8
0
 10
197.08795065278329
 20
136.000278908447
 30
0.0
 40
3.9999920533265891
 50
269.99996205734931
 51
306.86993558849309
  0
ARC
  5
6E
  8
0
 10
184.48805070356559
 20
152.80018541438821
 30
0.0
 40
24.999857227618399
 50
306.86984884033473
 51
322.8817512186377
  0
ARC
  5
6F
  8
0
 10
202.82794587873551
 20
138.9206472485115
 30
0.0
 40
2.000002125156386
 50
322.88174641946478
 51
359.99998873020968
  0
LINE
  5
70
  8
0
 10
204.82794800389189
 20
138.9206468551213
 30
0.0
 11
204.82794800389189
 21
139.5672078551213
 31
0.0
  0
ARC
  5
71
  8
0
 10
202.32794987157979
 20
139.5672097228092
 30
0.0
 40
2.4999981323127409
 50
359.99995719571308
 51
90.000042804286906
  0
ARC
  5
72
  8
0
 10
202.32794763035429
 20
141.5672082286589
 30
0.0
 40
0.4999996264625369
 50
89.999957195711772
 51
180.0000428042882
  0
LINE
  5
73
  8
0
 10
201.82794800389189
 20
141.5672078551213
 30
0.0
 11
201.82794800389189
 21
140.20028685512131
 31
0.0
  0
ARC
  5
74
  8
0
 10
201.32794837742949
 20
140.2002864815837
 30
0.0
 40
0.4999996264625369
 50
269.99995719571177
 51
0.0000428042882179
  0
LINE
  5
75
  8
0
 10
201.32794800389189
 20
139.70028685512131
 30
0.0
 11
199.82794800389189
 21
139.70028685512131
 31
0.0
  0
ARC
  5
76
  8
0
 10
199.82794725681671
 20
140.7002861080461
 30
0.0
 40
0.9999992529251022
 50
179.99995719571339
 51
270.00004280428658
  0
LINE
  5
77
  8
0
 10
198.82794800389189
 20
140.70028685512131
 30
0.0
 11
198.82794800389189
 21
142.75028685512129
 31
0.0
  0
ARC
  5
78
  8
0
 10
200.32794688327911
 20
142.7502879757341
 30
0.0
 40
1.4999988793876391
 50
89.999957195712867
 51
180.00004280428709
  0
LINE
  5
79
  8
0
 10
200.32794800389189
 20
144.25028685512129
 30
0.0
 11
210.82794800389189
 21
144.25028685512129
 31
0.0
  0
ARC
  5
7A
  8
0
 10
210.8279509921926
 20
140.250289843422
 30
0.0
 40
3.9999970117003798
 50
359.99995719571302
 51
90.000042804286991
  0
LINE
  5
7B
  8
0
 10
214.82794800389189
 20
140.25028685512129
 30
0.0
 11
214.82794800389189
 21
129.75028685512129
 31
0.0
  0
ARC
  5
7C
  8
0
 10
213.3279491245047
 20
129.75028573450851
 30
0.0
 40
1.4999988793876391
 50
269.9999571957128
 51
0.0000428042871323
  0
LINE
  5
7D
  8
0
 10
213.32794800389189
 20
128.25028685512129
 30
0.0
 11
211.27794800389191
 21
128.25028685512129
 31
0.0
  0
ARC
  5
7E
  8
0
 10
211.2779472568167
 20
129.25028610804611
 30
0.0
 40
0.9999992529251022
 50
179.99995719571339
 51
270.00004280428658
  0
LINE
  5
7F
  8
0
 10
210.27794800389191
 20
129.25028685512129
 30
0.0
 11
210.27794800389191
 21
130.75028685512129
 31
0.0
  0
ARC
  5
80
  8
0
 10
210.7779476303543
 20
130.75028722865889
 30
0.0
 40
0.4999996264625369
 50
89.999957195711772
 51
180.0000428042882
  0
LINE
  5
81
  8
0
 10
210.77794800389191
 20
131.25028685512129
 30
0.0
 11
212.1448700038919
 21
131.25028685512129
 31
0.0
  0
ARC
  5
82
  8
0
 10
212.1448703774295
 20
131.75028648158369
 30
0.0
 40
0.4999996264625369
 50
269.99995719571177
 51
0.0000428042882179
  0
ARC
  5
83
  8
0
 10
210.1448718715798
 20
131.75028872280919
 30
0.0
 40
2.4999981323127409
 50
359.99995719571308
 51
90.000042804286906
  0
LINE
  5
84
  8
0
 10
210.1448700038919
 20
134.25028685512129
 30
0.0
 11
209.4983090038919
 21
134.25028685512129
 31
0.0
  0
ARC
  5
85
  8
0
 10
209.4983088972821
 20
132.25028324073111
 30
0.0
 40
2.000003614390212
 50
89.999996945860417
 51
127.11823925660561
  0
ARC
  5
86
  8
0
 10
223.37784656315901
 20
113.910389554795
 30
0.0
 40
24.999857227618541
 50
127.1182487813626
 51
143.13015115966559
  0
ARC
  5
87
  8
0
 10
206.5779400572176
 20
126.5102895040127
 30
0.0
 40
3.9999920533265891
 50
143.13006441150679
 51
180.00003794265069
  0
LINE
  5
88
  8
0
 10
202.57794800389189
 20
126.51028685512129
 30
0.0
 11
202.57794800389189
 21
121.9902868551213
 31
0.0
  0
ARC
  5
89
  8
0
 10
206.57794005721769
 20
121.9902842062298
 30
0.0
 40
3.999992053326674
 50
179.9999620573488
 51
216.86993558849269
  0
ARC
  5
8A
  8
0
 10
223.37784656315881
 20
134.5901841554475
 30
0.0
 40
24.999857227618399
 50
216.8698488403347
 51
232.88175121863759
  0
ARC
  5
8B
  8
0
 10
209.4983088972821
 20
116.2502904695115
 30
0.0
 40
2.0000036143902049
 50
232.8817607433943
 51
270.0000030541396
  0
LINE
  5
8C
  8
0
 10
209.4983090038919
 20
114.2502868551213
 30
0.0
 11
210.1448700038919
 21
114.2502868551213
 31
0.0
  0
ARC
  5
8D
  8
0
 10
210.1448718715798
 20
116.7502849874333
 30
0.0
 40
2.4999981323127409
 50
269.99995719571308
 51
0.0000428042869152
  0
ARC
  5
8E
  8
0
 10
212.1448703774295
 20
116.75028722865891
 30
0.0
 40
0.4999996264625369
 50
359.99995719571177
 51
90.000042804288213
  0
LINE
  5
8F
  8
0
 10
212.1448700038919
 20
117.2502868551213
 30
0.0
 11
210.77794800389191
 21
117.2502868551213
 31
0.0
  0
ARC
  5
90
  8
0
 10
210.7779476303543
 20
117.7502864815837
 30
0.0
 40
0.4999996264625369
 50
179.99995719571169
 51
270.00004280428823
  0
LINE
  5
91
  8
0
 10
210.27794800389191
 20
117.7502868551213
 30
0.0
 11
210.27794800389191
 21
119.2502868551213
 31
0.0
  0
ARC
  5
92
  8
0
 10
211.2779472568167
 20
119.25028760219649
 30
0.0
 40
0.9999992529251022
 50
89.999957195713407
 51
180.00004280428661
  0
LINE
  5
93
  8
0
 10
211.27794800389191
 20
120.2502868551213
 30
0.0
 11
213.32794800389189
 21
120.2502868551213
 31
0.0
  0
ARC
  5
94
  8
0
 10
213.3279491245047
 20
118.7502879757341
 30
0.0
 40
1.4999988793876391
 50
359.99995719571291
 51
90.000042804287133
  0
LINE
  5
95
  8
0
 10
214.82794800389189
 20
118.7502868551213
 30
0.0
 11
214.82794800389189
 21
108.2502868551213
 31
0.0
  0
ARC
  5
96
  8
0
 10
210.8279509921926
 20
108.2502838668205
 30
0.0
 40
3.9999970117003798
 50
269.99995719571302
 51
0.0000428042869966
  0
LINE
  5
97
  8
0
 10
210.82794800389189
 20
104.2502868551213
 30
0.0
 11
178.82794800389189
 21
104.2502868551213
 31
0.0
  0
ARC
  5
98
  8
0
 10
178.8279450155911
 20
108.2502838668205
 30
0.0
 40
3.9999970117003798
 50
179.99995719571299
 51
270.00004280428698
  0
LINE
  5
99
  8
0
 10
174.82794800389189
 20
108.2502868551213
 30
0.0
 11
174.82794800389189
 21
140.25028685512129
 31
0.0
  0
ARC
  5
9A
  8
0
 10
178.8279450155911
 20
140.250289843422
 30
0.0
 40
3.9999970117003798
 50
89.999957195712994
 51
180.00004280428701
  0
LINE
  5
9B
  8
0
 10
178.82794800389189
 20
144.25028685512129
 30
0.0
 11
189.32794800389189
 21
144.25028685512129
 31
0.0
  0
ARC
  5
9C
  8
0
 10
189.3279491245047
 20
142.7502879757341
 30
0.0
 40
1.4999988793876391
 50
359.99995719571291
 51
90.000042804287133
  0
LINE
  5
9D
  8
0
 10
190.82794800389189
 20
142.75028685512129
 30
0.0
 11
190.82794800389189
 21
140.70028685512131
 31
0.0
  0
ARC
  5
9E
  8
0
 10
189.82794875096701
 20
140.7002861080461
 30
0.0
 40
0.9999992529251022
 50
269.99995719571342
 51
0.0000428042865895
  0
LINE
  5
9F
  8
0
 10
189.82794800389189
 20
139.70028685512131
 30
0.0
 11
188.32794800389189
 21
139.70028685512131
 31
0.0
  0
ARC
  5
A0
  8
0
 10
188.32794763035429
 20
140.2002864815837
 30
0.0
 40
0.4999996264625369
 50
179.99995719571169
 51
270.00004280428823
  0
LINE
  5
A1
  8
0
 10
187.82794800389189
 20
140.20028685512131
 30
0.0
 11
187.82794800389189
 21
141.5672078551213
 31
0.0
  0
ARC
  5
A2
  8
0
 10
187.32794837742949
 20
141.5672082286589
 30
0.0
 40
0.4999996264625369
 50
359.99995719571177
 51
90.000042804288213
  0
ARC
  5
A3
  8
0
 10
187.32794613620391
 20
139.5672097228092
 30
0.0
 40
2.4999981323127409
 50
89.999957195713066
 51
180.00004280428689
  0
LINE
  5
A4
  8
0
 10
184.82794800389181
 20
139.5672078551213
 30
0.0
 11
184.82794800389181
 21
138.9206468551213
 31
0.0
  0
LINE
  5
A5
  8
0
 10
177.68150200389189
 20
107.95236885512119
 30
0.0
 11
190.59317300389191
 21
120.86403885512129
 31
0.0
  0
ARC
  5
A6
  8
0
 10
190.2396193692714
 20
121.2175920279165
 30
0.0
 40
0.500000018546917
 50
315.00003742099261
 51
33.463086788192641
  0
ARC
  5
A7
  8
0
 10
194.82846544987211
 20
124.2506878077436
 30
0.0
 40
5.0006525210393962
 50
213.05635048461619
 51
213.46360845672541
  0
ARC
  5
A8
  8
0
 10
190.21817583446611
 20
121.25028724357161
 30
0.0
 40
0.4999996115497379
 50
33.05566972259804
 51
89.999980585226126
  0
LINE
  5
A9
  8
0
 10
190.2181760038919
 20
121.7502868551213
 30
0.0
 11
190.12794800389179
 21
121.7502868551213
 31
0.0
  0
ARC
  5
AA
  8
0
 10
190.1279477797693
 20
122.0502866309987
 30
0.0
 40
0.2999997758774937
 50
179.99995719571501
 51
270.00004280428487
  0
LINE
  5
AB
  8
0
 10
189.82794800389189
 20
122.0502868551212
 30
0.0
 11
189.82794800389189
 21
126.45028685512131
 31
0.0
  0
ARC
  5
AC
  8
0
 10
190.1279477797693
 20
126.45028707924379
 30
0.0
 40
0.2999997758775221
 50
89.999957195720455
 51
180.00004280429039
  0
LINE
  5
AD
  8
0
 10
190.12794800389179
 20
126.7502868551213
 30
0.0
 11
190.2181760038919
 21
126.7502868551213
 31
0.0
  0
ARC
  5
AE
  8
0
 10
190.21817583446611
 20
127.250286466671
 30
0.0
 40
0.4999996115497257
 50
270.00001941477382
 51
326.94433027740189
  0
ARC
  5
AF
  8
0
 10
194.82793218570851
 20
124.25030080969751
 30
0.0
 40
4.9999792574884729
 50
123.05565962682211
 51
146.94430122145999
  0
ARC
  5
B0
  8
0
 10
191.82794889234211
 20
128.8600581025934
 30
0.0
 40
0.4999991115503042
 50
303.05577537086498
 51
0.000086233493156
  0
LINE
  5
B1
  8
0
 10
192.32794800389189
 20
128.86005885512131
 30
0.0
 11
192.32794800389189
 21
129.54254685512129
 31
0.0
  0
ARC
  5
B2
  8
0
 10
191.82794781386261
 20
129.54254748122469
 30
0.0
 40
0.5000001900297035
 50
359.99992825386261
 51
83.462911996647534
  0
ARC
  5
B3
  8
0
 10
192.56794988028159
 20
136.0002933058831
 30
0.0
 40
6.0000062864437638
 50
233.13012497971249
 51
263.46291065138388
  0
ARC
  5
B4
  8
0
 10
205.1678381192452
 20
152.80017512392601
 30
0.0
 40
26.999844684263881
 50
217.1182442615017
 51
233.13014663980471
  0
ARC
  5
B5
  8
0
 10
186.8279527542046
 20
138.92064913113549
 30
0.0
 40
4.0000047503133542
 50
180.00003260146499
 51
217.11827491221021
  0
LINE
  5
B6
  8
0
 10
182.82794800389189
 20
138.9206468551213
 30
0.0
 11
182.82794800389189
 21
139.75028685512129
 31
0.0
  0
ARC
  5
B7
  8
0
 10
180.32794987157979
 20
139.7502887228093
 30
0.0
 40
2.4999981323127409
 50
359.99995719571308
 51
90.000042804286906
  0
LINE
  5
B8
  8
0
 10
180.32794800389189
 20
142.25028685512129
 30
0.0
 11
178.82794800389189
 21
142.25028685512129
 31
0.0
  0
ARC
  5
B9
  8
0
 10
178.82794650974151
 20
140.25028834927161
 30
0.0
 40
1.9999985058502039
 50
89.999957195713407
 51
180.00004280428661
  0
LINE
  5
BA
  8
0
 10
176.82794800389189
 20
140.25028685512129
 30
0.0
 11
176.82794800389189
 21
108.3059218551212
 31
0.0
  0
ARC
  5
BB
  8
0
 10
177.32794812401431
 20
108.3059219263086
 30
0.0
 40
0.5000001201224275
 50
180.0000081574635
 51
315.00006552691508
  0
LINE
  5
BC
  8
0
 10
199.4377210038918
 20
126.7502868551213
 30
0.0
 11
200.92618800389189
 21
126.7502868551213
 31
0.0
  0
ARC
  5
BD
  8
0
 10
200.92618730429029
 20
127.25028705191841
 30
0.0
 40
0.5000001967975783
 50
270.00008016840002
 51
352.54055813717832
  0
ARC
  5
BE
  8
0
 10
206.57796121817469
 20
126.51028202172689
 30
0.0
 40
5.2000134714644544
 50
143.13014710925179
 51
172.54050809242531
  0
ARC
  5
BF
  8
0
 10
223.3780645871706
 20
113.9101789281315
 30
0.0
 40
26.200158022821999
 50
132.80296575582281
 51
143.13006650815419
  0
ARC
  5
C0
  8
0
 10
205.23586057895221
 20
133.499943449884
 30
0.0
 40
0.5000000346414751
 50
312.80292826979939
 51
44.999998403553029
  0
LINE
  5
C1
  8
0
 10
205.5894140038919
 20
133.85349685512131
 30
0.0
 11
204.43115800389191
 21
135.0117518551213
 31
0.0
  0
ARC
  5
C2
  8
0
 10
204.07760459865449
 20
134.65819843018161
 30
0.0
 40
0.5000000346414592
 50
45.000001596446957
 51
137.19707173020049
  0
ARC
  5
C3
  8
0
 10
184.48784560997299
 20
152.8004029384
 30
0.0
 40
26.200154302977211
 50
306.86992446791328
 51
317.19702522024483
  0
ARC
  5
C4
  8
0
 10
197.0879431704976
 20
136.00030006940409
 30
0.0
 40
5.2000134714644224
 50
277.45949190757381
 51
306.86985289074721
  0
ARC
  5
C5
  8
0
 10
197.8279487704236
 20
130.34852565551969
 30
0.0
 40
0.500000766531771
 50
97.459499158604316
 51
179.99997712738289
  0
LINE
  5
C6
  8
0
 10
197.32794800389181
 20
130.3485258551213
 30
0.0
 11
197.32794800389181
 21
128.86005885512131
 31
0.0
  0
LINE
  5
C7
  8
0
 10
209.4983090038919
 20
112.2502868551213
 30
0.0
 11
210.32794800389189
 21
112.2502868551213
 31
0.0
  0
ARC
  5
C8
  8
0
 10
210.3279498715799
 20
109.7502887228092
 30
0.0
 40
2.4999981323127409
 50
359.99995719571308
 51
90.000042804286906
  0
LINE
  5
C9
  8
0
 10
212.82794800389189
 20
109.7502868551213
 30
0.0
 11
212.82794800389189
 21
108.2502868551213
 31
0.0
  0
ARC
  5
CA
  8
0
 10
210.82794949804219
 20
108.25028536097091
 30
0.0
 40
1.9999985058502039
 50
269.99995719571342
 51
0.0000428042869966
  0
LINE
  5
CB
  8
0
 10
210.82794800389189
 20
106.2502868551213
 30
0.0
 11
178.8835830038918
 21
106.2502868551213
 31
0.0
  0
ARC
  5
CC
  8
0
 10
178.88358286797271
 20
106.7502864752437
 30
0.0
 40
0.4999996201224562
 50
134.99995820574819
 51
270.00001557519931
  0
LINE
  5
CD
  8
0
 10
178.5300300038918
 20
107.10383985512129
 30
0.0
 11
191.44170100389181
 21
120.01551085512131
 31
0.0
  0
ARC
  5
CE
  8
0
 10
191.79525478905941
 20
119.66195772050079
 30
0.0
 40
0.5000000980062813
 50
56.53700334562906
 51
135.0000527128289
  0
ARC
  5
CF
  8
0
 10
194.82834995651419
 20
124.25080430109359
 30
0.0
 40
5.0006525210327171
 50
236.5363915432244
 51
236.94364951533359
  0
ARC
  5
D0
  8
0
 10
191.82794889234211
 20
119.64051560764911
 30
0.0
 40
0.4999991115503591
 50
359.9999137665036
 51
56.944224629131313
  0
LINE
  5
D1
  8
0
 10
192.32794800389189
 20
119.6405148551213
 30
0.0
 11
192.32794800389189
 21
119.5502868551212
 31
0.0
  0
ARC
  5
D2
  8
0
 10
192.6279477797693
 20
119.5502866309987
 30
0.0
 40
0.2999997758774937
 50
179.99995719571501
 51
270.00004280428487
  0
LINE
  5
D3
  8
0
 10
192.62794800389179
 20
119.2502868551213
 30
0.0
 11
197.02794800389179
 21
119.2502868551213
 31
0.0
  0
ARC
  5
D4
  8
0
 10
197.0279482280144
 20
119.5502866309987
 30
0.0
 40
0.2999997758775221
 50
269.99995719570961
 51
0.0000428042795329
  0
LINE
  5
D5
  8
0
 10
197.32794800389181
 20
119.5502868551212
 30
0.0
 11
197.32794800389181
 21
119.6405148551213
 31
0.0
  0
ARC
  5
D6
  8
0
 10
197.82794761544159
 20
119.64051468569561
 30
0.0
 40
0.4999996115497825
 50
123.05566972260171
 51
179.99998058522939
  0
ARC
  5
D7
  8
0
 10
194.82796432207519
 20
124.250270536938
 30
0.0
 40
4.9999775491793033
 50
303.05567920268112
 51
326.94432079731888
  0
ARC
  5
D8
  8
0
 10
199.43772067331761
 20
121.25028632161791
 30
0.0
 40
0.5000005335034582
 50
89.999962119019827
 51
146.9442729816474
  0
LINE
  5
D9
  8
0
 10
199.4377210038918
 20
121.7502868551213
 30
0.0
 11
200.1202090038918
 21
121.7502868551213
 31
0.0
  0
ARC
  5
DA
  8
0
 10
200.12020912999529
 20
121.25028722565899
 30
0.0
 40
0.4999996294622963
 50
6.537030707614516
 51
90.000014450399334
  0
ARC
  5
DB
  8
0
 10
206.57795445465359
 20
121.9902887315111
 30
0.0
 40
6.0000062864437638
 50
186.53708934861601
 51
216.86987502028751
  0
ARC
  5
DC
  8
0
 10
223.3778362726967
 20
134.5901769704746
 30
0.0
 40
26.999844684263881
 50
216.86985336019529
 51
232.8817557384983
  0
ARC
  5
DD
  8
0
 10
209.49831077990621
 20
116.2502930946679
 30
0.0
 40
4.0000062395470071
 50
232.8817322497633
 51
269.99997456050829
  0
LINE
  5
DE
  8
0
 10
190.82794800389229
 20
171.3193218304007
 30
0.0
 11
190.82794800389229
 21
221.3193218304007
 31
0.0
  0
LINE
  5
DF
  8
0
 10
198.82794800389141
 20
171.3193218304007
 30
0.0
 11
198.82794800389141
 21
221.3193218304007
 31
0.0
  0
LINE
  5
E0
  8
1
 10
194.82794800389189
 20
166.3193218304007
 30
0.0
 11
194.82794800389189
 21
226.3193218304007
 31
0.0
  0
LINE
  5
E1
  8
0
 10
214.82794800389189
 20
171.3193218304007
 30
0.0
 11
214.82794800389189
 21
221.3193218304007
 31
0.0
  0
LINE
  5
E2
  8
0
 10
174.82794800389189
 20
221.3193218304007
 30
0.0
 11
174.82794800389189
 21
171.3193218304007
 31
0.0
  0
LINE
  5
E3
  8
0
 10
174.82794800389189
 20
171.3193218304007
 30
0.0
 11
214.82794800389189
 21
171.3193218304007
 31
0.0
  0
LINE
  5
E4
  8
0
 10
174.82794800389189
 20
221.3193218304007
 30
0.0
 11
214.82794800389189
 21
221.3193218304007
 31
0.0
  0
INSERT
  5
E7
  8
0
  2
STDGX5
 10
0.0
 20
0.0
 30
0.0
  0
TEXT
  5
1CC
  8
0
 62
     3
 10
0.0
 20
0.0
 30
0.0
 40
10.0
  1
SPE4040N2
  7
STANDARD1
  0
ENDSEC
  0
EOF
