  0
SECTION
  2
HEADER
  9
$ACADVER
  1
AC1009
  9
$INSBASE
 10
0.0
 20
0.0
 30
0.0
  9
$EXTMIN
 10
0.0
 20
-2.960436562073669
 30
0.0
  9
$EXTMAX
 10
156.41090544854211
 20
122.256077665072
 30
0.0
  9
$LIMMIN
 10
0.0
 20
0.0
  9
$LIMMAX
 10
187.5
 20
135.0
  9
$ORTHOMODE
 70
     1
  9
$REGENMODE
 70
     1
  9
$FILLMODE
 70
     1
  9
$QTEXTMODE
 70
     0
  9
$MIRRTEXT
 70
     0
  9
$DRAGMODE
 70
     2
  9
$LTSCALE
 40
5.0
  9
$OSMODE
 70
    55
  9
$ATTMODE
 70
     1
  9
$TEXTSIZE
 40
4.000000000000048
  9
$TRACEWID
 40
0.05
  9
$TEXTSTYLE
  7
STANDARD
  9
$CLAYER
  8
0
  9
$CELTYPE
  6
BYLAYER
  9
$CECOLOR
 62
   256
  9
$DIMSCALE
 40
0.5
  9
$DIMASZ
 40
3.0
  9
$DIMEXO
 40
2.0
  9
$DIMDLI
 40
0.38
  9
$DIMRND
 40
0.0
  9
$DIMDLE
 40
0.0
  9
$DIMEXE
 40
2.0
  9
$DIMTP
 40
0.0
  9
$DIMTM
 40
0.0
  9
$DIMTXT
 40
3.2000000000000002
  9
$DIMCEN
 40
0.0
  9
$DIMTSZ
 40
0.0
  9
$DIMTOL
 70
     0
  9
$DIMLIM
 70
     0
  9
$DIMTIH
 70
     0
  9
$DIMTOH
 70
     0
  9
$DIMSE1
 70
     0
  9
$DIMSE2
 70
     0
  9
$DIMTAD
 70
     1
  9
$DIMZIN
 70
     0
  9
$DIMBLK
  1

  9
$DIMASO
 70
     0
  9
$DIMSHO
 70
     0
  9
$DIMPOST
  1

  9
$DIMAPOST
  1

  9
$DIMALT
 70
     0
  9
$DIMALTD
 70
     2
  9
$DIMALTF
 40
25.399999999999999
  9
$DIMLFAC
 40
1.0
  9
$DIMTOFL
 70
     0
  9
$DIMTVP
 40
1.6000000000000001
  9
$DIMTIX
 70
     1
  9
$DIMSOXD
 70
     0
  9
$DIMSAH
 70
     0
  9
$DIMBLK1
  1

  9
$DIMBLK2
  1

  9
$DIMSTYLE
  2
STANDARD
  9
$DIMCLRD
 70
     4
  9
$DIMCLRE
 70
     4
  9
$DIMCLRT
 70
     4
  9
$DIMTFAC
 40
1.0
  9
$DIMGAP
 40
0.09
  9
$LUNITS
 70
     2
  9
$LUPREC
 70
     1
  9
$SKETCHINC
 40
0.1
  9
$FILLETRAD
 40
0.0
  9
$AUNITS
 70
     0
  9
$AUPREC
 70
     0
  9
$MENU
  1
E:\r13\win\SUPPORT\ACAD
  9
$ELEVATION
 40
0.0
  9
$PELEVATION
 40
0.0
  9
$THICKNESS
 40
0.0
  9
$LIMCHECK
 70
     0
  9
$BLIPMODE
 70
     0
  9
$CHAMFERA
 40
1.1999999999999991
  9
$CHAMFERB
 40
1.1999999999999991
  9
$SKPOLY
 70
     0
  9
$TDCREATE
 40
2449982.673530092
  9
$TDUPDATE
 40
2456598.5452672918
  9
$TDINDWG
 40
0.0097135185
  9
$TDUSRTIMER
 40
0.0097135185
  9
$USRTIMER
 70
     1
  9
$ANGBASE
 50
0.0
  9
$ANGDIR
 70
     0
  9
$PDMODE
 70
     0
  9
$PDSIZE
 40
0.0
  9
$PLINEWID
 40
0.0
  9
$COORDS
 70
     1
  9
$SPLFRAME
 70
     0
  9
$SPLINETYPE
 70
     6
  9
$SPLINESEGS
 70
     8
  9
$ATTDIA
 70
     0
  9
$ATTREQ
 70
     1
  9
$HANDLING
 70
     1
  9
$HANDSEED
  5
42A
  9
$SURFTAB1
 70
     6
  9
$SURFTAB2
 70
     6
  9
$SURFTYPE
 70
     6
  9
$SURFU
 70
     6
  9
$SURFV
 70
     6
  9
$UCSNAME
  2

  9
$UCSORG
 10
0.0
 20
0.0
 30
0.0
  9
$UCSXDIR
 10
1.0
 20
0.0
 30
0.0
  9
$UCSYDIR
 10
0.0
 20
1.0
 30
0.0
  9
$PUCSNAME
  2

  9
$PUCSORG
 10
0.0
 20
0.0
 30
0.0
  9
$PUCSXDIR
 10
1.0
 20
0.0
 30
0.0
  9
$PUCSYDIR
 10
0.0
 20
1.0
 30
0.0
  9
$USERI1
 70
     0
  9
$USERI2
 70
     1
  9
$USERI3
 70
     0
  9
$USERI4
 70
     0
  9
$USERI5
 70
     0
  9
$USERR1
 40
0.0
  9
$USERR2
 40
0.0
  9
$USERR3
 40
0.0
  9
$USERR4
 40
0.0
  9
$USERR5
 40
0.0
  9
$WORLDVIEW
 70
     1
  9
$SHADEDGE
 70
     3
  9
$SHADEDIF
 70
    70
  9
$TILEMODE
 70
     1
  9
$MAXACTVP
 70
    16
  9
$PLIMCHECK
 70
     0
  9
$PEXTMIN
 10
1.0000000000000000E+020
 20
1.0000000000000000E+020
 30
1.0000000000000000E+020
  9
$PEXTMAX
 10
-1.0000000000000000E+020
 20
-1.0000000000000000E+020
 30
-1.0000000000000000E+020
  9
$PLIMMIN
 10
0.0
 20
0.0
  9
$PLIMMAX
 10
12.0
 20
9.0
  9
$UNITMODE
 70
     0
  9
$VISRETAIN
 70
     0
  9
$PLINEGEN
 70
     0
  9
$PSLTSCALE
 70
     0
  0
ENDSEC
  0
SECTION
  2
TABLES
  0
TABLE
  2
VPORT
 70
     1
  0
VPORT
  2
*ACTIVE
 70
     0
 10
0.0
 20
0.0
 11
1.0
 21
1.0
 12
93.74713919532617
 22
86.941769983850563
 13
0.0
 23
0.0
 14
5.0
 24
5.0
 15
5.0
 25
5.0
 16
0.0
 26
0.0
 36
1.0
 17
0.0
 27
0.0
 37
0.0
 40
181.41026326986619
 41
1.7807262569832401
 42
50.0
 43
0.0
 44
0.0
 50
0.0
 51
0.0
 71
     0
 72
   500
 73
     1
 74
     0
 75
     0
 76
     0
 77
     0
 78
     2
  0
ENDTAB
  0
TABLE
  2
LTYPE
 70
     3
  0
LTYPE
  2
CONTINUOUS
 70
     0
  3
Solid Line
 72
    65
 73
     0
 40
0.0
  0
LTYPE
  2
CENTER
 70
     0
  3
____ _ ____ _ ____ _ ____ _ ____ _ ____ _ ____
 72
    65
 73
     4
 40
2.0
 49
1.25
 49
-0.25
 49
0.25
 49
-0.25
  0
LTYPE
  2
PHANTOM2
 70
     0
  3
___ _ _ ___ _ _ ___ _ _ ___ _ _
 72
    65
 73
     6
 40
1.25
 49
0.625
 49
-0.125
 49
0.125
 49
-0.125
 49
0.125
 49
-0.125
  0
ENDTAB
  0
TABLE
  2
LAYER
 70
     2
  0
LAYER
  2
0
 70
     0
 62
     7
  6
CONTINUOUS
  0
LAYER
  2
1
 70
     0
 62
     1
  6
CENTER
  0
ENDTAB
  0
TABLE
  2
STYLE
 70
     2
  0
STYLE
  2
STANDARD
 70
     0
 40
0.0
 41
1.0
 50
0.0
 71
     0
 42
4.000000000000048
  3
SIMPLEX
  4
BIGFONT
  0
STYLE
  2
STANDARD1
 70
     0
 40
0.0
 41
1.0
 50
0.0
 71
     0
 42
3.0
  3
txt
  4

  0
ENDTAB
  0
TABLE
  2
VIEW
 70
     1
  0
VIEW
  2
ALL
 70
     0
 40
179.5384664489153
 10
146.94997169852391
 20
89.769233224457665
 41
0.0
 11
0.0
 21
0.0
 31
1.0
 12
0.0
 22
0.0
 32
0.0
 42
50.0
 43
0.0
 44
0.0
 50
0.0
 71
     0
  0
ENDTAB
  0
TABLE
  2
UCS
 70
     0
  0
ENDTAB
  0
TABLE
  2
APPID
 70
     3
  0
APPID
  2
ACAD
 70
     0
  0
APPID
  2
ACAD_MLEADERVER
 70
     0
  0
APPID
  2
ACAD_NAV_VCDISPLAY
 70
     0
  0
ENDTAB
  0
TABLE
  2
DIMSTYLE
 70
     2
  0
DIMSTYLE
  2
STANDARD
 70
     0
  3

  4

  5

  6

  7

 40
1.0
 41
0.18
 42
0.0625
 43
0.38
 44
0.18
 45
0.0
 46
0.0
 47
0.0
 48
0.0
140
0.18
141
0.09
142
0.0
143
25.399999999999999
144
1.0
145
0.0
146
1.0
147
0.09
 71
     0
 72
     0
 73
     1
 74
     1
 75
     0
 76
     0
 77
     0
 78
     0
170
     0
171
     2
172
     0
173
     0
174
     0
175
     0
176
     0
177
     0
178
     0
  0
DIMSTYLE
  2
ISO-25
 70
     0
  3

  4

  5

  6

  7

 40
1.0
 41
2.5
 42
0.625
 43
3.75
 44
1.25
 45
0.0
 46
0.0
 47
0.0
 48
0.0
140
2.5
141
2.5
142
0.0
143
0.03937007874016
144
1.0
145
0.0
146
1.0
147
0.625
 71
     0
 72
     0
 73
     0
 74
     0
 75
     0
 76
     0
 77
     1
 78
     8
170
     0
171
     3
172
     1
173
     0
174
     0
175
     0
176
     0
177
     0
178
     0
  0
ENDTAB
  0
ENDSEC
  0
SECTION
  2
BLOCKS
  0
BLOCK
  8
0
  2
$MODEL_SPACE
 70
     0
 10
0.0
 20
0.0
 30
0.0
  3
$MODEL_SPACE
  1

  0
ENDBLK
  5
10D
  8
0
  0
BLOCK
 67
     1
  8
0
  2
$PAPER_SPACE
 70
     0
 10
0.0
 20
0.0
 30
0.0
  3
$PAPER_SPACE
  1

  0
ENDBLK
  5
10B
 67
     1
  8
0
  0
BLOCK
  8
0
  2
STDGX5
 70
     0
 10
0.0
 20
0.0
 30
0.0
  3
STDGX5
  1

  0
ENDBLK
  5
30
  8
0
  0
ENDSEC
  0
SECTION
  2
ENTITIES
  0
LINE
  5
33
  8
0
 10
117.4109054485422
 20
51.051008949101373
 30
0.0
 11
117.4109054485422
 21
26.051008949101369
 31
0.0
  0
LINE
  5
34
  8
0
 10
77.41238844854206
 20
26.051008949101369
 30
0.0
 11
117.4109054485422
 21
26.051008949101369
 31
0.0
  0
LINE
  5
35
  8
0
 10
77.41238844854206
 20
51.051008949101373
 30
0.0
 11
117.4109054485422
 21
51.051008949101373
 31
0.0
  0
LINE
  5
36
  8
0
 10
37.410905448542152
 20
51.051008949101373
 30
0.0
 11
117.4109054485422
 21
51.051008949101373
 31
0.0
  0
LINE
  5
37
  8
0
 10
37.410905448542152
 20
26.051008949101369
 30
0.0
 11
117.4109054485422
 21
26.051008949101369
 31
0.0
  0
LINE
  5
38
  8
0
 10
117.4109054485422
 20
51.051008949101373
 30
0.0
 11
117.4109054485422
 21
26.051008949101369
 31
0.0
  0
LINE
  5
39
  8
0
 10
131.41090544854211
 20
81.104487949101355
 30
0.0
 11
156.41090544854211
 21
81.104487949101355
 31
0.0
  0
LINE
  5
3A
  8
0
 10
131.41090544854211
 20
65.104487949101355
 30
0.0
 11
156.41090544854211
 21
65.104487949101355
 31
0.0
  0
LINE
  5
3B
  8
0
 10
131.41090544854211
 20
81.104487949101355
 30
0.0
 11
131.41090544854211
 21
65.104487949101355
 31
0.0
  0
LINE
  5
3C
  8
0
 10
156.41090544854211
 20
81.104487949101355
 30
0.0
 11
156.41090544854211
 21
65.104487949101355
 31
0.0
  0
LINE
  5
4A
  8
1
 10
97.411646948542113
 20
53.551008949101373
 30
0.0
 11
97.411646948542113
 21
23.551008949101369
 31
0.0
  0
LINE
  5
4B
  8
1
 10
97.411646948542113
 20
92.256077665071999
 30
0.0
 11
97.411646948542113
 21
122.256077665072
 31
0.0
  0
LINE
  5
4C
  8
0
 10
117.4109054485422
 20
94.756077665071999
 30
0.0
 11
117.4109054485422
 21
119.756077665072
 31
0.0
  0
LINE
  5
4D
  8
0
 10
77.41238844854206
 20
119.756077665072
 30
0.0
 11
117.4109054485422
 21
119.756077665072
 31
0.0
  0
LINE
  5
4E
  8
0
 10
77.41238844854206
 20
94.756077665071999
 30
0.0
 11
117.4109054485422
 21
94.756077665071999
 31
0.0
  0
LINE
  5
4F
  8
0
 10
37.410905448542152
 20
94.756077665071999
 30
0.0
 11
117.4109054485422
 21
94.756077665071999
 31
0.0
  0
LINE
  5
50
  8
0
 10
37.410905448542152
 20
119.756077665072
 30
0.0
 11
117.4109054485422
 21
119.756077665072
 31
0.0
  0
LINE
  5
51
  8
0
 10
117.4109054485422
 20
94.756077665071999
 30
0.0
 11
117.4109054485422
 21
119.756077665072
 31
0.0
  0
LINE
  5
53
  8
0
 10
101.4109054485417
 20
51.051008949101373
 30
0.0
 11
101.4109054485417
 21
26.051008949101369
 31
0.0
  0
LINE
  5
54
  8
0
 10
93.410905448542579
 20
51.051008949101373
 30
0.0
 11
93.410905448542579
 21
26.051008949101369
 31
0.0
  0
LINE
  5
58
  8
0
 10
37.410905448542152
 20
94.756077665071999
 30
0.0
 11
37.410905448542152
 21
119.756077665072
 31
0.0
  0
LINE
  5
59
  8
0
 10
37.410905448542152
 20
94.756077665071999
 30
0.0
 11
37.410905448542152
 21
119.756077665072
 31
0.0
  0
LINE
  5
5A
  8
1
 10
57.41016394854222
 20
92.256077665071999
 30
0.0
 11
57.41016394854222
 21
122.256077665072
 31
0.0
  0
LINE
  5
5B
  8
0
 10
61.41090544854174
 20
51.051008949101373
 30
0.0
 11
61.410905448541762
 21
26.051008949101369
 31
0.0
  0
LINE
  5
5C
  8
0
 10
53.410905448542572
 20
51.051008949101373
 30
0.0
 11
53.410905448542579
 21
26.051008949101369
 31
0.0
  0
LINE
  5
5D
  8
1
 10
57.41016394854222
 20
53.551008949101373
 30
0.0
 11
57.41016394854222
 21
23.551008949101369
 31
0.0
  0
LINE
  5
5E
  8
0
 10
37.410905448542152
 20
51.051008949101373
 30
0.0
 11
37.410905448542152
 21
26.051008949101369
 31
0.0
  0
LINE
  5
5F
  8
0
 10
37.410905448542152
 20
51.051008949101373
 30
0.0
 11
37.410905448542152
 21
26.051008949101369
 31
0.0
  0
INSERT
  5
D5
  8
0
  2
STDGX5
 10
0.0
 20
0.0
 30
0.0
  0
ARC
  5
1BB
  8
0
  6
CONTINUOUS
 62
     7
 10
59.55405119904907
 20
73.354487949101681
 30
0.0
 40
4.0000000000652696
 50
45.0
 51
90.000000000004874
  0
LINE
  5
1BC
  8
0
  6
CONTINUOUS
 62
     7
 10
63.455453050663209
 20
79.104487949101681
 30
0.0
 11
91.366357846421181
 21
79.104487949101681
 31
0.0
  0
ARC
  5
1BD
  8
0
  6
CONTINUOUS
 62
     7
 10
41.401478450072076
 20
70.424058293650631
 30
0.0
 40
0.4000000000000174
 50
233.1423515846582
 51
330.00000000000392
  0
ARC
  5
1BE
  8
0
  6
CONTINUOUS
 62
     7
 10
109.1109054485422
 20
69.530624493399685
 30
0.0
 40
0.5
 50
72.518105319491866
 51
180.0000000047323
  0
LINE
  5
1BF
  8
0
  6
CONTINUOUS
 62
     7
 10
113.0739222854985
 20
75.984917604552095
 30
0.0
 11
112.6701214744885
 21
75.285514083745426
 31
0.0
  0
LINE
  5
1C0
  8
0
  6
CONTINUOUS
 62
     7
 10
112.6701214744885
 20
70.923461814457298
 30
0.0
 11
113.0739222854985
 21
70.224058293650614
 31
0.0
  0
ARC
  5
1C1
  8
0
  6
CONTINUOUS
 62
     7
 10
45.710905448542171
 20
69.530624493399685
 30
0.0
 40
0.5
 50
359.99999999526767
 51
107.4818946805115
  0
LINE
  5
1C2
  8
0
  6
CONTINUOUS
 62
     7
 10
102.9109054485422
 20
65.10448794910134
 30
0.0
 11
113.4109054485421
 21
65.10448794910134
 31
0.0
  0
ARC
  5
1C3
  8
0
  6
CONTINUOUS
 62
     7
 10
71.910905448542167
 20
69.604487949101625
 30
0.0
 40
2.5000000000000142
 50
180.0
 51
270.0
  0
ARC
  5
1C4
  8
0
  6
CONTINUOUS
 62
     7
 10
82.910905448542195
 20
69.604487949101625
 30
0.0
 40
2.5000000000000142
 50
270.0
 51
0.0
  0
LINE
  5
1C5
  8
0
  6
CONTINUOUS
 62
     7
 10
85.410905448542195
 20
70.41611244077869
 30
0.0
 11
85.410905448542195
 21
69.604487949101625
 31
0.0
  0
ARC
  5
1C6
  8
0
  6
CONTINUOUS
 62
     7
 10
45.016531636002242
 20
75.085514083745281
 30
0.0
 40
0.4000000000000103
 50
150.00000000000529
 51
230.97515462902649
  0
ARC
  5
1C7
  8
0
  6
CONTINUOUS
 62
     7
 10
113.4203324470123
 20
70.424058293650631
 30
0.0
 40
0.4000000000000121
 50
209.99999999999901
 51
306.85764841534183
  0
ARC
  5
1C8
  8
0
  6
CONTINUOUS
 62
     7
 10
113.4203324470123
 20
75.784917604552064
 30
0.0
 40
0.4000000000000192
 50
53.142351584658691
 51
150.0000000000002
  0
ARC
  5
1C9
  8
0
  6
CONTINUOUS
 62
     7
 10
109.4014784500722
 20
75.784917604552064
 30
0.0
 40
0.4000000000000438
 50
29.99999999999973
 51
126.8576484153499
  0
LINE
  5
1CA
  8
0
  6
CONTINUOUS
 62
     7
 10
109.7276795812013
 20
70.189055226252691
 30
0.0
 11
110.15168942259589
 21
70.923461814457426
 31
0.0
  0
ARC
  5
1CB
  8
0
  6
CONTINUOUS
 62
     7
 10
109.3812694196875
 20
70.38905522625268
 30
0.0
 40
0.4000000000000225
 50
252.51810531948169
 51
330.00000000000171
  0
LINE
  5
1CC
  8
0
  6
CONTINUOUS
 62
     7
 10
110.15168942259589
 20
75.285514083745255
 30
0.0
 11
109.74788861158601
 21
75.984917604552095
 31
0.0
  0
ARC
  5
1CD
  8
0
  6
CONTINUOUS
 62
     7
 10
47.102250790222449
 20
56.495151101762332
 30
0.0
 40
26.999999999999989
 50
37.247495200978591
 51
53.511466503678122
  0
LINE
  5
1CE
  8
0
  6
CONTINUOUS
 62
     7
 10
113.4109054485421
 20
81.104487949101355
 30
0.0
 11
41.410905448542167
 21
81.104487949101355
 31
0.0
  0
ARC
  5
1CF
  8
0
  6
CONTINUOUS
 62
     7
 10
113.4109054485421
 20
69.10448794910134
 30
0.0
 40
4.0
 50
270.0
 51
0.0
  0
ARC
  5
1D0
  8
0
  6
CONTINUOUS
 62
     7
 10
63.455453050663209
 20
78.604487949101653
 30
0.0
 40
0.5000000000000223
 50
90.0
 51
233.51146650366951
  0
ARC
  5
1D1
  8
0
  6
CONTINUOUS
 62
     7
 10
91.366357846421181
 20
78.604487949101653
 30
0.0
 40
0.5000000000000142
 50
306.48853349632998
 51
90.0
  0
LINE
  5
1D2
  8
0
  6
CONTINUOUS
 62
     7
 10
117.4109054485422
 20
69.10448794910134
 30
0.0
 11
117.4109054485422
 21
77.104487949101355
 31
0.0
  0
ARC
  5
1D3
  8
0
  6
CONTINUOUS
 62
     7
 10
43.410905448542167
 20
73.104487949101355
 30
0.0
 40
2.1499999999999799
 50
309.02484537097109
 51
50.975154629028829
  0
ARC
  5
1D4
  8
0
  6
CONTINUOUS
 62
     7
 10
107.71956010686191
 20
56.495151101762318
 30
0.0
 40
26.999999999999979
 50
126.4885334963223
 51
142.75250479902201
  0
ARC
  5
1D5
  8
0
  6
CONTINUOUS
 62
     7
 10
41.805279261082141
 20
75.08551408374538
 30
0.0
 40
0.3999999999999903
 50
309.02484537097109
 51
30.000000000009958
  0
ARC
  5
1D6
  8
0
  6
CONTINUOUS
 62
     7
 10
45.016531636002242
 20
71.123461814457414
 30
0.0
 40
0.4000000000000174
 50
129.02484537097521
 51
209.99999999999611
  0
LINE
  5
1D7
  8
0
  6
CONTINUOUS
 62
     7
 10
44.670121474488496
 20
70.923461814457426
 30
0.0
 11
45.094131315883089
 21
70.189055226252691
 31
0.0
  0
ARC
  5
1D8
  8
0
  6
CONTINUOUS
 62
     7
 10
45.440541477396877
 20
70.38905522625268
 30
0.0
 40
0.4000000000000174
 50
209.99999999999611
 51
287.48189468051493
  0
ARC
  5
1D9
  8
0
  6
CONTINUOUS
 62
     7
 10
41.401478450072076
 20
75.784917604552064
 30
0.0
 40
0.4000000000000316
 50
30.000000000001251
 51
126.8576484153418
  0
ARC
  5
1DA
  8
0
  6
CONTINUOUS
 62
     7
 10
45.420332447012179
 20
75.784917604552064
 30
0.0
 40
0.400000000000021
 50
53.142351584650058
 51
149.99999999999801
  0
ARC
  5
1DB
  8
0
  6
CONTINUOUS
 62
     7
 10
113.4109054485421
 20
77.104487949101355
 30
0.0
 40
4.0
 50
0.0
 51
90.0
  0
ARC
  5
1DC
  8
0
  6
CONTINUOUS
 62
     7
 10
65.410905448542195
 20
70.41611244077869
 30
0.0
 40
3.9999999999999911
 50
0.0
 51
37.247495200978591
  0
LINE
  5
1DD
  8
0
  6
CONTINUOUS
 62
     7
 10
45.073922285498377
 20
75.984917604552095
 30
0.0
 11
44.670121474488496
 21
75.285514083745255
 31
0.0
  0
ARC
  5
1DE
  8
0
  6
CONTINUOUS
 62
     7
 10
109.80527926108211
 20
71.123461814457414
 30
0.0
 40
0.400000000000005
 50
330.00000000000171
 51
50.975154629028829
  0
LINE
  5
1DF
  8
0
  6
CONTINUOUS
 62
     7
 10
69.410905448542167
 20
69.604487949101625
 30
0.0
 11
69.410905448542167
 21
70.41611244077869
 31
0.0
  0
ARC
  5
1E0
  8
0
  6
CONTINUOUS
 62
     7
 10
111.4109054485421
 20
73.104487949101355
 30
0.0
 40
2.150000000000027
 50
309.0248453709707
 51
50.975154629030598
  0
ARC
  5
1E1
  8
0
  6
CONTINUOUS
 62
     7
 10
89.410905448542167
 20
70.41611244077869
 30
0.0
 40
3.9999999999999911
 50
142.75250479902201
 51
180.0
  0
LINE
  5
1E2
  8
0
  6
CONTINUOUS
 62
     7
 10
62.382478323795283
 20
76.182915073847866
 30
0.0
 11
66.825119010914989
 21
71.740274386727052
 31
0.0
  0
ARC
  5
1E3
  8
0
  6
CONTINUOUS
 62
     7
 10
113.0165316360022
 20
71.123461814457329
 30
0.0
 40
0.4000000000000103
 50
129.024845370973
 51
210.0000000000056
  0
ARC
  5
1E4
  8
0
  6
CONTINUOUS
 62
     7
 10
41.410905448542167
 20
77.104487949101355
 30
0.0
 40
4.0
 50
90.0
 51
180.0
  0
LINE
  5
1E5
  8
0
  6
CONTINUOUS
 62
     7
 10
42.15168942259583
 20
75.285514083745426
 30
0.0
 11
41.747888611585893
 21
75.984917604552095
 31
0.0
  0
ARC
  5
1E6
  8
0
  6
CONTINUOUS
 62
     7
 10
41.805279261082141
 20
71.123461814457329
 30
0.0
 40
0.4000000000000014
 50
329.99999999999147
 51
50.975154629031067
  0
LINE
  5
1E7
  8
0
  6
CONTINUOUS
 62
     7
 10
82.910905448542195
 20
67.10448794910161
 30
0.0
 11
71.910905448542167
 21
67.10448794910161
 31
0.0
  0
ARC
  5
1E8
  8
0
  6
CONTINUOUS
 62
     7
 10
111.4109054485421
 20
73.104487949101355
 30
0.0
 40
2.1499999999999888
 50
129.0248453709734
 51
230.97515462902879
  0
LINE
  5
1E9
  8
0
  6
CONTINUOUS
 62
     7
 10
37.410905448542167
 20
77.104487949101355
 30
0.0
 11
37.410905448542167
 21
69.10448794910134
 31
0.0
  0
LINE
  5
1EA
  8
0
  6
CONTINUOUS
 62
     7
 10
41.747888611585893
 20
70.224058293650643
 30
0.0
 11
42.15168942259583
 21
70.923461814457298
 31
0.0
  0
ARC
  5
1EB
  8
0
  6
CONTINUOUS
 62
     7
 10
43.410905448542167
 20
73.104487949101355
 30
0.0
 40
2.150000000000035
 50
129.02484537097109
 51
230.97515462902939
  0
ARC
  5
1EC
  8
0
  6
CONTINUOUS
 62
     7
 10
109.80527926108211
 20
75.085514083745281
 30
0.0
 40
0.3999999999999979
 50
309.02484537097109
 51
29.999999999996781
  0
ARC
  5
1ED
  8
0
  6
CONTINUOUS
 62
     7
 10
41.410905448542167
 20
69.10448794910134
 30
0.0
 40
4.0
 50
180.0
 51
270.0
  0
ARC
  5
1EE
  8
0
  6
CONTINUOUS
 62
     7
 10
111.4109054485421
 20
73.104487949101355
 30
0.0
 40
3.7500000000000728
 50
126.8576484153518
 51
167.84140388724319
  0
ARC
  5
1EF
  8
0
  6
CONTINUOUS
 62
     7
 10
107.2562399628048
 20
73.999616264831445
 30
0.0
 40
0.5000000000000562
 50
221.09118406219699
 51
347.84140388723688
  0
ARC
  5
1F0
  8
0
  6
CONTINUOUS
 62
     7
 10
87.133396962925531
 20
56.450793238707547
 30
0.0
 40
26.200000000000092
 50
41.091184062202252
 51
55.639569917015663
  0
ARC
  5
1F1
  8
0
  6
CONTINUOUS
 62
     7
 10
102.4849960279232
 20
78.904487949101352
 30
0.0
 40
1.0
 50
90.0
 51
235.63956991701571
  0
LINE
  5
1F2
  8
0
  6
CONTINUOUS
 62
     7
 10
113.4109054485421
 20
79.904487949101352
 30
0.0
 11
102.4849960279232
 21
79.904487949101352
 31
0.0
  0
ARC
  5
1F3
  8
0
  6
CONTINUOUS
 62
     7
 10
113.4109054485421
 20
77.104487949101355
 30
0.0
 40
2.7999999999999972
 50
359.99999999915491
 51
90.0
  0
LINE
  5
1F4
  8
0
  6
CONTINUOUS
 62
     7
 10
116.21090544854221
 20
74.204487949101349
 30
0.0
 11
116.21090544854221
 21
77.104487949101355
 31
0.0
  0
ARC
  5
1F5
  8
0
  6
CONTINUOUS
 62
     7
 10
115.71090544854221
 20
74.204487949101349
 30
0.0
 40
0.5
 50
270.0
 51
359.99999999526767
  0
LINE
  5
1F6
  8
0
  6
CONTINUOUS
 62
     7
 10
115.5160851035634
 20
73.704487949101349
 30
0.0
 11
115.71090544854221
 21
73.704487949101349
 31
0.0
  0
ARC
  5
1F7
  8
0
  6
CONTINUOUS
 62
     7
 10
115.5160851035634
 20
74.204487949101349
 30
0.0
 40
0.5000000000000718
 50
195.00026599573559
 51
270.0
  0
ARC
  5
1F8
  8
0
  6
CONTINUOUS
 62
     7
 10
111.4109054485421
 20
73.104487949101355
 30
0.0
 40
3.749999999999988
 50
15.000265995739539
 51
53.142351584650058
  0
ARC
  5
1F9
  8
0
  6
CONTINUOUS
 62
     7
 10
113.0165316360022
 20
75.08551408374538
 30
0.0
 40
0.3999999999999992
 50
149.99999999999369
 51
230.975154629027
  0
ARC
  5
1FA
  8
0
  6
CONTINUOUS
 62
     7
 10
111.4109054485421
 20
73.104487949101355
 30
0.0
 40
3.7500000000000102
 50
306.8576484153499
 51
344.9997340042612
  0
ARC
  5
1FB
  8
0
  6
CONTINUOUS
 62
     7
 10
115.5160851035634
 20
72.004487949101346
 30
0.0
 40
0.5000000000000754
 50
90.0
 51
164.99973400426359
  0
LINE
  5
1FC
  8
0
  6
CONTINUOUS
 62
     7
 10
115.71090544854221
 20
72.504487949101346
 30
0.0
 11
115.5160851035634
 21
72.504487949101346
 31
0.0
  0
ARC
  5
1FD
  8
0
  6
CONTINUOUS
 62
     7
 10
115.71090544854221
 20
72.004487949101346
 30
0.0
 40
0.5
 50
359.99999999526767
 51
90.0
  0
LINE
  5
1FE
  8
0
  6
CONTINUOUS
 62
     7
 10
116.21090544854221
 20
69.054487949101343
 30
0.0
 11
116.21090544854221
 21
72.004487949101346
 31
0.0
  0
ARC
  5
1FF
  8
0
  6
CONTINUOUS
 62
     7
 10
113.46090544854211
 20
69.054487949101343
 30
0.0
 40
2.7500000000000142
 50
270.0
 51
359.99999999913939
  0
LINE
  5
200
  8
0
  6
CONTINUOUS
 62
     7
 10
109.1109054485422
 20
66.304487949101343
 30
0.0
 11
113.46090544854211
 21
66.304487949101343
 31
0.0
  0
ARC
  5
201
  8
0
  6
CONTINUOUS
 62
     7
 10
109.1109054485422
 20
66.804487949101343
 30
0.0
 40
0.5
 50
180.0000000047323
 51
270.0
  0
LINE
  5
202
  8
0
  6
CONTINUOUS
 62
     7
 10
108.6109054485422
 20
69.530624493399685
 30
0.0
 11
108.6109054485422
 21
66.804487949101343
 31
0.0
  0
LINE
  5
203
  8
0
  6
CONTINUOUS
 62
     7
 10
46.210905448542178
 20
66.804487949101343
 30
0.0
 11
46.210905448542178
 21
69.530624493399685
 31
0.0
  0
ARC
  5
204
  8
0
  6
CONTINUOUS
 62
     7
 10
45.710905448542171
 20
66.804487949101343
 30
0.0
 40
0.5
 50
270.0
 51
359.99999999526767
  0
LINE
  5
205
  8
0
  6
CONTINUOUS
 62
     7
 10
41.360905448542212
 20
66.304487949101343
 30
0.0
 11
45.710905448542171
 21
66.304487949101343
 31
0.0
  0
ARC
  5
206
  8
0
  6
CONTINUOUS
 62
     7
 10
41.360905448542212
 20
69.054487949101343
 30
0.0
 40
2.7500000000000142
 50
180.00000000086061
 51
270.0
  0
LINE
  5
207
  8
0
  6
CONTINUOUS
 62
     7
 10
38.610905448542212
 20
72.004487949101346
 30
0.0
 11
38.610905448542212
 21
69.054487949101343
 31
0.0
  0
ARC
  5
208
  8
0
  6
CONTINUOUS
 62
     7
 10
39.110905448542212
 20
72.004487949101346
 30
0.0
 40
0.5
 50
90.0
 51
180.0000000047323
  0
LINE
  5
209
  8
0
  6
CONTINUOUS
 62
     7
 10
39.305725793520992
 20
72.504487949101346
 30
0.0
 11
39.110905448542212
 21
72.504487949101346
 31
0.0
  0
ARC
  5
20A
  8
0
  6
CONTINUOUS
 62
     7
 10
39.305725793520992
 20
72.004487949101346
 30
0.0
 40
0.5000000000000754
 50
15.000265995737941
 51
90.0
  0
ARC
  5
20B
  8
0
  6
CONTINUOUS
 62
     7
 10
43.410905448542167
 20
73.104487949101355
 30
0.0
 40
3.7500000000000191
 50
195.00026599573869
 51
233.1423515846501
  0
ARC
  5
20C
  8
0
  6
CONTINUOUS
 62
     7
 10
43.410905448542167
 20
73.104487949101355
 30
0.0
 40
3.749999999999996
 50
126.8576484153518
 51
164.999734004262
  0
ARC
  5
20D
  8
0
  6
CONTINUOUS
 62
     7
 10
39.305725793520992
 20
74.204487949101349
 30
0.0
 40
0.5000000000000718
 50
270.0
 51
344.99973400426438
  0
LINE
  5
20E
  8
0
  6
CONTINUOUS
 62
     7
 10
39.110905448542212
 20
73.704487949101349
 30
0.0
 11
39.305725793520992
 21
73.704487949101349
 31
0.0
  0
ARC
  5
20F
  8
0
  6
CONTINUOUS
 62
     7
 10
39.110905448542212
 20
74.204487949101349
 30
0.0
 40
0.5
 50
180.0000000047323
 51
270.0
  0
LINE
  5
210
  8
0
  6
CONTINUOUS
 62
     7
 10
38.610905448542212
 20
77.104487949101355
 30
0.0
 11
38.610905448542212
 21
74.204487949101349
 31
0.0
  0
ARC
  5
211
  8
0
  6
CONTINUOUS
 62
     7
 10
41.410905448542167
 20
77.104487949101355
 30
0.0
 40
2.8000000000000109
 50
90.0
 51
180.00000000084509
  0
LINE
  5
212
  8
0
  6
CONTINUOUS
 62
     7
 10
52.336814869161167
 20
79.904487949101352
 30
0.0
 11
41.410905448542167
 21
79.904487949101352
 31
0.0
  0
ARC
  5
213
  8
0
  6
CONTINUOUS
 62
     7
 10
52.336814869161167
 20
78.904487949101352
 30
0.0
 40
1.0
 50
304.36043008298429
 51
90.0
  0
ARC
  5
214
  8
0
  6
CONTINUOUS
 62
     7
 10
67.688413934158831
 20
56.450793238707547
 30
0.0
 40
26.200000000000092
 50
124.360430082986
 51
138.90881593779841
  0
ARC
  5
215
  8
0
  6
CONTINUOUS
 62
     7
 10
47.565570934279663
 20
73.999616264831459
 30
0.0
 40
0.4999999999999746
 50
192.15859611276139
 51
318.90881593779312
  0
ARC
  5
216
  8
0
  6
CONTINUOUS
 62
     7
 10
43.410905448542167
 20
73.104487949101355
 30
0.0
 40
3.7500000000000449
 50
12.15859611275831
 51
53.142351584650058
  0
LINE
  5
217
  8
0
  6
CONTINUOUS
 62
     7
 10
41.410905448542167
 20
65.10448794910134
 30
0.0
 11
51.910905448542159
 21
65.10448794910134
 31
0.0
  0
ARC
  5
218
  8
0
  6
CONTINUOUS
 62
     7
 10
51.910905448542159
 20
66.60448794910134
 30
0.0
 40
1.5
 50
270.0
 51
0.0
  0
LINE
  5
219
  8
0
  6
CONTINUOUS
 62
     7
 10
53.410905448542167
 20
66.60448794910134
 30
0.0
 11
53.410905448542167
 21
68.60448794910134
 31
0.0
  0
ARC
  5
21A
  8
0
  6
CONTINUOUS
 62
     7
 10
52.410905448542159
 20
68.60448794910134
 30
0.0
 40
1.0
 50
0.0
 51
90.0
  0
LINE
  5
21B
  8
0
  6
CONTINUOUS
 62
     7
 10
52.410905448542159
 20
69.60448794910134
 30
0.0
 11
50.910905448542167
 21
69.604487949167407
 31
0.0
  0
ARC
  5
21C
  8
0
  6
CONTINUOUS
 62
     7
 10
50.910905448542167
 20
69.104487949101397
 30
0.0
 40
0.5000000000660095
 50
90.0
 51
180.0
  0
LINE
  5
21D
  8
0
  6
CONTINUOUS
 62
     7
 10
50.410905448542167
 20
69.104487949101397
 30
0.0
 11
50.410905448542167
 21
67.60448794910134
 31
0.0
  0
ARC
  5
21E
  8
0
  6
CONTINUOUS
 62
     7
 10
49.910905448542159
 20
67.60448794910134
 30
0.0
 40
0.5
 50
270.0
 51
0.0
  0
ARC
  5
21F
  8
0
  6
CONTINUOUS
 62
     7
 10
49.910905448542159
 20
69.604487949100147
 30
0.0
 40
2.5
 50
180.0
 51
270.0
  0
LINE
  5
220
  8
0
  6
CONTINUOUS
 62
     7
 10
47.410905448542159
 20
69.604487949100147
 30
0.0
 11
47.410905448542159
 21
70.326060824353959
 31
0.0
  0
ARC
  5
221
  8
0
  6
CONTINUOUS
 62
     7
 10
49.410905448542159
 20
70.326060824353974
 30
0.0
 40
2.0
 50
134.99999999999531
 51
180.0
  0
LINE
  5
222
  8
0
  6
CONTINUOUS
 62
     7
 10
47.996691886169401
 20
71.740274386727066
 30
0.0
 11
52.439332573289107
 21
76.182915073847866
 31
0.0
  0
ARC
  5
223
  8
0
  6
CONTINUOUS
 62
     7
 10
55.26775969803532
 20
73.354487949101667
 30
0.0
 40
4.0000000000000124
 50
89.999999999996703
 51
135.00000000000051
  0
LINE
  5
224
  8
0
  6
CONTINUOUS
 62
     7
 10
55.267759698035597
 20
77.354487949101653
 30
0.0
 11
59.554051199048779
 21
77.354487949166952
 31
0.0
  0
ARC
  5
225
  8
0
  6
CONTINUOUS
 62
     7
 10
65.410905448542195
 20
70.326060824354983
 30
0.0
 40
2.0
 50
0.0
 51
44.999999999986173
  0
LINE
  5
226
  8
0
  6
CONTINUOUS
 62
     7
 10
67.410905448542195
 20
70.326060824354983
 30
0.0
 11
67.410905448542195
 21
69.604487949101184
 31
0.0
  0
ARC
  5
227
  8
0
  6
CONTINUOUS
 62
     7
 10
64.910905448542195
 20
69.604487949101213
 30
0.0
 40
2.5000000000000169
 50
269.99998902682449
 51
359.9999999999992
  0
ARC
  5
228
  8
0
  6
CONTINUOUS
 62
     7
 10
64.910905065506185
 20
67.604487949100516
 30
0.0
 40
0.5
 50
180.0
 51
269.99998902681642
  0
LINE
  5
229
  8
0
  6
CONTINUOUS
 62
     7
 10
64.410905065506199
 20
67.604487949100516
 30
0.0
 11
64.410905065506199
 21
69.10448794910134
 31
0.0
  0
ARC
  5
22A
  8
0
  6
CONTINUOUS
 62
     7
 10
63.910905065506199
 20
69.10448794910134
 30
0.0
 40
0.5
 50
0.0
 51
90.0
  0
LINE
  5
22B
  8
0
  6
CONTINUOUS
 62
     7
 10
63.910905065506199
 20
69.60448794910134
 30
0.0
 11
62.41090506550529
 21
69.604487949167407
 31
0.0
  0
ARC
  5
22C
  8
0
  6
CONTINUOUS
 62
     7
 10
62.41090506550529
 20
68.60448794910134
 30
0.0
 40
1.000000000066066
 50
90.0
 51
180.0
  0
LINE
  5
22D
  8
0
  6
CONTINUOUS
 62
     7
 10
61.41090506550529
 20
68.60448794910134
 30
0.0
 11
61.410905065505403
 21
66.60448794910134
 31
0.0
  0
ARC
  5
22E
  8
0
  6
CONTINUOUS
 62
     7
 10
62.910905065505403
 20
66.60448794910134
 30
0.0
 40
1.500000000000048
 50
180.0
 51
270.00001463092769
  0
LINE
  5
22F
  8
0
  6
CONTINUOUS
 62
     7
 10
62.910905448542202
 20
65.10448794910134
 30
0.0
 11
91.910905448542167
 21
65.10448794910134
 31
0.0
  0
ARC
  5
230
  8
0
  6
CONTINUOUS
 62
     7
 10
91.910905831578987
 20
66.60448794910134
 30
0.0
 40
1.500000000000048
 50
269.99998536907231
 51
0.0
  0
LINE
  5
231
  8
0
  6
CONTINUOUS
 62
     7
 10
93.410905831578987
 20
66.60448794910134
 30
0.0
 11
93.410905831578987
 21
68.60448794910134
 31
0.0
  0
ARC
  5
232
  8
0
  6
CONTINUOUS
 62
     7
 10
92.410905831579115
 20
68.60448794910134
 30
0.0
 40
1.0
 50
0.0
 51
90.0
  0
LINE
  5
233
  8
0
  6
CONTINUOUS
 62
     7
 10
92.410905831579115
 20
69.60448794910134
 30
0.0
 11
90.910905831578205
 21
69.604487949167407
 31
0.0
  0
ARC
  5
234
  8
0
  6
CONTINUOUS
 62
     7
 10
90.910905831578205
 20
69.10448794910134
 30
0.0
 40
0.5000000000660663
 50
90.0
 51
180.0
  0
LINE
  5
235
  8
0
  6
CONTINUOUS
 62
     7
 10
90.410905831578191
 20
69.10448794910134
 30
0.0
 11
90.410905831578191
 21
67.604487949100516
 31
0.0
  0
ARC
  5
236
  8
0
  6
CONTINUOUS
 62
     7
 10
89.910905831578177
 20
67.604487949100516
 30
0.0
 40
0.5
 50
270.00001097318358
 51
0.0
  0
ARC
  5
237
  8
0
  6
CONTINUOUS
 62
     7
 10
89.910905448542167
 20
69.604487949101213
 30
0.0
 40
2.500000000000727
 50
180.0
 51
270.00001097317539
  0
LINE
  5
238
  8
0
  6
CONTINUOUS
 62
     7
 10
87.410905448542167
 20
69.604487949101198
 30
0.0
 11
87.410905448542167
 21
70.326060824354983
 31
0.0
  0
ARC
  5
239
  8
0
  6
CONTINUOUS
 62
     7
 10
89.410905448542167
 20
70.326060824354983
 30
0.0
 40
2.0
 50
135.0000000000143
 51
180.0
  0
LINE
  5
23A
  8
0
  6
CONTINUOUS
 62
     7
 10
87.996691886168776
 20
71.740274386727705
 30
0.0
 11
92.439332573289093
 21
76.182915073847866
 31
0.0
  0
ARC
  5
23B
  8
0
  6
CONTINUOUS
 62
     7
 10
95.267759698035277
 20
73.354487949101681
 30
0.0
 40
4.0000000000000009
 50
89.999999999996703
 51
135.00000000000051
  0
LINE
  5
23C
  8
0
  6
CONTINUOUS
 62
     7
 10
95.267759698035604
 20
77.354487949101681
 30
0.0
 11
99.554051199048786
 21
77.354487949166952
 31
0.0
  0
ARC
  5
23D
  8
0
  6
CONTINUOUS
 62
     7
 10
99.554051199049084
 20
73.354487949101667
 30
0.0
 40
4.0000000000652838
 50
45.0
 51
90.000000000004874
  0
LINE
  5
23E
  8
0
  6
CONTINUOUS
 62
     7
 10
102.3824783237953
 20
76.182915073847852
 30
0.0
 11
106.825119010915
 21
71.740274386727066
 31
0.0
  0
ARC
  5
23F
  8
0
  6
CONTINUOUS
 62
     7
 10
105.4109054485421
 20
70.326060824353974
 30
0.0
 40
2.0
 50
359.9999999999992
 51
45.000000000006388
  0
LINE
  5
240
  8
0
  6
CONTINUOUS
 62
     7
 10
107.4109054485421
 20
70.326060824353959
 30
0.0
 11
107.4109054485421
 21
69.604487949100147
 31
0.0
  0
ARC
  5
241
  8
0
  6
CONTINUOUS
 62
     7
 10
104.9109054485421
 20
69.604487949100147
 30
0.0
 40
2.5
 50
270.0
 51
0.0
  0
ARC
  5
242
  8
0
  6
CONTINUOUS
 62
     7
 10
104.9109054485421
 20
67.60448794910134
 30
0.0
 40
0.5000000000011795
 50
180.0
 51
270.0
  0
LINE
  5
243
  8
0
  6
CONTINUOUS
 62
     7
 10
104.4109054485421
 20
67.60448794910134
 30
0.0
 11
104.4109054485421
 21
69.104487949101397
 31
0.0
  0
ARC
  5
244
  8
0
  6
CONTINUOUS
 62
     7
 10
103.9109054485422
 20
69.104487949101397
 30
0.0
 40
0.5
 50
0.0
 51
90.0
  0
LINE
  5
245
  8
0
  6
CONTINUOUS
 62
     7
 10
103.9109054485422
 20
69.604487949101383
 30
0.0
 11
102.4109054485413
 21
69.604487949167407
 31
0.0
  0
ARC
  5
246
  8
0
  6
CONTINUOUS
 62
     7
 10
102.4109054485421
 20
68.60448794910134
 30
0.0
 40
1.000000000066066
 50
90.00000000004556
 51
180.0
  0
LINE
  5
247
  8
0
  6
CONTINUOUS
 62
     7
 10
101.4109054485421
 20
68.60448794910134
 30
0.0
 11
101.4109054485421
 21
66.60448794910134
 31
0.0
  0
ARC
  5
248
  8
0
  6
CONTINUOUS
 62
     7
 10
102.9109054485422
 20
66.60448794910134
 30
0.0
 40
1.5
 50
180.0
 51
270.0
  0
LINE
  5
249
  8
1
 10
57.41016394854222
 20
83.604487949101355
 30
0.0
 11
57.41016394854222
 21
62.604487949101362
 31
0.0
  0
LINE
  5
24A
  8
1
 10
97.411646948542113
 20
83.604487949101355
 30
0.0
 11
97.411646948542113
 21
62.604487949101362
 31
0.0
  0
TEXT
  5
396
  8
0
 62
     3
 10
0.0
 20
0.0
 30
0.0
 40
10.0
  1
SPE8016N-3M
  7
STANDARD1
  0
ENDSEC
  0
EOF
