  0
SECTION
  2
HEADER
  9
$ACADVER
  1
AC1009
  9
$INSBASE
 10
0.0
 20
0.0
 30
0.0
  9
$EXTMIN
 10
0.0
 20
-2.960436562073669
 30
0.0
  9
$EXTMAX
 10
322.85218500005112
 20
241.14532210185669
 30
0.0
  9
$LIMMIN
 10
0.0
 20
0.0
  9
$LIMMAX
 10
375.0
 20
270.0
  9
$ORTHOMODE
 70
     1
  9
$REGENMODE
 70
     1
  9
$FILLMODE
 70
     1
  9
$QTEXTMODE
 70
     0
  9
$MIRRTEXT
 70
     0
  9
$DRAGMODE
 70
     2
  9
$LTSCALE
 40
5.0
  9
$OSMODE
 70
    55
  9
$ATTMODE
 70
     1
  9
$TEXTSIZE
 40
4.000000000000048
  9
$TRACEWID
 40
0.05
  9
$TEXTSTYLE
  7
STANDARD
  9
$CLAYER
  8
0
  9
$CELTYPE
  6
BYLAYER
  9
$CECOLOR
 62
   256
  9
$DIMSCALE
 40
0.5
  9
$DIMASZ
 40
3.0
  9
$DIMEXO
 40
2.0
  9
$DIMDLI
 40
0.38
  9
$DIMRND
 40
0.0
  9
$DIMDLE
 40
0.0
  9
$DIMEXE
 40
2.0
  9
$DIMTP
 40
0.0
  9
$DIMTM
 40
0.0
  9
$DIMTXT
 40
3.2000000000000002
  9
$DIMCEN
 40
0.0
  9
$DIMTSZ
 40
0.0
  9
$DIMTOL
 70
     0
  9
$DIMLIM
 70
     0
  9
$DIMTIH
 70
     0
  9
$DIMTOH
 70
     0
  9
$DIMSE1
 70
     0
  9
$DIMSE2
 70
     0
  9
$DIMTAD
 70
     1
  9
$DIMZIN
 70
     0
  9
$DIMBLK
  1

  9
$DIMASO
 70
     0
  9
$DIMSHO
 70
     0
  9
$DIMPOST
  1

  9
$DIMAPOST
  1

  9
$DIMALT
 70
     0
  9
$DIMALTD
 70
     2
  9
$DIMALTF
 40
25.399999999999999
  9
$DIMLFAC
 40
1.0
  9
$DIMTOFL
 70
     0
  9
$DIMTVP
 40
1.6000000000000001
  9
$DIMTIX
 70
     1
  9
$DIMSOXD
 70
     0
  9
$DIMSAH
 70
     0
  9
$DIMBLK1
  1

  9
$DIMBLK2
  1

  9
$DIMSTYLE
  2
STANDARD
  9
$DIMCLRD
 70
     4
  9
$DIMCLRE
 70
     4
  9
$DIMCLRT
 70
     4
  9
$DIMTFAC
 40
1.0
  9
$DIMGAP
 40
0.09
  9
$LUNITS
 70
     2
  9
$LUPREC
 70
     1
  9
$SKETCHINC
 40
0.1
  9
$FILLETRAD
 40
0.0
  9
$AUNITS
 70
     0
  9
$AUPREC
 70
     0
  9
$MENU
  1
E:\r13\win\SUPPORT\ACAD
  9
$ELEVATION
 40
0.0
  9
$PELEVATION
 40
0.0
  9
$THICKNESS
 40
0.0
  9
$LIMCHECK
 70
     0
  9
$BLIPMODE
 70
     0
  9
$CHAMFERA
 40
1.1999999999999991
  9
$CHAMFERB
 40
1.1999999999999991
  9
$SKPOLY
 70
     0
  9
$TDCREATE
 40
2449982.7073263889
  9
$TDUPDATE
 40
2456598.5454503698
  9
$TDINDWG
 40
0.0028413657
  9
$TDUSRTIMER
 40
0.0028413657
  9
$USRTIMER
 70
     1
  9
$ANGBASE
 50
0.0
  9
$ANGDIR
 70
     0
  9
$PDMODE
 70
     0
  9
$PDSIZE
 40
0.0
  9
$PLINEWID
 40
0.0
  9
$COORDS
 70
     1
  9
$SPLFRAME
 70
     0
  9
$SPLINETYPE
 70
     6
  9
$SPLINESEGS
 70
     8
  9
$ATTDIA
 70
     0
  9
$ATTREQ
 70
     1
  9
$HANDLING
 70
     1
  9
$HANDSEED
  5
3BD
  9
$SURFTAB1
 70
     6
  9
$SURFTAB2
 70
     6
  9
$SURFTYPE
 70
     6
  9
$SURFU
 70
     6
  9
$SURFV
 70
     6
  9
$UCSNAME
  2

  9
$UCSORG
 10
0.0
 20
0.0
 30
0.0
  9
$UCSXDIR
 10
1.0
 20
0.0
 30
0.0
  9
$UCSYDIR
 10
0.0
 20
1.0
 30
0.0
  9
$PUCSNAME
  2

  9
$PUCSORG
 10
0.0
 20
0.0
 30
0.0
  9
$PUCSXDIR
 10
1.0
 20
0.0
 30
0.0
  9
$PUCSYDIR
 10
0.0
 20
1.0
 30
0.0
  9
$USERI1
 70
     0
  9
$USERI2
 70
     1
  9
$USERI3
 70
     0
  9
$USERI4
 70
     0
  9
$USERI5
 70
     0
  9
$USERR1
 40
0.0
  9
$USERR2
 40
0.0
  9
$USERR3
 40
0.0
  9
$USERR4
 40
0.0
  9
$USERR5
 40
0.0
  9
$WORLDVIEW
 70
     1
  9
$SHADEDGE
 70
     3
  9
$SHADEDIF
 70
    70
  9
$TILEMODE
 70
     1
  9
$MAXACTVP
 70
    16
  9
$PLIMCHECK
 70
     0
  9
$PEXTMIN
 10
1.0000000000000000E+020
 20
1.0000000000000000E+020
 30
1.0000000000000000E+020
  9
$PEXTMAX
 10
-1.0000000000000000E+020
 20
-1.0000000000000000E+020
 30
-1.0000000000000000E+020
  9
$PLIMMIN
 10
0.0
 20
0.0
  9
$PLIMMAX
 10
12.0
 20
9.0
  9
$UNITMODE
 70
     0
  9
$VISRETAIN
 70
     0
  9
$PLINEGEN
 70
     0
  9
$PSLTSCALE
 70
     0
  0
ENDSEC
  0
SECTION
  2
TABLES
  0
TABLE
  2
VPORT
 70
     1
  0
VPORT
  2
*ACTIVE
 70
     0
 10
0.0
 20
0.0
 11
1.0
 21
1.0
 12
187.49427839065231
 22
174.91677254346851
 13
0.0
 23
0.0
 14
5.0
 24
5.0
 15
5.0
 25
5.0
 16
0.0
 26
0.0
 36
1.0
 17
0.0
 27
0.0
 37
0.0
 40
358.92027899574339
 41
1.7807262569832401
 42
50.0
 43
0.0
 44
0.0
 50
0.0
 51
0.0
 71
     0
 72
   500
 73
     1
 74
     0
 75
     0
 76
     0
 77
     0
 78
     2
  0
ENDTAB
  0
TABLE
  2
LTYPE
 70
     3
  0
LTYPE
  2
CONTINUOUS
 70
     0
  3
Solid Line
 72
    65
 73
     0
 40
0.0
  0
LTYPE
  2
CENTER
 70
     0
  3
____ _ ____ _ ____ _ ____ _ ____ _ ____ _ ____
 72
    65
 73
     4
 40
2.0
 49
1.25
 49
-0.25
 49
0.25
 49
-0.25
  0
LTYPE
  2
PHANTOM2
 70
     0
  3
___ _ _ ___ _ _ ___ _ _ ___ _ _
 72
    65
 73
     6
 40
1.25
 49
0.625
 49
-0.125
 49
0.125
 49
-0.125
 49
0.125
 49
-0.125
  0
ENDTAB
  0
TABLE
  2
LAYER
 70
     6
  0
LAYER
  2
0
 70
     0
 62
     7
  6
CONTINUOUS
  0
LAYER
  2
1
 70
     0
 62
     1
  6
CENTER
  0
LAYER
  2
11
 70
     0
 62
     3
  6
CONTINUOUS
  0
LAYER
  2
ITEM_HILFE
 70
     0
 62
     7
  6
CONTINUOUS
  0
LAYER
  2
4
 70
     0
 62
     4
  6
CONTINUOUS
  0
LAYER
  2
81TEXT
 70
     0
 62
     3
  6
CONTINUOUS
  0
ENDTAB
  0
TABLE
  2
STYLE
 70
     2
  0
STYLE
  2
STANDARD
 70
     0
 40
0.0
 41
1.0
 50
0.0
 71
     0
 42
4.000000000000048
  3
SIMPLEX
  4
BIGFONT
  0
STYLE
  2
STANDARD1
 70
     0
 40
0.0
 41
1.0
 50
0.0
 71
     0
 42
3.0
  3
txt
  4

  0
ENDTAB
  0
TABLE
  2
VIEW
 70
     1
  0
VIEW
  2
ALL
 70
     0
 40
270.0
 10
220.78595317725751
 20
135.0
 41
441.57190635451502
 11
0.0
 21
0.0
 31
1.0
 12
0.0
 22
0.0
 32
0.0
 42
50.0
 43
0.0
 44
0.0
 50
0.0
 71
     0
  0
ENDTAB
  0
TABLE
  2
UCS
 70
     0
  0
ENDTAB
  0
TABLE
  2
APPID
 70
     3
  0
APPID
  2
ACAD
 70
     0
  0
APPID
  2
ACAD_MLEADERVER
 70
     0
  0
APPID
  2
ACAD_NAV_VCDISPLAY
 70
     0
  0
ENDTAB
  0
TABLE
  2
DIMSTYLE
 70
     1
  0
DIMSTYLE
  2
STANDARD
 70
     0
  3

  4

  5

  6

  7

 40
1.0
 41
0.18
 42
0.0625
 43
0.38
 44
0.18
 45
0.0
 46
0.0
 47
0.0
 48
0.0
140
0.18
141
0.09
142
0.0
143
25.399999999999999
144
1.0
145
0.0
146
1.0
147
0.09
 71
     0
 72
     0
 73
     1
 74
     1
 75
     0
 76
     0
 77
     0
 78
     0
170
     0
171
     2
172
     0
173
     0
174
     0
175
     0
176
     0
177
     0
178
     0
  0
ENDTAB
  0
ENDSEC
  0
SECTION
  2
BLOCKS
  0
BLOCK
  8
0
  2
$MODEL_SPACE
 70
     0
 10
0.0
 20
0.0
 30
0.0
  3
$MODEL_SPACE
  1

  0
ENDBLK
  5
274
  8
0
  0
BLOCK
 67
     1
  8
0
  2
$PAPER_SPACE
 70
     0
 10
0.0
 20
0.0
 30
0.0
  3
$PAPER_SPACE
  1

  0
ENDBLK
  5
272
 67
     1
  8
0
  0
BLOCK
  8
0
  2
ACAD
 70
     0
 10
0.0
 20
0.0
 30
0.0
  3
ACAD
  1

  0
ENDBLK
  5
31
  8
0
  0
BLOCK
  8
0
  2
37346B
 70
     0
 10
0.0
 20
0.0
 30
0.0
  3
37346B
  1

  0
ENDBLK
  5
33
  8
0
  0
BLOCK
  8
0
  2
37390B
 70
     0
 10
0.0
 20
0.0
 30
0.0
  3
37390B
  1

  0
ENDBLK
  5
35
  8
0
  0
BLOCK
  8
4
  2
STDGX5
 70
     0
 10
0.0
 20
0.0
 30
0.0
  3
STDGX5
  1

  0
ENDBLK
  5
37
  8
4
  0
ENDSEC
  0
SECTION
  2
ENTITIES
  0
LINE
  5
45
  8
1
 10
109.064074233795
 20
142.7249270633541
 30
0.0
 11
49.064074233795047
 21
142.7249270633541
 31
0.0
  0
LINE
  5
46
  8
0
 10
104.064074233795
 20
162.7249270633541
 30
0.0
 11
54.064074233795047
 21
162.7249270633541
 31
0.0
  0
LINE
  5
47
  8
0
 10
54.064074233795047
 20
122.7249270633541
 30
0.0
 11
104.064074233795
 21
122.7249270633541
 31
0.0
  0
LINE
  5
48
  8
0
 10
104.064074233795
 20
122.7249270633541
 30
0.0
 11
104.064074233795
 21
162.7249270633541
 31
0.0
  0
LINE
  5
49
  8
0
 10
54.064074233795047
 20
122.7249270633541
 30
0.0
 11
54.064074233795047
 21
162.7249270633541
 31
0.0
  0
INSERT
  5
4C
  8
ITEM_HILFE
  2
ACAD
 10
420.47038640269437
 20
52.14760014433341
 30
0.0
  0
INSERT
  5
4D
  8
0
  2
ACAD
 10
617.03158240269443
 20
240.9286191443334
 30
0.0
  0
INSERT
  5
4E
  8
0
  2
37346B
 10
415.86889140269437
 20
-65.540325855666595
 30
0.0
  0
INSERT
  5
4F
  8
0
  2
37390B
 10
415.86889140269437
 20
-65.540325855666595
 30
0.0
  0
INSERT
  5
50
  8
0
  2
37346B
 10
415.86889140269437
 20
-65.540325855666595
 30
0.0
  0
INSERT
  5
51
  8
0
  2
37390B
 10
415.86889140269437
 20
-65.540325855666595
 30
0.0
  0
INSERT
  5
52
  8
0
  2
37346B
 10
434.6535064026944
 20
342.13659714433339
 30
0.0
  0
INSERT
  5
53
  8
0
  2
37390B
 10
434.6535064026944
 20
342.13659714433339
 30
0.0
  0
INSERT
  5
54
  8
0
  2
37346B
 10
434.6535064026944
 20
342.13659714433339
 30
0.0
  0
INSERT
  5
55
  8
0
  2
37390B
 10
434.6535064026944
 20
342.13659714433339
 30
0.0
  0
INSERT
  5
56
  8
0
  2
37390B
 10
929.27323040269437
 20
252.6224901443334
 30
0.0
  0
INSERT
  5
59
  8
4
  2
STDGX5
 10
384.92850274165249
 20
16.70417973026629
 30
0.0
  0
INSERT
  5
65
  8
81TEXT
  6
CONTINUOUS
  2
STDGX5
 10
384.92850274165249
 20
16.70417973026629
 30
0.0
  0
INSERT
  5
66
  8
0
  2
STDGX5
 10
710.74098068548881
 20
31.509951431282509
 30
0.0
  0
INSERT
  5
67
  8
0
  2
STDGX5
 10
710.74098068548881
 20
31.509951431282509
 30
0.0
  0
INSERT
  5
68
  8
0
  2
STDGX5
 10
710.74098068548881
 20
31.509951431282509
 30
0.0
  0
INSERT
  5
6A
  8
4
  6
CONTINUOUS
  2
STDGX5
 10
721.21778172138727
 20
36.129803852823812
 30
0.0
  0
INSERT
  5
6C
  8
81TEXT
  6
CONTINUOUS
  2
STDGX5
 10
384.92850274165249
 20
16.70417973026629
 30
0.0
  0
INSERT
  5
6D
  8
81TEXT
  6
CONTINUOUS
  2
STDGX5
 10
384.92850274165249
 20
16.70417973026629
 30
0.0
  0
INSERT
  5
6E
  8
81TEXT
  6
CONTINUOUS
  2
STDGX5
 10
384.92850274165249
 20
16.70417973026629
 30
0.0
  0
INSERT
  5
71
  8
4
  2
STDGX5
 10
712.84910759001923
 20
37.625714247752263
 30
0.0
  0
INSERT
  5
7D
  8
81TEXT
  6
CONTINUOUS
  2
STDGX5
 10
712.84910759001923
 20
37.625714247752263
 30
0.0
  0
INSERT
  5
7E
  8
0
  2
STDGX5
 10
1038.6615855338559
 20
52.431485948768469
 30
0.0
  0
INSERT
  5
7F
  8
0
  2
STDGX5
 10
1038.6615855338559
 20
52.431485948768469
 30
0.0
  0
INSERT
  5
80
  8
0
  2
STDGX5
 10
1038.6615855338559
 20
52.431485948768469
 30
0.0
  0
INSERT
  5
82
  8
4
  6
CONTINUOUS
  2
STDGX5
 10
1049.1383865697539
 20
57.051338370309779
 30
0.0
  0
INSERT
  5
84
  8
81TEXT
  6
CONTINUOUS
  2
STDGX5
 10
712.84910759001923
 20
37.625714247752263
 30
0.0
  0
INSERT
  5
85
  8
81TEXT
  6
CONTINUOUS
  2
STDGX5
 10
712.84910759001923
 20
37.625714247752263
 30
0.0
  0
INSERT
  5
86
  8
81TEXT
  6
CONTINUOUS
  2
STDGX5
 10
712.84910759001923
 20
37.625714247752263
 30
0.0
  0
INSERT
  5
88
  8
81TEXT
  6
CONTINUOUS
  2
STDGX5
 10
1046.1538348166489
 20
57.782126382280268
 30
0.0
  0
INSERT
  5
89
  8
81TEXT
  6
CONTINUOUS
  2
STDGX5
 10
1046.1538348166489
 20
57.782126382280268
 30
0.0
  0
INSERT
  5
8A
  8
11
  2
STDGX5
 10
1386.2038252538921
 20
60.281984772072569
 30
0.0
  0
INSERT
  5
8B
  8
4
  2
STDGX5
 10
1386.2038252538921
 20
60.281984772072569
 30
0.0
  0
INSERT
  5
8C
  8
11
  2
STDGX5
 10
1413.1629282545489
 20
82.961295769244146
 30
0.0
  0
INSERT
  5
8D
  8
4
  2
STDGX5
 10
1413.1629282545489
 20
82.961295769244146
 30
0.0
  0
INSERT
  5
8F
  8
81TEXT
  6
CONTINUOUS
  2
STDGX5
 10
1385.2378592971941
 20
75.624218674608898
 30
0.0
  0
INSERT
  5
90
  8
81TEXT
  6
CONTINUOUS
  2
STDGX5
 10
1385.2378592971941
 20
75.624218674608898
 30
0.0
  0
INSERT
  5
92
  8
81TEXT
  6
CONTINUOUS
  2
STDGX5
 10
1721.44671146885
 20
85.430273596036415
 30
0.0
  0
INSERT
  5
93
  8
81TEXT
  6
CONTINUOUS
  2
STDGX5
 10
1721.44671146885
 20
85.430273596036415
 30
0.0
  0
INSERT
  5
95
  8
81TEXT
  6
CONTINUOUS
  2
STDGX5
 10
2080.1022373302048
 20
87.925728967705595
 30
0.0
  0
INSERT
  5
96
  8
81TEXT
  6
CONTINUOUS
  2
STDGX5
 10
2080.1022373302048
 20
87.925728967705595
 30
0.0
  0
INSERT
  5
98
  8
81TEXT
  6
CONTINUOUS
  2
STDGX5
 10
1724.5113394498931
 20
91.294003932613009
 30
0.0
  0
INSERT
  5
99
  8
81TEXT
  6
CONTINUOUS
  2
STDGX5
 10
1724.5113394498931
 20
91.294003932613009
 30
0.0
  0
INSERT
  5
9B
  8
81TEXT
  6
CONTINUOUS
  2
STDGX5
 10
2083.1668653112479
 20
93.78945930428219
 30
0.0
  0
INSERT
  5
9C
  8
81TEXT
  6
CONTINUOUS
  2
STDGX5
 10
2083.1668653112479
 20
93.78945930428219
 30
0.0
  0
INSERT
  5
9D
  8
81TEXT
  6
CONTINUOUS
  2
STDGX5
 10
1724.5113394498931
 20
91.294003932613009
 30
0.0
  0
INSERT
  5
9F
  8
81TEXT
  6
CONTINUOUS
  2
STDGX5
 10
1386.2398725933019
 20
73.5208839643891
 30
0.0
  0
INSERT
  5
A0
  8
81TEXT
  6
CONTINUOUS
  2
STDGX5
 10
1386.2398725933019
 20
73.5208839643891
 30
0.0
  0
INSERT
  5
A2
  8
81TEXT
  6
CONTINUOUS
  2
STDGX5
 10
1739.3773341270701
 20
82.173699009793353
 30
0.0
  0
INSERT
  5
A3
  8
81TEXT
  6
CONTINUOUS
  2
STDGX5
 10
1739.3773341270701
 20
82.173699009793353
 30
0.0
  0
INSERT
  5
A5
  8
81TEXT
  6
CONTINUOUS
  2
STDGX5
 10
2098.032859988426
 20
84.669154381462533
 30
0.0
  0
INSERT
  5
A6
  8
81TEXT
  6
CONTINUOUS
  2
STDGX5
 10
2098.032859988426
 20
84.669154381462533
 30
0.0
  0
INSERT
  5
A7
  8
11
  2
STDGX5
 10
1716.471653178512
 20
77.166251802355305
 30
0.0
  0
INSERT
  5
A8
  8
4
  2
STDGX5
 10
1716.471653178512
 20
77.166251802355305
 30
0.0
  0
INSERT
  5
A9
  8
81TEXT
  6
CONTINUOUS
  2
STDGX5
 10
1386.2398725933019
 20
73.5208839643891
 30
0.0
  0
INSERT
  5
AA
  8
81TEXT
  6
CONTINUOUS
  2
STDGX5
 10
1386.2398725933019
 20
73.5208839643891
 30
0.0
  0
INSERT
  5
AC
  8
81TEXT
  6
CONTINUOUS
  2
STDGX5
 10
1389.6037899500971
 20
70.839602042582314
 30
0.0
  0
INSERT
  5
AD
  8
81TEXT
  6
CONTINUOUS
  2
STDGX5
 10
1389.6037899500971
 20
70.839602042582314
 30
0.0
  0
INSERT
  5
AF
  8
81TEXT
  6
CONTINUOUS
  2
STDGX5
 10
1748.2593158114521
 20
73.335057414251509
 30
0.0
  0
INSERT
  5
B0
  8
81TEXT
  6
CONTINUOUS
  2
STDGX5
 10
1748.2593158114521
 20
73.335057414251509
 30
0.0
  0
INSERT
  5
B1
  8
81TEXT
  6
CONTINUOUS
  2
STDGX5
 10
1389.6037899500971
 20
70.839602042582314
 30
0.0
  0
INSERT
  5
B3
  8
81TEXT
  6
CONTINUOUS
  2
STDGX5
 10
1391.365217243341
 20
78.703423163487685
 30
0.0
  0
INSERT
  5
B5
  8
81TEXT
  6
CONTINUOUS
  2
STDGX5
 10
1382.6657869345649
 20
66.228573406750201
 30
0.0
  0
INSERT
  5
B6
  8
81TEXT
  6
CONTINUOUS
  2
STDGX5
 10
1382.6657869345649
 20
66.228573406750201
 30
0.0
  0
INSERT
  5
B8
  8
81TEXT
  6
CONTINUOUS
  2
STDGX5
 10
1718.8746391062209
 20
76.034628328177718
 30
0.0
  0
INSERT
  5
B9
  8
81TEXT
  6
CONTINUOUS
  2
STDGX5
 10
1718.8746391062209
 20
76.034628328177718
 30
0.0
  0
INSERT
  5
BB
  8
81TEXT
  6
CONTINUOUS
  2
STDGX5
 10
2077.5301649675762
 20
78.530083699846884
 30
0.0
  0
INSERT
  5
BC
  8
81TEXT
  6
CONTINUOUS
  2
STDGX5
 10
2077.5301649675762
 20
78.530083699846884
 30
0.0
  0
INSERT
  5
BE
  8
81TEXT
  6
CONTINUOUS
  2
STDGX5
 10
1721.9392670872639
 20
81.898358664754326
 30
0.0
  0
INSERT
  5
BF
  8
81TEXT
  6
CONTINUOUS
  2
STDGX5
 10
1721.9392670872639
 20
81.898358664754326
 30
0.0
  0
INSERT
  5
C1
  8
81TEXT
  6
CONTINUOUS
  2
STDGX5
 10
2080.5947929486192
 20
84.393814036423464
 30
0.0
  0
INSERT
  5
C2
  8
81TEXT
  6
CONTINUOUS
  2
STDGX5
 10
2080.5947929486192
 20
84.393814036423464
 30
0.0
  0
INSERT
  5
C3
  8
81TEXT
  6
CONTINUOUS
  2
STDGX5
 10
1721.9392670872639
 20
81.898358664754326
 30
0.0
  0
INSERT
  5
C4
  8
0
  2
STDGX5
 10
1403.623889955272
 20
96.64072575090438
 30
0.0
 41
0.3
 42
0.3
 43
0.3
  0
INSERT
  5
C5
  8
0
  2
STDGX5
 10
1403.623889955272
 20
96.64072575090438
 30
0.0
 41
0.3
 42
0.3
 43
0.3
  0
INSERT
  5
C6
  8
0
  2
STDGX5
 10
1421.8104234722191
 20
110.14072575090439
 30
0.0
 41
0.3
 42
0.3
 43
0.3
  0
INSERT
  5
C7
  8
0
  2
STDGX5
 10
1590.430890487705
 20
138.49716230098599
 30
0.0
 41
0.3
 42
0.3
 43
0.3
  0
INSERT
  5
C8
  8
0
  2
STDGX5
 10
1558.0593681816069
 20
168.37366658709561
 30
0.0
 41
0.3
 42
0.3
 43
0.3
  0
INSERT
  5
C9
  8
0
  2
STDGX5
 10
1558.0593681816069
 20
168.37366658709561
 30
0.0
 41
0.3
 42
0.3
 43
0.3
  0
INSERT
  5
CB
  8
81TEXT
  6
CONTINUOUS
  2
STDGX5
 10
1034.0023134625001
 20
46.587742588264142
 30
0.0
  0
INSERT
  5
CC
  8
81TEXT
  6
CONTINUOUS
  2
STDGX5
 10
1034.0023134625001
 20
46.587742588264142
 30
0.0
  0
INSERT
  5
CD
  8
11
  2
STDGX5
 10
1374.052303899743
 20
49.087600978056429
 30
0.0
  0
INSERT
  5
CE
  8
4
  2
STDGX5
 10
1374.052303899743
 20
49.087600978056429
 30
0.0
  0
INSERT
  5
CF
  8
11
  2
STDGX5
 10
1401.0114069004001
 20
71.766911975227984
 30
0.0
  0
INSERT
  5
D0
  8
4
  2
STDGX5
 10
1401.0114069004001
 20
71.766911975227984
 30
0.0
  0
INSERT
  5
D2
  8
81TEXT
  6
CONTINUOUS
  2
STDGX5
 10
1373.086337943045
 20
64.429834880592779
 30
0.0
  0
INSERT
  5
D3
  8
81TEXT
  6
CONTINUOUS
  2
STDGX5
 10
1373.086337943045
 20
64.429834880592779
 30
0.0
  0
INSERT
  5
D5
  8
81TEXT
  6
CONTINUOUS
  2
STDGX5
 10
1709.295190114701
 20
74.235889802020296
 30
0.0
  0
INSERT
  5
D6
  8
81TEXT
  6
CONTINUOUS
  2
STDGX5
 10
1709.295190114701
 20
74.235889802020296
 30
0.0
  0
INSERT
  5
D8
  8
81TEXT
  6
CONTINUOUS
  2
STDGX5
 10
2067.950715976056
 20
76.731345173689476
 30
0.0
  0
INSERT
  5
D9
  8
81TEXT
  6
CONTINUOUS
  2
STDGX5
 10
2067.950715976056
 20
76.731345173689476
 30
0.0
  0
INSERT
  5
DB
  8
81TEXT
  6
CONTINUOUS
  2
STDGX5
 10
1712.359818095744
 20
80.099620138596904
 30
0.0
  0
INSERT
  5
DC
  8
81TEXT
  6
CONTINUOUS
  2
STDGX5
 10
1712.359818095744
 20
80.099620138596904
 30
0.0
  0
INSERT
  5
DE
  8
81TEXT
  6
CONTINUOUS
  2
STDGX5
 10
2071.015343957099
 20
82.595075510266042
 30
0.0
  0
INSERT
  5
DF
  8
81TEXT
  6
CONTINUOUS
  2
STDGX5
 10
2071.015343957099
 20
82.595075510266042
 30
0.0
  0
INSERT
  5
E0
  8
81TEXT
  6
CONTINUOUS
  2
STDGX5
 10
1712.359818095744
 20
80.099620138596904
 30
0.0
  0
INSERT
  5
E2
  8
81TEXT
  6
CONTINUOUS
  2
STDGX5
 10
1374.0883512391531
 20
62.326500170372967
 30
0.0
  0
INSERT
  5
E3
  8
81TEXT
  6
CONTINUOUS
  2
STDGX5
 10
1374.0883512391531
 20
62.326500170372967
 30
0.0
  0
INSERT
  5
E5
  8
81TEXT
  6
CONTINUOUS
  2
STDGX5
 10
1727.225812772921
 20
70.979315215777234
 30
0.0
  0
INSERT
  5
E6
  8
81TEXT
  6
CONTINUOUS
  2
STDGX5
 10
1727.225812772921
 20
70.979315215777234
 30
0.0
  0
INSERT
  5
E8
  8
81TEXT
  6
CONTINUOUS
  2
STDGX5
 10
2085.8813386342772
 20
73.4747705874464
 30
0.0
  0
INSERT
  5
E9
  8
81TEXT
  6
CONTINUOUS
  2
STDGX5
 10
2085.8813386342772
 20
73.4747705874464
 30
0.0
  0
INSERT
  5
EA
  8
11
  2
STDGX5
 10
1704.320131824363
 20
65.971868008339186
 30
0.0
  0
INSERT
  5
EB
  8
4
  2
STDGX5
 10
1704.320131824363
 20
65.971868008339186
 30
0.0
  0
INSERT
  5
EC
  8
81TEXT
  6
CONTINUOUS
  2
STDGX5
 10
1374.0883512391531
 20
62.326500170372967
 30
0.0
  0
INSERT
  5
ED
  8
81TEXT
  6
CONTINUOUS
  2
STDGX5
 10
1374.0883512391531
 20
62.326500170372967
 30
0.0
  0
INSERT
  5
EF
  8
81TEXT
  6
CONTINUOUS
  2
STDGX5
 10
1377.452268595948
 20
59.645218248566188
 30
0.0
  0
INSERT
  5
F0
  8
81TEXT
  6
CONTINUOUS
  2
STDGX5
 10
1377.452268595948
 20
59.645218248566188
 30
0.0
  0
INSERT
  5
F2
  8
81TEXT
  6
CONTINUOUS
  2
STDGX5
 10
1736.107794457304
 20
62.140673620235368
 30
0.0
  0
INSERT
  5
F3
  8
81TEXT
  6
CONTINUOUS
  2
STDGX5
 10
1736.107794457304
 20
62.140673620235368
 30
0.0
  0
INSERT
  5
F4
  8
81TEXT
  6
CONTINUOUS
  2
STDGX5
 10
1377.452268595948
 20
59.645218248566188
 30
0.0
  0
INSERT
  5
F6
  8
81TEXT
  6
CONTINUOUS
  2
STDGX5
 10
1379.213695889192
 20
67.509039369471552
 30
0.0
  0
INSERT
  5
F8
  8
81TEXT
  6
CONTINUOUS
  2
STDGX5
 10
1370.5142655804159
 20
55.034189612734068
 30
0.0
  0
INSERT
  5
F9
  8
81TEXT
  6
CONTINUOUS
  2
STDGX5
 10
1370.5142655804159
 20
55.034189612734068
 30
0.0
  0
INSERT
  5
FB
  8
81TEXT
  6
CONTINUOUS
  2
STDGX5
 10
1706.7231177520721
 20
64.840244534161599
 30
0.0
  0
INSERT
  5
FC
  8
81TEXT
  6
CONTINUOUS
  2
STDGX5
 10
1706.7231177520721
 20
64.840244534161599
 30
0.0
  0
INSERT
  5
FE
  8
81TEXT
  6
CONTINUOUS
  2
STDGX5
 10
2065.3786436134269
 20
67.335699905830765
 30
0.0
  0
INSERT
  5
FF
  8
81TEXT
  6
CONTINUOUS
  2
STDGX5
 10
2065.3786436134269
 20
67.335699905830765
 30
0.0
  0
INSERT
  5
101
  8
81TEXT
  6
CONTINUOUS
  2
STDGX5
 10
1709.787745733114
 20
70.703974870738165
 30
0.0
  0
INSERT
  5
102
  8
81TEXT
  6
CONTINUOUS
  2
STDGX5
 10
1709.787745733114
 20
70.703974870738165
 30
0.0
  0
INSERT
  5
104
  8
81TEXT
  6
CONTINUOUS
  2
STDGX5
 10
2068.4432715944699
 20
73.199430242407345
 30
0.0
  0
INSERT
  5
105
  8
81TEXT
  6
CONTINUOUS
  2
STDGX5
 10
2068.4432715944699
 20
73.199430242407345
 30
0.0
  0
INSERT
  5
106
  8
81TEXT
  6
CONTINUOUS
  2
STDGX5
 10
1709.787745733114
 20
70.703974870738165
 30
0.0
  0
INSERT
  5
107
  8
0
  2
STDGX5
 10
1391.472368601123
 20
85.446341956888233
 30
0.0
 41
0.3
 42
0.3
 43
0.3
  0
INSERT
  5
108
  8
0
  2
STDGX5
 10
1391.472368601123
 20
85.446341956888233
 30
0.0
 41
0.3
 42
0.3
 43
0.3
  0
INSERT
  5
109
  8
0
  2
STDGX5
 10
1409.65890211807
 20
98.946341956888233
 30
0.0
 41
0.3
 42
0.3
 43
0.3
  0
INSERT
  5
10A
  8
0
  2
STDGX5
 10
1578.279369133556
 20
127.3027785069699
 30
0.0
 41
0.3
 42
0.3
 43
0.3
  0
INSERT
  5
10B
  8
0
  2
STDGX5
 10
1545.9078468274579
 20
157.17928279307941
 30
0.0
 41
0.3
 42
0.3
 43
0.3
  0
INSERT
  5
10C
  8
0
  2
STDGX5
 10
1545.9078468274579
 20
157.17928279307941
 30
0.0
 41
0.3
 42
0.3
 43
0.3
  0
INSERT
  5
10D
  8
11
  2
STDGX5
 10
1357.319436277427
 20
57.141517843099621
 30
0.0
  0
INSERT
  5
10E
  8
4
  2
STDGX5
 10
1357.319436277427
 20
57.141517843099621
 30
0.0
  0
INSERT
  5
110
  8
ITEM_HILFE
  2
ACAD
 10
749.33293494902648
 20
72.136818317336505
 30
0.0
  0
INSERT
  5
111
  8
0
  2
ACAD
 10
945.89413094902648
 20
260.91783731733648
 30
0.0
  0
INSERT
  5
112
  8
0
  2
37346B
 10
744.73143994902648
 20
-45.551107682663478
 30
0.0
  0
INSERT
  5
113
  8
0
  2
37390B
 10
744.73143994902648
 20
-45.551107682663478
 30
0.0
  0
INSERT
  5
114
  8
0
  2
37346B
 10
744.73143994902648
 20
-45.551107682663478
 30
0.0
  0
INSERT
  5
115
  8
0
  2
37390B
 10
744.73143994902648
 20
-45.551107682663478
 30
0.0
  0
INSERT
  5
116
  8
0
  2
37346B
 10
763.51605494902651
 20
362.1258153173365
 30
0.0
  0
INSERT
  5
117
  8
0
  2
37390B
 10
763.51605494902651
 20
362.1258153173365
 30
0.0
  0
INSERT
  5
118
  8
0
  2
37346B
 10
763.51605494902651
 20
362.1258153173365
 30
0.0
  0
INSERT
  5
119
  8
0
  2
37390B
 10
763.51605494902651
 20
362.1258153173365
 30
0.0
  0
INSERT
  5
11A
  8
0
  2
37390B
 10
1258.135778949026
 20
272.61170831733648
 30
0.0
  0
INSERT
  5
11D
  8
4
  2
STDGX5
 10
713.61826792977104
 20
36.474520937613683
 30
0.0
  0
INSERT
  5
129
  8
81TEXT
  6
CONTINUOUS
  2
STDGX5
 10
713.61826792977104
 20
36.474520937613683
 30
0.0
  0
INSERT
  5
12A
  8
0
  2
STDGX5
 10
1039.4307458736071
 20
51.280292638629881
 30
0.0
  0
INSERT
  5
12B
  8
0
  2
STDGX5
 10
1039.4307458736071
 20
51.280292638629881
 30
0.0
  0
INSERT
  5
12C
  8
0
  2
STDGX5
 10
1039.4307458736071
 20
51.280292638629881
 30
0.0
  0
INSERT
  5
12E
  8
4
  6
CONTINUOUS
  2
STDGX5
 10
1049.907546909506
 20
55.900145060171198
 30
0.0
  0
LINE
  5
130
  8
0
 10
225.95910761692321
 20
236.14532210185669
 30
0.0
 11
145.95910761692309
 21
236.14532210185669
 31
0.0
  0
LINE
  5
131
  8
0
 10
225.95910761692321
 20
186.14532210185661
 30
0.0
 11
145.95910761692309
 21
186.14532210185661
 31
0.0
  0
LINE
  5
132
  8
0
 10
225.95910761692321
 20
236.14532210185669
 30
0.0
 11
225.95910761692321
 21
186.14532210185661
 31
0.0
  0
LINE
  5
133
  8
0
 10
145.95910761692309
 20
186.14532210185661
 30
0.0
 11
145.95910761692309
 21
236.14532210185669
 31
0.0
  0
LINE
  5
134
  8
1
 10
185.95910761692309
 20
181.14532210185669
 30
0.0
 11
185.95910761692309
 21
241.14532210185669
 31
0.0
  0
POLYLINE
  5
135
  8
0
 66
     1
 10
0.0
 20
0.0
 30
0.0
  0
VERTEX
  5
136
  8
0
 10
168.159107616923
 20
147.7280103800779
 30
0.0
  0
VERTEX
  5
137
  8
0
 10
163.75910761692299
 20
147.7280103800779
 30
0.0
  0
SEQEND
  5
138
  8
0
  0
LINE
  5
13A
  8
0
 10
169.95910761692301
 20
93.89641991001605
 30
0.0
 11
169.95910761692301
 21
43.89641991001605
 31
0.0
  0
LINE
  5
13B
  8
0
 10
161.95910761692301
 20
43.89641991001605
 30
0.0
 11
161.95910761692301
 21
93.89641991001605
 31
0.0
  0
LINE
  5
13C
  8
0
 10
225.95910761692309
 20
43.89641991001605
 30
0.0
 11
225.95910761692309
 21
93.89641991001605
 31
0.0
  0
LINE
  5
13D
  8
0
 10
145.95910761692301
 20
93.89641991001605
 30
0.0
 11
145.95910761692301
 21
43.89641991001605
 31
0.0
  0
LINE
  5
13E
  8
0
 10
209.95910761692309
 20
43.89641991001605
 30
0.0
 11
209.95910761692309
 21
93.89641991001605
 31
0.0
  0
LINE
  5
13F
  8
0
 10
145.95910761692301
 20
43.89641991001605
 30
0.0
 11
225.95910761692309
 21
43.89641991001605
 31
0.0
  0
LINE
  5
140
  8
0
 10
145.95910761692301
 20
93.89641991001605
 30
0.0
 11
225.95910761692309
 21
93.89641991001605
 31
0.0
  0
LINE
  5
141
  8
0
 10
201.95910761692309
 20
93.89641991001605
 30
0.0
 11
201.95910761692309
 21
43.89641991001605
 31
0.0
  0
ARC
  5
142
  8
0
 10
211.45754561692311
 20
124.2280103800779
 30
0.0
 40
1.5
 50
180.0
 51
270.0
  0
ARC
  5
143
  8
0
 10
200.457545616923
 20
124.2280103800779
 30
0.0
 40
1.5
 50
270.0
 51
0.0
  0
ARC
  5
144
  8
0
 10
160.45910761692301
 20
124.2280103800779
 30
0.0
 40
1.5
 50
270.0
 51
0.0
  0
ARC
  5
145
  8
0
 10
171.45910761692301
 20
124.2280103800779
 30
0.0
 40
1.5
 50
180.0
 51
270.0
  0
ARC
  5
146
  8
0
 10
224.45754561692311
 20
137.2280103800779
 30
0.0
 40
1.5
 50
0.0
 51
90.0
  0
ARC
  5
147
  8
0
 10
224.45754561692311
 20
148.2280103800779
 30
0.0
 40
1.5
 50
270.0
 51
0.0
  0
LINE
  5
148
  8
0
 10
225.95754561692311
 20
148.2280103800779
 30
0.0
 11
225.95754561692311
 21
158.7280103800779
 31
0.0
  0
LINE
  5
149
  8
0
 10
200.457545616923
 20
122.7280103800779
 30
0.0
 11
171.45910761692301
 21
122.7280103800779
 31
0.0
  0
LINE
  5
14A
  8
0
 10
160.45910761692301
 20
122.7280103800779
 30
0.0
 11
149.95910761692301
 21
122.7280103800779
 31
0.0
  0
ARC
  5
14B
  8
0
 10
149.95910761692301
 20
126.7280103800779
 30
0.0
 40
4.0
 50
180.0
 51
270.0
  0
ARC
  5
14C
  8
0
 10
221.95754561692311
 20
126.7280103800779
 30
0.0
 40
4.0
 50
270.0
 51
0.0
  0
ARC
  5
14D
  8
0
 10
221.95754561692311
 20
158.7280103800779
 30
0.0
 40
4.0
 50
0.0
 51
90.002814999999984
  0
ARC
  5
14E
  8
0
 10
149.95910761692301
 20
158.72447338007791
 30
0.0
 40
4.0
 50
90.002814999999984
 51
180.0
  0
LINE
  5
14F
  8
0
 10
145.95910761692301
 20
158.72447338007791
 30
0.0
 11
145.95910761692301
 21
126.7280103800779
 31
0.0
  0
LINE
  5
150
  8
0
 10
221.95754561692311
 20
122.7280103800779
 30
0.0
 11
211.45754561692311
 21
122.7280103800779
 31
0.0
  0
LINE
  5
151
  8
0
 10
225.95754561692311
 20
126.7280103800779
 30
0.0
 11
225.95754561692311
 21
137.2280103800779
 31
0.0
  0
LINE
  5
152
  8
0
 10
149.95891061692299
 20
162.72447338007791
 30
0.0
 11
221.9573486169231
 21
162.7280103800779
 31
0.0
  0
ARC
  5
153
  8
0
 10
197.957545616923
 20
128.00765038007791
 30
0.0
 40
2.0
 50
142.88170700000001
 51
180.0
  0
ARC
  5
154
  8
0
 10
216.29754561692309
 20
114.1280103800779
 30
0.0
 40
25.0
 50
126.64192799999999
 51
142.88170700000001
  0
ARC
  5
155
  8
0
 10
213.95754561692311
 20
128.00765038007791
 30
0.0
 40
2.0
 50
0.0
 51
37.118293000000001
  0
ARC
  5
156
  8
0
 10
195.617545616923
 20
114.1280103800779
 30
0.0
 40
25.0
 50
37.118293000000001
 51
53.358072
  0
LINE
  5
157
  8
0
 10
201.957545616923
 20
126.2280103800779
 30
0.0
 11
201.957545616923
 21
124.2280103800779
 31
0.0
  0
LINE
  5
158
  8
0
 10
199.457545616923
 20
127.2280103800779
 30
0.0
 11
200.95754561692311
 21
127.2280103800779
 31
0.0
  0
LINE
  5
159
  8
0
 10
198.957545616923
 20
125.2280103800779
 30
0.0
 11
198.957545616923
 21
126.7280103800779
 31
0.0
  0
ARC
  5
15A
  8
0
 10
198.457545616923
 20
127.2280103800779
 30
0.0
 40
2.5
 50
180.0
 51
270.0
  0
LINE
  5
15B
  8
0
 10
195.957545616923
 20
128.00765038007791
 30
0.0
 11
195.957545616923
 21
127.2280103800779
 31
0.0
  0
LINE
  5
15C
  8
0
 10
208.1506016169231
 20
134.9780103800779
 30
0.0
 11
203.7644886169231
 21
134.9780103800779
 31
0.0
  0
LINE
  5
15D
  8
0
 10
215.95754561692311
 20
127.2280103800779
 30
0.0
 11
215.95754561692311
 21
128.00765038007791
 31
0.0
  0
ARC
  5
15E
  8
0
 10
213.45754561692311
 20
127.2280103800779
 30
0.0
 40
2.5
 50
270.0
 51
0.0
  0
LINE
  5
15F
  8
0
 10
212.957545616923
 20
126.7280103800779
 30
0.0
 11
212.957545616923
 21
125.2280103800779
 31
0.0
  0
LINE
  5
160
  8
0
 10
210.95754561692311
 20
127.2280103800779
 30
0.0
 11
212.457545616923
 21
127.2280103800779
 31
0.0
  0
LINE
  5
161
  8
0
 10
209.95754561692311
 20
124.2280103800779
 30
0.0
 11
209.95754561692311
 21
126.2280103800779
 31
0.0
  0
LINE
  5
162
  8
0
 10
224.45754561692311
 20
138.7280103800779
 30
0.0
 11
222.45754561692311
 21
138.7280103800779
 31
0.0
  0
LINE
  5
163
  8
0
 10
221.45754561692311
 20
137.7280103800779
 30
0.0
 11
221.45754561692311
 21
136.2280103800779
 31
0.0
  0
LINE
  5
164
  8
0
 10
221.95754561692311
 20
135.7280103800779
 30
0.0
 11
223.45754561692311
 21
135.7280103800779
 31
0.0
  0
ARC
  5
165
  8
0
 10
221.45754561692311
 20
135.2280103800779
 30
0.0
 40
2.5
 50
270.0
 51
0.0
  0
LINE
  5
166
  8
0
 10
221.45754561692311
 20
132.7280103800779
 30
0.0
 11
220.67790561692311
 21
132.7280103800779
 31
0.0
  0
LINE
  5
167
  8
0
 10
213.70754561692311
 20
140.53495438007789
 30
0.0
 11
213.70754561692311
 21
144.92106738007789
 31
0.0
  0
LINE
  5
168
  8
0
 10
220.67790561692311
 20
152.7280103800779
 30
0.0
 11
221.45754561692311
 21
152.7280103800779
 31
0.0
  0
ARC
  5
169
  8
0
 10
221.45754561692311
 20
150.2280103800779
 30
0.0
 40
2.5
 50
0.0
 51
90.0
  0
LINE
  5
16A
  8
0
 10
223.45754561692311
 20
149.7280103800779
 30
0.0
 11
221.95754561692311
 21
149.7280103800779
 31
0.0
  0
LINE
  5
16B
  8
0
 10
221.45754561692311
 20
149.2280103800779
 30
0.0
 11
221.45754561692311
 21
147.7280103800779
 31
0.0
  0
LINE
  5
16C
  8
0
 10
222.45754561692311
 20
146.7280103800779
 30
0.0
 11
224.45754561692311
 21
146.7280103800779
 31
0.0
  0
ARC
  5
16D
  8
0
 10
234.55754561692311
 20
153.06801038007791
 30
0.0
 40
25.0
 50
216.64192799999989
 51
232.88170700000001
  0
ARC
  5
16E
  8
0
 10
220.67790561692311
 20
134.7280103800779
 30
0.0
 40
2.0
 50
232.88170700000001
 51
270.0
  0
ARC
  5
16F
  8
0
 10
234.55754561692311
 20
132.3880103800779
 30
0.0
 40
25.0
 50
127.11829299999999
 51
143.35807199999999
  0
ARC
  5
170
  8
0
 10
220.67790561692311
 20
150.7280103800779
 30
0.0
 40
2.0
 50
90.0
 51
127.11829299999999
  0
LINE
  5
171
  8
0
 10
203.45598261692311
 20
147.42801038007789
 30
0.0
 11
203.45598261692311
 21
147.4227293800779
 31
0.0
  0
ARC
  5
172
  8
0
 10
203.75598261692309
 20
147.42801038007789
 30
0.0
 40
0.3
 50
90.0
 51
180.0
  0
LINE
  5
173
  8
0
 10
203.45598261692311
 20
147.42801038007789
 30
0.0
 11
203.45598261692311
 21
147.4227293800779
 31
0.0
  0
ARC
  5
174
  8
0
 10
217.70754561692311
 20
140.53495438007789
 30
0.0
 40
4.0
 50
180.0
 51
216.64192799999989
  0
ARC
  5
175
  8
0
 10
217.70754561692311
 20
144.92106738007789
 30
0.0
 40
4.0
 50
143.35807199999999
 51
180.0
  0
ARC
  5
176
  8
0
 10
200.95754561692311
 20
126.2280103800779
 30
0.0
 40
1.0
 50
0.0
 51
90.0
  0
ARC
  5
177
  8
0
 10
210.95754561692311
 20
126.2280103800779
 30
0.0
 40
1.0
 50
90.0
 51
180.0
  0
ARC
  5
178
  8
0
 10
199.457545616923
 20
126.7280103800779
 30
0.0
 40
0.5
 50
90.0
 51
180.0
  0
ARC
  5
179
  8
0
 10
212.457545616923
 20
126.7280103800779
 30
0.0
 40
0.5
 50
0.0
 51
90.0
  0
ARC
  5
17A
  8
0
 10
198.457545616923
 20
125.2280103800779
 30
0.0
 40
0.5
 50
270.0
 51
0.0
  0
ARC
  5
17B
  8
0
 10
213.45754561692311
 20
125.2280103800779
 30
0.0
 40
0.5
 50
180.0
 51
270.0
  0
ARC
  5
17C
  8
0
 10
203.7644886169231
 20
130.9780103800779
 30
0.0
 40
4.0
 50
90.0
 51
126.64192799999999
  0
ARC
  5
17D
  8
0
 10
208.1506016169231
 20
130.9780103800779
 30
0.0
 40
4.0
 50
53.358072
 51
90.0
  0
CIRCLE
  5
17E
  8
0
 10
205.957545616923
 20
142.7280103800779
 30
0.0
 40
3.399999999999999
  0
ARC
  5
17F
  8
0
 10
223.45754561692311
 20
150.2280103800779
 30
0.0
 40
0.5
 50
270.0
 51
0.0
  0
ARC
  5
180
  8
0
 10
223.45754561692311
 20
135.2280103800779
 30
0.0
 40
0.5
 50
0.0
 51
90.0
  0
ARC
  5
181
  8
0
 10
221.95754561692311
 20
149.2280103800779
 30
0.0
 40
0.5
 50
90.0
 51
180.0
  0
ARC
  5
182
  8
0
 10
221.95754561692311
 20
136.2280103800779
 30
0.0
 40
0.5
 50
180.0
 51
270.0
  0
ARC
  5
183
  8
0
 10
222.45754561692311
 20
147.7280103800779
 30
0.0
 40
1.0
 50
180.0
 51
270.0
  0
ARC
  5
184
  8
0
 10
222.45754561692311
 20
137.7280103800779
 30
0.0
 40
1.0
 50
90.0
 51
180.0
  0
LINE
  5
185
  8
0
 10
161.95910761692301
 20
124.2280103800779
 30
0.0
 11
161.95910761692301
 21
126.2280103800779
 31
0.0
  0
LINE
  5
186
  8
0
 10
160.95910761692301
 20
127.2280103800779
 30
0.0
 11
159.45910761692301
 21
127.2280103800779
 31
0.0
  0
LINE
  5
187
  8
0
 10
158.95910761692301
 20
126.7280103800779
 30
0.0
 11
158.95910761692301
 21
125.2280103800779
 31
0.0
  0
ARC
  5
188
  8
0
 10
158.45910761692301
 20
125.2280103800779
 30
0.0
 40
0.5
 50
270.0
 51
270.0
  0
ARC
  5
189
  8
0
 10
158.45910761692301
 20
127.2280103800779
 30
0.0
 40
2.5
 50
180.0
 51
270.0
  0
LINE
  5
18A
  8
0
 10
155.95910761692301
 20
127.2280103800779
 30
0.0
 11
155.95910761692301
 21
128.00765038007791
 31
0.0
  0
LINE
  5
18B
  8
0
 10
163.76605161692299
 20
134.9780103800779
 30
0.0
 11
165.95910761692301
 21
134.9780103800779
 31
0.0
  0
ARC
  5
18C
  8
0
 10
176.29910761692301
 20
114.1280103800779
 30
0.0
 40
25.0
 50
126.64192799999999
 51
142.88170700000001
  0
ARC
  5
18D
  8
0
 10
163.76605161692299
 20
130.9780103800779
 30
0.0
 40
4.0
 50
90.0
 51
126.64192799999999
  0
ARC
  5
18E
  8
0
 10
157.95910761692301
 20
128.00765038007791
 30
0.0
 40
2.0
 50
142.88170700000001
 51
180.0
  0
ARC
  5
18F
  8
0
 10
160.95910761692301
 20
126.2280103800779
 30
0.0
 40
1.0
 50
0.0
 51
90.0
  0
ARC
  5
190
  8
0
 10
158.45910761692301
 20
125.2280103800779
 30
0.0
 40
0.5
 50
270.0
 51
0.0
  0
ARC
  5
191
  8
0
 10
159.45910761692301
 20
126.7280103800779
 30
0.0
 40
0.5
 50
90.0
 51
180.0
  0
ARC
  5
192
  8
0
 10
172.45910761692301
 20
126.7280103800779
 30
0.0
 40
0.5
 50
0.0
 51
90.0
  0
ARC
  5
193
  8
0
 10
173.45910761692301
 20
125.2280103800779
 30
0.0
 40
0.5
 50
180.0
 51
270.0
  0
ARC
  5
194
  8
0
 10
170.95910761692301
 20
126.2280103800779
 30
0.0
 40
1.0
 50
90.0
 51
180.0
  0
ARC
  5
195
  8
0
 10
173.95910761692301
 20
128.00765038007791
 30
0.0
 40
2.0
 50
0.0
 51
37.118293000000001
  0
ARC
  5
196
  8
0
 10
168.1521636169231
 20
130.9780103800779
 30
0.0
 40
4.0
 50
53.358072
 51
90.0
  0
ARC
  5
197
  8
0
 10
155.619107616923
 20
114.1280103800779
 30
0.0
 40
25.0
 50
37.118293000000001
 51
53.358072
  0
LINE
  5
198
  8
0
 10
168.1521636169231
 20
134.9780103800779
 30
0.0
 11
165.95910761692301
 21
134.9780103800779
 31
0.0
  0
LINE
  5
199
  8
0
 10
175.95910761692301
 20
127.2280103800779
 30
0.0
 11
175.95910761692301
 21
128.00765038007791
 31
0.0
  0
ARC
  5
19A
  8
0
 10
173.45910761692301
 20
127.2280103800779
 30
0.0
 40
2.5
 50
270.0
 51
0.0
  0
ARC
  5
19B
  8
0
 10
173.45910761692301
 20
125.2280103800779
 30
0.0
 40
0.5
 50
270.0
 51
270.0
  0
LINE
  5
19C
  8
0
 10
172.95910761692301
 20
126.7280103800779
 30
0.0
 11
172.95910761692301
 21
125.2280103800779
 31
0.0
  0
LINE
  5
19D
  8
0
 10
170.95910761692301
 20
127.2280103800779
 30
0.0
 11
172.45910761692301
 21
127.2280103800779
 31
0.0
  0
LINE
  5
19E
  8
0
 10
169.95910761692301
 20
124.2280103800779
 30
0.0
 11
169.95910761692301
 21
126.2280103800779
 31
0.0
  0
LINE
  5
19F
  8
0
 10
161.2591076169231
 20
145.2280103800779
 30
0.0
 11
161.262051616923
 21
145.2280103800779
 31
0.0
  0
CIRCLE
  5
1A0
  8
0
 10
165.95910761692301
 20
142.7280103800779
 30
0.0
 40
3.399999999999999
  0
LINE
  5
1A1
  8
0
 10
161.2591076169231
 20
145.2280103800779
 30
0.0
 11
161.262051616923
 21
145.2280103800779
 31
0.0
  0
LINE
  5
1AD
  8
0
 10
163.45910761692301
 20
147.3377823800779
 30
0.0
 11
163.45910761692301
 21
147.42801038007789
 31
0.0
  0
ARC
  5
1AE
  8
0
 10
163.7591073928005
 20
147.42801060420049
 30
0.0
 40
0.2999997758775506
 50
89.999957195715027
 51
180.0000428042849
  0
ARC
  5
1AF
  8
0
 10
163.7591073928005
 20
147.42801060420049
 30
0.0
 40
0.2999997758775506
 50
89.999957195715027
 51
180.0000428042849
  0
LINE
  5
1B0
  8
0
 10
163.45910761692301
 20
147.42801038007789
 30
0.0
 11
163.45910761692301
 21
147.3377823800779
 31
0.0
  0
ARC
  5
1B1
  8
0
 10
162.95910836271591
 20
147.33778233784099
 30
0.0
 40
0.4999992542071272
 50
306.34808882069689
 51
0.0000048400033291
  0
ARC
  5
1B2
  8
0
 10
163.01224396620421
 20
147.37193017628181
 30
0.0
 40
0.4999995504912824
 50
224.99995518494509
 51
299.10540061512739
  0
LINE
  5
1B3
  8
0
 10
162.658690616923
 20
147.01837738007791
 30
0.0
 11
149.80417261692301
 21
159.87289538007789
 31
0.0
  0
ARC
  5
1B4
  8
0
 10
150.15772548100389
 20
160.2264487599555
 30
0.0
 40
0.4999996201224717
 50
89.999984424800701
 51
225.0000417942484
  0
LINE
  5
1B5
  8
0
 10
150.1577256169231
 20
160.7264483800779
 30
0.0
 11
181.760489616923
 21
160.7264483800779
 31
0.0
  0
ARC
  5
1B6
  8
0
 10
181.7604897528422
 20
160.2264487599555
 30
0.0
 40
0.4999996201224704
 50
314.99995820575162
 51
90.000015575199313
  0
LINE
  5
1B7
  8
0
 10
182.114042616923
 20
159.87289538007789
 30
0.0
 11
169.2595246169231
 21
147.01837738007791
 31
0.0
  0
ARC
  5
1B8
  8
0
 10
168.9059712676418
 20
147.37193017628181
 30
0.0
 40
0.4999995504912978
 50
240.89459938487261
 51
315.00004481505488
  0
ARC
  5
1B9
  8
0
 10
168.95910687113019
 20
147.33778233784099
 30
0.0
 40
0.4999992542071312
 50
179.99999515999659
 51
233.651911179303
  0
LINE
  5
1BA
  8
0
 10
168.45910761692301
 20
147.3377823800779
 30
0.0
 11
168.45910761692301
 21
147.42801038007789
 31
0.0
  0
ARC
  5
1BB
  8
0
 10
168.1591078410456
 20
147.42801060420049
 30
0.0
 40
0.2999997758775506
 50
359.99995719571513
 51
90.000042804284959
  0
ARC
  5
1BC
  8
0
 10
168.1591078410456
 20
147.42801060420049
 30
0.0
 40
0.2999997758775506
 50
359.99995719571513
 51
90.000042804284959
  0
LINE
  5
1BD
  8
0
 10
168.45910761692301
 20
147.42801038007789
 30
0.0
 11
168.45910761692301
 21
147.3377823800779
 31
0.0
  0
ARC
  5
1BE
  8
0
 10
165.95910332692031
 20
142.728005134168
 30
0.0
 40
4.999993390122758
 50
224.9999922544196
 51
236.9442744805331
  0
ARC
  5
1BF
  8
0
 10
165.9591023710131
 20
142.7280060900751
 30
0.0
 40
4.9999933901226594
 50
213.05572551946571
 51
225.0000077455793
  0
ARC
  5
1C0
  8
0
 10
161.34933544749731
 20
139.72801076852821
 30
0.0
 40
0.4999996115497533
 50
33.055669722600769
 51
89.999980585229395
  0
LINE
  5
1C1
  8
0
 10
161.3493356169231
 20
140.2280103800779
 30
0.0
 11
161.2591076169231
 21
140.2280103800779
 31
0.0
  0
ARC
  5
1C2
  8
0
 10
161.2591073928005
 20
140.5280101559554
 30
0.0
 40
0.2999997758775506
 50
179.99995719571501
 51
270.00004280428487
  0
LINE
  5
1C3
  8
0
 10
160.95910761692301
 20
140.52801038007789
 30
0.0
 11
160.95910761692301
 21
142.7280103800779
 31
0.0
  0
LINE
  5
1C4
  8
0
 10
160.95910761692301
 20
142.7280103800779
 30
0.0
 11
160.95910761692301
 21
144.92801538007791
 31
0.0
  0
ARC
  5
1C5
  8
0
 10
161.259107542332
 20
144.9280154863109
 30
0.0
 40
0.2999999254089591
 50
89.789136757120005
 51
180.0000202890059
  0
ARC
  5
1C6
  8
0
 10
161.2620512809562
 20
145.72800997050001
 30
0.0
 40
0.4999999747974653
 50
269.78918954408903
 51
45.00000596459423
  0
LINE
  5
1C7
  8
0
 10
161.61560461692301
 20
146.08156338007791
 30
0.0
 11
148.81266061692301
 21
158.88450738007791
 31
0.0
  0
ARC
  5
1C8
  8
0
 10
148.45910723704549
 20
158.53095451599711
 30
0.0
 40
0.4999996201224516
 50
44.999958205749337
 51
180.00001557519931
  0
LINE
  5
1C9
  8
0
 10
147.95910761692301
 20
158.5309543800779
 30
0.0
 11
147.95910761692301
 21
126.7280103800779
 31
0.0
  0
ARC
  5
1CA
  8
0
 10
149.95910612277271
 20
126.72800888592759
 30
0.0
 40
1.9999985058502039
 50
179.99995719571299
 51
270.00004280428658
  0
LINE
  5
1CB
  8
0
 10
149.95910761692301
 20
124.7280103800779
 30
0.0
 11
151.45910761692301
 21
124.7280103800779
 31
0.0
  0
ARC
  5
1CC
  8
0
 10
151.45910948461099
 20
127.22800851239001
 30
0.0
 40
2.4999981323127409
 50
269.99995719571308
 51
0.0000428042869152
  0
LINE
  5
1CD
  8
0
 10
153.95910761692301
 20
127.2280103800779
 30
0.0
 11
153.95910761692301
 21
128.00765038007791
 31
0.0
  0
ARC
  5
1CE
  8
0
 10
157.9591123672358
 20
128.00764810406349
 30
0.0
 40
4.0000047503134164
 50
142.88172508778919
 51
179.9999673985343
  0
ARC
  5
1CF
  8
0
 10
176.29917318974569
 20
114.12794821316859
 30
0.0
 40
27.000089533518519
 50
126.6419615194456
 51
142.8816861709945
  0
ARC
  5
1D0
  8
0
 10
163.76605675984749
 20
130.97799185433959
 30
0.0
 40
6.000018625202399
 50
97.131420167408194
 51
126.64186626828911
  0
ARC
  5
1D1
  8
0
 10
162.95910819237849
 20
137.42772585323431
 30
0.0
 40
0.4999994245447821
 50
277.13138283811179
 51
0.0000603719079097
  0
LINE
  5
1D2
  8
0
 10
163.45910761692301
 20
137.4277263800779
 30
0.0
 11
163.45910761692301
 21
138.11823838007791
 31
0.0
  0
ARC
  5
1D3
  8
0
 10
162.95910800537331
 20
138.11823821065221
 30
0.0
 40
0.4999996115497825
 50
0.000019414773865
 51
56.944330277401001
  0
ARC
  5
1D4
  8
0
 10
180.45910574923511
 20
127.22800851239001
 30
0.0
 40
2.4999981323127409
 50
179.99995719571311
 51
270.00004280428692
  0
LINE
  5
1D5
  8
0
 10
177.95910761692301
 20
127.2280103800779
 30
0.0
 11
177.95910761692301
 21
128.00765038007791
 31
0.0
  0
ARC
  5
1D6
  8
0
 10
173.95910286661029
 20
128.00764810406349
 30
0.0
 40
4.0000047503134164
 50
0.000032601465672
 51
37.118274912210758
  0
ARC
  5
1D7
  8
0
 10
155.6190420441003
 20
114.12794821316859
 30
0.0
 40
27.000089533518519
 50
37.118313829005473
 51
53.358038480554391
  0
ARC
  5
1D8
  8
0
 10
168.15215847399861
 20
130.97799185433959
 30
0.0
 40
6.000018625202399
 50
53.358133731710829
 51
82.868579832591806
  0
ARC
  5
1D9
  8
0
 10
168.95910704146749
 20
137.42772585323431
 30
0.0
 40
0.4999994245447821
 50
179.99993962809211
 51
262.86861716188821
  0
LINE
  5
1DA
  8
0
 10
168.45910761692301
 20
137.4277263800779
 30
0.0
 11
168.45910761692301
 21
138.11823838007791
 31
0.0
  0
ARC
  5
1DB
  8
0
 10
168.95910722847279
 20
138.11823821065221
 30
0.0
 40
0.4999996115497825
 50
123.05566972259901
 51
179.9999805852261
  0
ARC
  5
1DC
  8
0
 10
165.9591119069257
 20
142.728005134168
 30
0.0
 40
4.999993390122758
 50
303.05572551946699
 51
315.00000774558038
  0
ARC
  5
1DD
  8
0
 10
165.959112862833
 20
142.7280060900751
 30
0.0
 40
4.9999933901226594
 50
314.9999922544207
 51
326.9442744805342
  0
ARC
  5
1DE
  8
0
 10
170.5688797863487
 20
139.72801076852821
 30
0.0
 40
0.4999996115497533
 50
90.00001941477062
 51
146.94433027739919
  0
LINE
  5
1DF
  8
0
 10
170.568879616923
 20
140.2280103800779
 30
0.0
 11
170.659107616923
 21
140.2280103800779
 31
0.0
  0
ARC
  5
1E0
  8
0
 10
170.6591078410456
 20
140.5280101559554
 30
0.0
 40
0.2999997758775506
 50
269.99995719571501
 51
0.000042804284961
  0
LINE
  5
1E1
  8
0
 10
170.95910761692301
 20
140.52801038007789
 30
0.0
 11
170.95910761692301
 21
142.7280103800779
 31
0.0
  0
LINE
  5
1E2
  8
0
 10
170.95910761692301
 20
142.7280103800779
 30
0.0
 11
170.95910761692301
 21
144.92801038007789
 31
0.0
  0
ARC
  5
1E3
  8
0
 10
170.6591078410456
 20
144.92801060420049
 30
0.0
 40
0.2999997758775221
 50
359.99995719571513
 51
90.000042804290374
  0
LINE
  5
1E4
  8
0
 10
170.659107616923
 20
145.2280103800779
 30
0.0
 11
170.568879616923
 21
145.2280103800779
 31
0.0
  0
ARC
  5
1E5
  8
0
 10
170.56887957468609
 20
145.72800963428509
 30
0.0
 40
0.4999992542071557
 50
216.34808882069501
 51
270.00000484000009
  0
ARC
  5
1E6
  8
0
 10
170.60302741312691
 20
145.6748740307967
 30
0.0
 40
0.4999995504912824
 50
134.9999551849474
 51
209.10540061512739
  0
LINE
  5
1E7
  8
0
 10
170.2494746169231
 20
146.02842738007789
 30
0.0
 11
183.12911861692299
 21
158.9080713800779
 31
0.0
  0
ARC
  5
1E8
  8
0
 10
185.957545616923
 20
156.07964860617321
 30
0.0
 40
3.9999968352827748
 50
44.999957195713137
 51
135.00004280428681
  0
LINE
  5
1E9
  8
0
 10
188.785972616923
 20
158.9080713800779
 30
0.0
 11
201.61247961692311
 21
146.08156338007791
 31
0.0
  0
ARC
  5
1EA
  8
0
 10
201.2589267528422
 20
145.72801000020041
 30
0.0
 40
0.4999996201224717
 50
269.99998442480069
 51
45.000041794252951
  0
LINE
  5
1EB
  8
0
 10
201.25892661692311
 20
145.2280103800779
 30
0.0
 11
201.2575456169231
 21
145.2280103800779
 31
0.0
  0
ARC
  5
1EC
  8
0
 10
201.25754539280049
 20
144.92801060420049
 30
0.0
 40
0.2999997758775221
 50
89.999957195709612
 51
180.0000428042849
  0
LINE
  5
1ED
  8
0
 10
200.95754561692311
 20
144.92801038007789
 30
0.0
 11
200.95754561692311
 21
140.52801038007789
 31
0.0
  0
ARC
  5
1EE
  8
0
 10
201.25754539280049
 20
140.5280101559554
 30
0.0
 40
0.2999997758775506
 50
179.99995719571501
 51
270.00004280428487
  0
LINE
  5
1EF
  8
0
 10
201.2575456169231
 20
140.2280103800779
 30
0.0
 11
201.34777261692301
 21
140.2280103800779
 31
0.0
  0
ARC
  5
1F0
  8
0
 10
201.347773869451
 20
139.72801034657451
 30
0.0
 40
0.5000000335049379
 50
33.055832666491071
 51
90.000143529119455
  0
ARC
  5
1F1
  8
0
 10
205.95754515054941
 20
142.7280065900751
 30
0.0
 40
4.9999971233190523
 50
213.05569084301311
 51
224.9999730691267
  0
ARC
  5
1F2
  8
0
 10
205.95754132692031
 20
142.728005134168
 30
0.0
 40
4.9999933901227589
 50
224.9999922544196
 51
236.9442744805331
  0
ARC
  5
1F3
  8
0
 10
202.9575460053733
 20
138.11823821065221
 30
0.0
 40
0.4999996115497772
 50
0.000019414773865
 51
56.944330277401001
  0
LINE
  5
1F4
  8
0
 10
203.45754561692311
 20
138.11823838007791
 30
0.0
 11
203.45754561692311
 21
137.4277273800779
 31
0.0
  0
ARC
  5
1F5
  8
0
 10
202.95754569237849
 20
137.42772741968821
 30
0.0
 40
0.4999999245445127
 50
277.13131792720202
 51
359.99999546099832
  0
ARC
  5
1F6
  8
0
 10
203.76449615827761
 20
130.9779942527698
 30
0.0
 40
6.000017535345652
 50
97.131444551321536
 51
126.64189065220251
  0
ARC
  5
1F7
  8
0
 10
216.2976106897458
 20
114.1279447086949
 30
0.0
 40
27.000092047034052
 50
126.64195622978001
 51
142.88168088132889
  0
ARC
  5
1F8
  8
0
 10
197.9575498672358
 20
128.0076495932974
 30
0.0
 40
4.000004250312851
 50
142.88174641946671
 51
179.99998873021181
  0
LINE
  5
1F9
  8
0
 10
193.957545616923
 20
128.00765038007791
 30
0.0
 11
193.957545616923
 21
127.2280103800779
 31
0.0
  0
ARC
  5
1FA
  8
0
 10
191.45754748461101
 20
127.22800851239001
 30
0.0
 40
2.4999981323127409
 50
269.99995719571308
 51
0.0000428042869152
  0
LINE
  5
1FB
  8
0
 10
191.457545616923
 20
124.7280103800779
 30
0.0
 11
180.45910761692309
 21
124.7280103800779
 31
0.0
  0
LINE
  5
1FC
  8
0
 10
203.75598261692309
 20
147.7280103800779
 30
0.0
 11
208.1575456169231
 21
147.7280103800779
 31
0.0
  0
ARC
  5
1FD
  8
0
 10
208.15754543047291
 20
147.4280104404813
 30
0.0
 40
0.2999999395967461
 50
342.2973616153019
 51
89.999964390639676
  0
ARC
  5
1FE
  8
0
 10
208.72913399334061
 20
147.24556492368501
 30
0.0
 40
0.2999999369037228
 50
162.2974825426017
 51
238.47023995423669
  0
ARC
  5
1FF
  8
0
 10
205.95755408026511
 20
142.7280213967407
 30
0.0
 40
4.9999863585879956
 50
44.999979310776411
 51
58.470268902196217
  0
ARC
  5
200
  8
0
 10
205.95755086283319
 20
142.7280146700806
 30
0.0
 40
4.9999933901226381
 50
33.055725519467842
 51
45.000007745581343
  0
ARC
  5
201
  8
0
 10
210.56731778634881
 20
145.7280099916276
 30
0.0
 40
0.4999996115497462
 50
213.05566972259351
 51
269.99998058522289
  0
LINE
  5
202
  8
0
 10
210.56731761692311
 20
145.2280103800779
 30
0.0
 11
211.25782861692309
 21
145.2280103800779
 31
0.0
  0
ARC
  5
203
  8
0
 10
211.25782857731281
 20
145.72801030462239
 30
0.0
 40
0.4999999245444842
 50
270.00000453900498
 51
352.86868207280122
  0
ARC
  5
204
  8
0
 10
217.7075617442313
 20
144.92105983872329
 30
0.0
 40
6.0000175353457834
 50
143.35810934779741
 51
172.86855544867831
  0
ARC
  5
205
  8
0
 10
234.55761078830599
 20
132.3879488117289
 30
0.0
 40
27.000089554329719
 50
127.1183244524989
 51
143.35804910404789
  0
ARC
  5
206
  8
0
 10
220.6779059037035
 20
150.72800464053131
 30
0.0
 40
4.0000057395466913
 50
90.000004107821823
 51
127.1182464185668
  0
LINE
  5
207
  8
0
 10
220.67790561692311
 20
154.72801038007799
 30
0.0
 11
221.45754561692311
 21
154.72801038007799
 31
0.0
  0
ARC
  5
208
  8
0
 10
221.45754748461101
 20
157.22800851239001
 30
0.0
 40
2.4999981323127409
 50
269.99995719571251
 51
0.0000428042862638
  0
LINE
  5
209
  8
0
 10
223.95754561692311
 20
157.2280103800779
 30
0.0
 11
223.95754561692311
 21
158.7280103800779
 31
0.0
  0
ARC
  5
20A
  8
0
 10
221.95754711107341
 20
158.72801187422829
 30
0.0
 40
1.9999985058502039
 50
359.99995719571342
 51
90.000042804286593
  0
LINE
  5
20B
  8
0
 10
221.95754561692311
 20
160.7280103800779
 30
0.0
 11
190.154601616923
 21
160.7264483800779
 31
0.0
  0
ARC
  5
20C
  8
0
 10
190.15460098100391
 20
160.22644855284901
 30
0.0
 40
0.4999998272293519
 50
89.999927129007986
 51
224.99998449845501
  0
LINE
  5
20D
  8
0
 10
189.801047616923
 20
159.87289538007789
 30
0.0
 11
202.60243461692309
 21
147.07150738007789
 31
0.0
  0
ARC
  5
20E
  8
0
 10
202.95598806357569
 20
147.42506064773119
 30
0.0
 40
0.4999999527082525
 50
224.99998549595941
 51
0.2112766628241665
  0
LINE
  5
20F
  8
0
 10
217.85754561692309
 20
124.1280103800779
 30
0.0
 11
217.35754561692309
 21
124.6280103800779
 31
0.0
  0
LINE
  5
210
  8
0
 10
217.35754561692309
 20
124.6280103800779
 30
0.0
 11
217.35754561692309
 21
128.00765038007791
 31
0.0
  0
LINE
  5
211
  8
0
 10
217.35754561692309
 20
128.00765038007791
 30
0.0
 11
216.3827466169231
 21
130.3905893800779
 31
0.0
  0
LINE
  5
212
  8
0
 10
216.3827466169231
 20
130.3905893800779
 30
0.0
 11
216.3858406169231
 21
131.09457438007789
 31
0.0
  0
LINE
  5
213
  8
0
 10
216.3858406169231
 20
131.09457438007789
 30
0.0
 11
216.98841061692309
 21
131.6971453800779
 31
0.0
  0
LINE
  5
214
  8
0
 10
216.98841061692309
 20
131.6971453800779
 30
0.0
 11
217.59098161692299
 21
132.29971538007791
 31
0.0
  0
LINE
  5
215
  8
0
 10
217.59098161692299
 20
132.29971538007791
 30
0.0
 11
218.29496661692309
 21
132.30280938007789
 31
0.0
  0
LINE
  5
216
  8
0
 10
218.29496661692309
 20
132.30280938007789
 30
0.0
 11
220.67790561692311
 21
131.3280103800779
 31
0.0
  0
LINE
  5
217
  8
0
 10
220.67790561692311
 20
131.3280103800779
 30
0.0
 11
224.05754561692311
 21
131.3280103800779
 31
0.0
  0
LINE
  5
218
  8
0
 10
224.05754561692311
 20
131.3280103800779
 30
0.0
 11
224.55754561692299
 21
130.8280103800779
 31
0.0
  0
LINE
  5
219
  8
0
 10
224.55754561692299
 20
130.8280103800779
 30
0.0
 11
224.55754561692299
 21
126.2675123800779
 31
0.0
  0
LINE
  5
21A
  8
0
 10
224.55754561692299
 20
126.2675123800779
 30
0.0
 11
221.9986506169231
 21
124.1280103800779
 31
0.0
  0
LINE
  5
21B
  8
0
 10
221.9986506169231
 20
124.1280103800779
 30
0.0
 11
217.85754561692309
 21
124.1280103800779
 31
0.0
  0
LINE
  5
21C
  8
0
 10
208.457545616923
 20
136.82256738007791
 30
0.0
 11
208.457545616923
 21
138.11823838007791
 31
0.0
  0
LINE
  5
21D
  8
0
 10
208.457545616923
 20
138.11823838007791
 30
0.0
 11
208.68481761692311
 21
138.53730838007789
 31
0.0
  0
LINE
  5
21E
  8
0
 10
208.68481761692311
 20
138.53730838007789
 30
0.0
 11
209.4930796169231
 21
139.19247638007789
 31
0.0
  0
LINE
  5
21F
  8
0
 10
209.4930796169231
 20
139.19247638007789
 30
0.0
 11
210.1482476169231
 21
140.00073838007791
 31
0.0
  0
LINE
  5
220
  8
0
 10
210.1482476169231
 20
140.00073838007791
 30
0.0
 11
210.56731761692311
 21
140.2280103800779
 31
0.0
  0
LINE
  5
221
  8
0
 10
210.56731761692311
 20
140.2280103800779
 30
0.0
 11
211.8629886169231
 21
140.2280103800779
 31
0.0
  0
LINE
  5
222
  8
0
 10
211.8629886169231
 20
140.2280103800779
 30
0.0
 11
212.35828961692309
 21
139.79639538007791
 31
0.0
  0
LINE
  5
223
  8
0
 10
212.35828961692309
 20
139.79639538007791
 30
0.0
 11
213.3746876169231
 21
137.31216838007791
 31
0.0
  0
LINE
  5
224
  8
0
 10
213.3746876169231
 20
137.31216838007791
 30
0.0
 11
216.58832361692299
 21
133.72719738007791
 31
0.0
  0
LINE
  5
225
  8
0
 10
216.58832361692299
 20
133.72719738007791
 30
0.0
 11
216.60155061692311
 21
133.00734038007789
 31
0.0
  0
LINE
  5
226
  8
0
 10
216.60155061692311
 20
133.00734038007789
 30
0.0
 11
216.13988261692299
 21
132.54567338007789
 31
0.0
  0
LINE
  5
227
  8
0
 10
216.13988261692299
 20
132.54567338007789
 30
0.0
 11
215.6782156169231
 21
132.08400538007791
 31
0.0
  0
LINE
  5
228
  8
0
 10
215.6782156169231
 20
132.08400538007791
 30
0.0
 11
214.95835861692311
 21
132.09723238007791
 31
0.0
  0
LINE
  5
229
  8
0
 10
214.95835861692311
 20
132.09723238007791
 30
0.0
 11
211.373387616923
 21
135.31086738007789
 31
0.0
  0
LINE
  5
22A
  8
0
 10
211.373387616923
 20
135.31086738007789
 30
0.0
 11
208.88916061692311
 21
136.3272653800779
 31
0.0
  0
LINE
  5
22B
  8
0
 10
208.88916061692311
 20
136.3272653800779
 30
0.0
 11
208.457545616923
 21
136.82256738007791
 31
0.0
  0
LINE
  5
22C
  8
1
 10
185.95910761692301
 20
98.89641991001605
 30
0.0
 11
185.95910761692301
 21
38.89641991001605
 31
0.0
  0
LINE
  5
22D
  8
1
 10
165.95910761692309
 20
98.89641991001605
 30
0.0
 11
165.95910761692309
 21
38.89641991001605
 31
0.0
  0
LINE
  5
22E
  8
1
 10
205.95910761692301
 20
98.89641991001605
 30
0.0
 11
205.95910761692301
 21
38.89641991001605
 31
0.0
  0
LINE
  5
230
  8
0
 10
317.85218500005112
 20
122.7249270633541
 30
0.0
 11
317.85218500005112
 21
162.7249270633541
 31
0.0
  0
LINE
  5
231
  8
0
 10
267.85218500005112
 20
122.7249270633541
 30
0.0
 11
267.85218500005112
 21
162.7249270633541
 31
0.0
  0
LINE
  5
232
  8
0
 10
317.85218500005112
 20
122.7249270633541
 30
0.0
 11
267.85218500005112
 21
122.7249270633541
 31
0.0
  0
LINE
  5
233
  8
0
 10
267.85218500005112
 20
162.7249270633541
 30
0.0
 11
317.85218500005112
 21
162.7249270633541
 31
0.0
  0
LINE
  5
234
  8
1
 10
262.85218500005101
 20
142.7249270633541
 30
0.0
 11
322.85218500005112
 21
142.7249270633541
 31
0.0
  0
LINE
  5
235
  8
0
 10
267.85218500005112
 20
146.7249270633537
 30
0.0
 11
317.85218500005112
 21
146.7249270633537
 31
0.0
  0
LINE
  5
236
  8
0
 10
267.85218500005112
 20
138.7249270633545
 30
0.0
 11
317.85218500005112
 21
138.72492706335461
 31
0.0
  0
LINE
  5
237
  8
1
 10
185.958129616923
 20
167.72624188007791
 30
0.0
 11
185.958129616923
 21
117.7280103800779
 31
0.0
  0
LINE
  5
238
  8
1
 10
140.95910761692301
 20
142.72624188007791
 30
0.0
 11
230.95754561692311
 21
142.72624188007791
 31
0.0
  0
LINE
  5
239
  8
1
 10
165.95910761692301
 20
167.72525940680791
 30
0.0
 11
165.95910761692301
 21
117.7280103800779
 31
0.0
  0
LINE
  5
23A
  8
1
 10
205.95715161692311
 20
167.72525940680791
 30
0.0
 11
205.95715161692311
 21
117.7280103800779
 31
0.0
  0
INSERT
  5
23B
  8
0
  2
STDGX5
 10
0.0
 20
0.0
 30
0.0
  0
TEXT
  5
321
  8
0
 62
     3
 10
0.0
 20
0.0
 30
0.0
 40
10.0
  1
SPE8040N3-3M
  7
STANDARD1
  0
ENDSEC
  0
EOF
