  0
SECTION
  2
HEADER
  9
$ACADVER
  1
AC1009
  9
$INSBASE
 10
0.0
 20
0.0
 30
0.0
  9
$EXTMIN
 10
0.0
 20
-2.960436562073669
 30
0.0
  9
$EXTMAX
 10
251.65279368175811
 20
221.6851059242158
 30
0.0
  9
$LIMMIN
 10
0.0
 20
0.0
  9
$LIMMAX
 10
375.0
 20
270.0
  9
$ORTHOMODE
 70
     1
  9
$REGENMODE
 70
     1
  9
$FILLMODE
 70
     1
  9
$QTEXTMODE
 70
     0
  9
$MIRRTEXT
 70
     0
  9
$DRAGMODE
 70
     2
  9
$LTSCALE
 40
5.0
  9
$OSMODE
 70
    55
  9
$ATTMODE
 70
     1
  9
$TEXTSIZE
 40
4.000000000000048
  9
$TRACEWID
 40
0.05
  9
$TEXTSTYLE
  7
STANDARD
  9
$CLAYER
  8
0
  9
$CELTYPE
  6
BYLAYER
  9
$CECOLOR
 62
   256
  9
$DIMSCALE
 40
0.5
  9
$DIMASZ
 40
3.0
  9
$DIMEXO
 40
2.0
  9
$DIMDLI
 40
0.38
  9
$DIMRND
 40
0.0
  9
$DIMDLE
 40
0.0
  9
$DIMEXE
 40
2.0
  9
$DIMTP
 40
0.0
  9
$DIMTM
 40
0.0
  9
$DIMTXT
 40
3.2000000000000002
  9
$DIMCEN
 40
0.0
  9
$DIMTSZ
 40
0.0
  9
$DIMTOL
 70
     0
  9
$DIMLIM
 70
     0
  9
$DIMTIH
 70
     0
  9
$DIMTOH
 70
     0
  9
$DIMSE1
 70
     0
  9
$DIMSE2
 70
     0
  9
$DIMTAD
 70
     1
  9
$DIMZIN
 70
     0
  9
$DIMBLK
  1

  9
$DIMASO
 70
     0
  9
$DIMSHO
 70
     0
  9
$DIMPOST
  1

  9
$DIMAPOST
  1

  9
$DIMALT
 70
     0
  9
$DIMALTD
 70
     2
  9
$DIMALTF
 40
25.399999999999999
  9
$DIMLFAC
 40
1.0
  9
$DIMTOFL
 70
     0
  9
$DIMTVP
 40
1.6000000000000001
  9
$DIMTIX
 70
     1
  9
$DIMSOXD
 70
     0
  9
$DIMSAH
 70
     0
  9
$DIMBLK1
  1

  9
$DIMBLK2
  1

  9
$DIMSTYLE
  2
STANDARD
  9
$DIMCLRD
 70
     4
  9
$DIMCLRE
 70
     4
  9
$DIMCLRT
 70
     4
  9
$DIMTFAC
 40
1.0
  9
$DIMGAP
 40
0.09
  9
$LUNITS
 70
     2
  9
$LUPREC
 70
     1
  9
$SKETCHINC
 40
0.1
  9
$FILLETRAD
 40
0.0
  9
$AUNITS
 70
     0
  9
$AUPREC
 70
     0
  9
$MENU
  1
E:\r13\win\SUPPORT\ACAD
  9
$ELEVATION
 40
0.0
  9
$PELEVATION
 40
0.0
  9
$THICKNESS
 40
0.0
  9
$LIMCHECK
 70
     0
  9
$BLIPMODE
 70
     0
  9
$CHAMFERA
 40
1.1999999999999991
  9
$CHAMFERB
 40
1.1999999999999991
  9
$SKPOLY
 70
     0
  9
$TDCREATE
 40
2449983.4221527781
  9
$TDUPDATE
 40
2456598.5457437732
  9
$TDINDWG
 40
0.0135940741
  9
$TDUSRTIMER
 40
0.0135940741
  9
$USRTIMER
 70
     1
  9
$ANGBASE
 50
0.0
  9
$ANGDIR
 70
     0
  9
$PDMODE
 70
     0
  9
$PDSIZE
 40
0.0
  9
$PLINEWID
 40
0.0
  9
$COORDS
 70
     1
  9
$SPLFRAME
 70
     0
  9
$SPLINETYPE
 70
     6
  9
$SPLINESEGS
 70
     8
  9
$ATTDIA
 70
     0
  9
$ATTREQ
 70
     1
  9
$HANDLING
 70
     1
  9
$HANDSEED
  5
2D0
  9
$SURFTAB1
 70
     6
  9
$SURFTAB2
 70
     6
  9
$SURFTYPE
 70
     6
  9
$SURFU
 70
     6
  9
$SURFV
 70
     6
  9
$UCSNAME
  2

  9
$UCSORG
 10
0.0
 20
0.0
 30
0.0
  9
$UCSXDIR
 10
1.0
 20
0.0
 30
0.0
  9
$UCSYDIR
 10
0.0
 20
1.0
 30
0.0
  9
$PUCSNAME
  2

  9
$PUCSORG
 10
0.0
 20
0.0
 30
0.0
  9
$PUCSXDIR
 10
1.0
 20
0.0
 30
0.0
  9
$PUCSYDIR
 10
0.0
 20
1.0
 30
0.0
  9
$USERI1
 70
     0
  9
$USERI2
 70
     1
  9
$USERI3
 70
     0
  9
$USERI4
 70
     0
  9
$USERI5
 70
     0
  9
$USERR1
 40
0.0
  9
$USERR2
 40
0.0
  9
$USERR3
 40
0.0
  9
$USERR4
 40
0.0
  9
$USERR5
 40
0.0
  9
$WORLDVIEW
 70
     1
  9
$SHADEDGE
 70
     3
  9
$SHADEDIF
 70
    70
  9
$TILEMODE
 70
     1
  9
$MAXACTVP
 70
    16
  9
$PLIMCHECK
 70
     0
  9
$PEXTMIN
 10
1.0000000000000000E+020
 20
1.0000000000000000E+020
 30
1.0000000000000000E+020
  9
$PEXTMAX
 10
-1.0000000000000000E+020
 20
-1.0000000000000000E+020
 30
-1.0000000000000000E+020
  9
$PLIMMIN
 10
0.0
 20
0.0
  9
$PLIMMAX
 10
12.0
 20
9.0
  9
$UNITMODE
 70
     0
  9
$VISRETAIN
 70
     0
  9
$PLINEGEN
 70
     0
  9
$PSLTSCALE
 70
     0
  0
ENDSEC
  0
SECTION
  2
TABLES
  0
TABLE
  2
VPORT
 70
     1
  0
VPORT
  2
*ACTIVE
 70
     0
 10
0.0
 20
0.0
 11
1.0
 21
1.0
 12
187.49427839065231
 22
174.91677254346851
 13
0.0
 23
0.0
 14
5.0
 24
5.0
 15
5.0
 25
5.0
 16
0.0
 26
0.0
 36
1.0
 17
0.0
 27
0.0
 37
0.0
 40
358.92027899574339
 41
1.7807262569832401
 42
50.0
 43
0.0
 44
0.0
 50
0.0
 51
0.0
 71
     0
 72
   500
 73
     1
 74
     0
 75
     0
 76
     0
 77
     0
 78
     2
  0
ENDTAB
  0
TABLE
  2
LTYPE
 70
     3
  0
LTYPE
  2
CONTINUOUS
 70
     0
  3
Solid Line
 72
    65
 73
     0
 40
0.0
  0
LTYPE
  2
CENTER
 70
     0
  3
____ _ ____ _ ____ _ ____ _ ____ _ ____ _ ____
 72
    65
 73
     4
 40
2.0
 49
1.25
 49
-0.25
 49
0.25
 49
-0.25
  0
LTYPE
  2
PHANTOM2
 70
     0
  3
___ _ _ ___ _ _ ___ _ _ ___ _ _
 72
    65
 73
     6
 40
1.25
 49
0.625
 49
-0.125
 49
0.125
 49
-0.125
 49
0.125
 49
-0.125
  0
ENDTAB
  0
TABLE
  2
LAYER
 70
     6
  0
LAYER
  2
0
 70
     0
 62
     7
  6
CONTINUOUS
  0
LAYER
  2
1
 70
     0
 62
     1
  6
CENTER
  0
LAYER
  2
11
 70
     0
 62
     3
  6
CONTINUOUS
  0
LAYER
  2
ITEM_HILFE
 70
     0
 62
     7
  6
CONTINUOUS
  0
LAYER
  2
4
 70
     0
 62
     4
  6
CONTINUOUS
  0
LAYER
  2
81TEXT
 70
     0
 62
     3
  6
CONTINUOUS
  0
ENDTAB
  0
TABLE
  2
STYLE
 70
     2
  0
STYLE
  2
STANDARD
 70
     0
 40
0.0
 41
1.0
 50
0.0
 71
     0
 42
4.000000000000048
  3
SIMPLEX
  4
BIGFONT
  0
STYLE
  2
STANDARD1
 70
     0
 40
0.0
 41
1.0
 50
0.0
 71
     0
 42
3.0
  3
txt
  4

  0
ENDTAB
  0
TABLE
  2
VIEW
 70
     1
  0
VIEW
  2
ALL
 70
     0
 40
270.0
 10
220.78595317725751
 20
135.0
 41
441.57190635451502
 11
0.0
 21
0.0
 31
1.0
 12
0.0
 22
0.0
 32
0.0
 42
50.0
 43
0.0
 44
0.0
 50
0.0
 71
     0
  0
ENDTAB
  0
TABLE
  2
UCS
 70
     0
  0
ENDTAB
  0
TABLE
  2
APPID
 70
     3
  0
APPID
  2
ACAD
 70
     0
  0
APPID
  2
ACAD_MLEADERVER
 70
     0
  0
APPID
  2
ACAD_NAV_VCDISPLAY
 70
     0
  0
ENDTAB
  0
TABLE
  2
DIMSTYLE
 70
     1
  0
DIMSTYLE
  2
STANDARD
 70
     0
  3

  4

  5

  6

  7

 40
1.0
 41
0.18
 42
0.0625
 43
0.38
 44
0.18
 45
0.0
 46
0.0
 47
0.0
 48
0.0
140
0.18
141
0.09
142
0.0
143
25.399999999999999
144
1.0
145
0.0
146
1.0
147
0.09
 71
     0
 72
     0
 73
     1
 74
     1
 75
     0
 76
     0
 77
     0
 78
     0
170
     0
171
     2
172
     0
173
     0
174
     0
175
     0
176
     0
177
     0
178
     0
  0
ENDTAB
  0
ENDSEC
  0
SECTION
  2
BLOCKS
  0
BLOCK
  8
0
  2
$MODEL_SPACE
 70
     0
 10
0.0
 20
0.0
 30
0.0
  3
$MODEL_SPACE
  1

  0
ENDBLK
  5
187
  8
0
  0
BLOCK
 67
     1
  8
0
  2
$PAPER_SPACE
 70
     0
 10
0.0
 20
0.0
 30
0.0
  3
$PAPER_SPACE
  1

  0
ENDBLK
  5
185
 67
     1
  8
0
  0
BLOCK
  8
0
  2
ACAD
 70
     0
 10
0.0
 20
0.0
 30
0.0
  3
ACAD
  1

  0
ENDBLK
  5
32
  8
0
  0
BLOCK
  8
0
  2
37346B
 70
     0
 10
0.0
 20
0.0
 30
0.0
  3
37346B
  1

  0
ENDBLK
  5
34
  8
0
  0
BLOCK
  8
0
  2
37390B
 70
     0
 10
0.0
 20
0.0
 30
0.0
  3
37390B
  1

  0
ENDBLK
  5
36
  8
0
  0
BLOCK
  8
4
  2
STDGX5
 70
     0
 10
0.0
 20
0.0
 30
0.0
  3
STDGX5
  1

  0
ENDBLK
  5
38
  8
4
  0
ENDSEC
  0
SECTION
  2
ENTITIES
  0
INSERT
  5
47
  8
ITEM_HILFE
  2
ACAD
 10
420.47038640269437
 20
52.14760014433341
 30
0.0
  0
INSERT
  5
48
  8
0
  2
ACAD
 10
617.03158240269443
 20
240.9286191443334
 30
0.0
  0
INSERT
  5
49
  8
0
  2
37346B
 10
415.86889140269437
 20
-65.540325855666595
 30
0.0
  0
INSERT
  5
4A
  8
0
  2
37390B
 10
415.86889140269437
 20
-65.540325855666595
 30
0.0
  0
INSERT
  5
4B
  8
0
  2
37346B
 10
415.86889140269437
 20
-65.540325855666595
 30
0.0
  0
INSERT
  5
4C
  8
0
  2
37390B
 10
415.86889140269437
 20
-65.540325855666595
 30
0.0
  0
INSERT
  5
4D
  8
0
  2
37346B
 10
434.6535064026944
 20
342.13659714433339
 30
0.0
  0
INSERT
  5
4E
  8
0
  2
37390B
 10
434.6535064026944
 20
342.13659714433339
 30
0.0
  0
INSERT
  5
4F
  8
0
  2
37346B
 10
434.6535064026944
 20
342.13659714433339
 30
0.0
  0
INSERT
  5
50
  8
0
  2
37390B
 10
434.6535064026944
 20
342.13659714433339
 30
0.0
  0
INSERT
  5
51
  8
0
  2
37390B
 10
929.27323040269437
 20
252.6224901443334
 30
0.0
  0
INSERT
  5
54
  8
4
  2
STDGX5
 10
384.92850274165249
 20
16.70417973026629
 30
0.0
  0
INSERT
  5
60
  8
81TEXT
  6
CONTINUOUS
  2
STDGX5
 10
384.92850274165249
 20
16.70417973026629
 30
0.0
  0
INSERT
  5
61
  8
0
  2
STDGX5
 10
710.74098068548881
 20
31.509951431282509
 30
0.0
  0
INSERT
  5
62
  8
0
  2
STDGX5
 10
710.74098068548881
 20
31.509951431282509
 30
0.0
  0
INSERT
  5
63
  8
0
  2
STDGX5
 10
710.74098068548881
 20
31.509951431282509
 30
0.0
  0
INSERT
  5
65
  8
4
  6
CONTINUOUS
  2
STDGX5
 10
721.21778172138727
 20
36.129803852823812
 30
0.0
  0
INSERT
  5
67
  8
81TEXT
  6
CONTINUOUS
  2
STDGX5
 10
384.92850274165249
 20
16.70417973026629
 30
0.0
  0
INSERT
  5
68
  8
81TEXT
  6
CONTINUOUS
  2
STDGX5
 10
384.92850274165249
 20
16.70417973026629
 30
0.0
  0
INSERT
  5
69
  8
81TEXT
  6
CONTINUOUS
  2
STDGX5
 10
384.92850274165249
 20
16.70417973026629
 30
0.0
  0
INSERT
  5
6C
  8
4
  2
STDGX5
 10
712.84910759001923
 20
37.625714247752263
 30
0.0
  0
INSERT
  5
78
  8
81TEXT
  6
CONTINUOUS
  2
STDGX5
 10
712.84910759001923
 20
37.625714247752263
 30
0.0
  0
INSERT
  5
79
  8
0
  2
STDGX5
 10
1038.6615855338559
 20
52.431485948768469
 30
0.0
  0
INSERT
  5
7A
  8
0
  2
STDGX5
 10
1038.6615855338559
 20
52.431485948768469
 30
0.0
  0
INSERT
  5
7B
  8
0
  2
STDGX5
 10
1038.6615855338559
 20
52.431485948768469
 30
0.0
  0
INSERT
  5
7D
  8
4
  6
CONTINUOUS
  2
STDGX5
 10
1049.1383865697539
 20
57.051338370309779
 30
0.0
  0
INSERT
  5
7F
  8
81TEXT
  6
CONTINUOUS
  2
STDGX5
 10
712.84910759001923
 20
37.625714247752263
 30
0.0
  0
INSERT
  5
80
  8
81TEXT
  6
CONTINUOUS
  2
STDGX5
 10
712.84910759001923
 20
37.625714247752263
 30
0.0
  0
INSERT
  5
81
  8
81TEXT
  6
CONTINUOUS
  2
STDGX5
 10
712.84910759001923
 20
37.625714247752263
 30
0.0
  0
INSERT
  5
83
  8
81TEXT
  6
CONTINUOUS
  2
STDGX5
 10
1046.1538348166489
 20
57.782126382280268
 30
0.0
  0
INSERT
  5
84
  8
81TEXT
  6
CONTINUOUS
  2
STDGX5
 10
1046.1538348166489
 20
57.782126382280268
 30
0.0
  0
INSERT
  5
85
  8
11
  2
STDGX5
 10
1386.2038252538921
 20
60.281984772072569
 30
0.0
  0
INSERT
  5
86
  8
4
  2
STDGX5
 10
1386.2038252538921
 20
60.281984772072569
 30
0.0
  0
INSERT
  5
87
  8
11
  2
STDGX5
 10
1413.1629282545489
 20
82.961295769244146
 30
0.0
  0
INSERT
  5
88
  8
4
  2
STDGX5
 10
1413.1629282545489
 20
82.961295769244146
 30
0.0
  0
INSERT
  5
8A
  8
81TEXT
  6
CONTINUOUS
  2
STDGX5
 10
1385.2378592971941
 20
75.624218674608898
 30
0.0
  0
INSERT
  5
8B
  8
81TEXT
  6
CONTINUOUS
  2
STDGX5
 10
1385.2378592971941
 20
75.624218674608898
 30
0.0
  0
INSERT
  5
8D
  8
81TEXT
  6
CONTINUOUS
  2
STDGX5
 10
1721.44671146885
 20
85.430273596036415
 30
0.0
  0
INSERT
  5
8E
  8
81TEXT
  6
CONTINUOUS
  2
STDGX5
 10
1721.44671146885
 20
85.430273596036415
 30
0.0
  0
INSERT
  5
90
  8
81TEXT
  6
CONTINUOUS
  2
STDGX5
 10
2080.1022373302048
 20
87.925728967705595
 30
0.0
  0
INSERT
  5
91
  8
81TEXT
  6
CONTINUOUS
  2
STDGX5
 10
2080.1022373302048
 20
87.925728967705595
 30
0.0
  0
INSERT
  5
93
  8
81TEXT
  6
CONTINUOUS
  2
STDGX5
 10
1724.5113394498931
 20
91.294003932613009
 30
0.0
  0
INSERT
  5
94
  8
81TEXT
  6
CONTINUOUS
  2
STDGX5
 10
1724.5113394498931
 20
91.294003932613009
 30
0.0
  0
INSERT
  5
96
  8
81TEXT
  6
CONTINUOUS
  2
STDGX5
 10
2083.1668653112479
 20
93.78945930428219
 30
0.0
  0
INSERT
  5
97
  8
81TEXT
  6
CONTINUOUS
  2
STDGX5
 10
2083.1668653112479
 20
93.78945930428219
 30
0.0
  0
INSERT
  5
98
  8
81TEXT
  6
CONTINUOUS
  2
STDGX5
 10
1724.5113394498931
 20
91.294003932613009
 30
0.0
  0
INSERT
  5
9A
  8
81TEXT
  6
CONTINUOUS
  2
STDGX5
 10
1386.2398725933019
 20
73.5208839643891
 30
0.0
  0
INSERT
  5
9B
  8
81TEXT
  6
CONTINUOUS
  2
STDGX5
 10
1386.2398725933019
 20
73.5208839643891
 30
0.0
  0
INSERT
  5
9D
  8
81TEXT
  6
CONTINUOUS
  2
STDGX5
 10
1739.3773341270701
 20
82.173699009793353
 30
0.0
  0
INSERT
  5
9E
  8
81TEXT
  6
CONTINUOUS
  2
STDGX5
 10
1739.3773341270701
 20
82.173699009793353
 30
0.0
  0
INSERT
  5
A0
  8
81TEXT
  6
CONTINUOUS
  2
STDGX5
 10
2098.032859988426
 20
84.669154381462533
 30
0.0
  0
INSERT
  5
A1
  8
81TEXT
  6
CONTINUOUS
  2
STDGX5
 10
2098.032859988426
 20
84.669154381462533
 30
0.0
  0
INSERT
  5
A2
  8
11
  2
STDGX5
 10
1716.471653178512
 20
77.166251802355305
 30
0.0
  0
INSERT
  5
A3
  8
4
  2
STDGX5
 10
1716.471653178512
 20
77.166251802355305
 30
0.0
  0
INSERT
  5
A4
  8
81TEXT
  6
CONTINUOUS
  2
STDGX5
 10
1386.2398725933019
 20
73.5208839643891
 30
0.0
  0
INSERT
  5
A5
  8
81TEXT
  6
CONTINUOUS
  2
STDGX5
 10
1386.2398725933019
 20
73.5208839643891
 30
0.0
  0
INSERT
  5
A7
  8
81TEXT
  6
CONTINUOUS
  2
STDGX5
 10
1389.6037899500971
 20
70.839602042582314
 30
0.0
  0
INSERT
  5
A8
  8
81TEXT
  6
CONTINUOUS
  2
STDGX5
 10
1389.6037899500971
 20
70.839602042582314
 30
0.0
  0
INSERT
  5
AA
  8
81TEXT
  6
CONTINUOUS
  2
STDGX5
 10
1748.2593158114521
 20
73.335057414251509
 30
0.0
  0
INSERT
  5
AB
  8
81TEXT
  6
CONTINUOUS
  2
STDGX5
 10
1748.2593158114521
 20
73.335057414251509
 30
0.0
  0
INSERT
  5
AC
  8
81TEXT
  6
CONTINUOUS
  2
STDGX5
 10
1389.6037899500971
 20
70.839602042582314
 30
0.0
  0
INSERT
  5
AE
  8
81TEXT
  6
CONTINUOUS
  2
STDGX5
 10
1391.365217243341
 20
78.703423163487685
 30
0.0
  0
INSERT
  5
B0
  8
81TEXT
  6
CONTINUOUS
  2
STDGX5
 10
1382.6657869345649
 20
66.228573406750201
 30
0.0
  0
INSERT
  5
B1
  8
81TEXT
  6
CONTINUOUS
  2
STDGX5
 10
1382.6657869345649
 20
66.228573406750201
 30
0.0
  0
INSERT
  5
B3
  8
81TEXT
  6
CONTINUOUS
  2
STDGX5
 10
1718.8746391062209
 20
76.034628328177718
 30
0.0
  0
INSERT
  5
B4
  8
81TEXT
  6
CONTINUOUS
  2
STDGX5
 10
1718.8746391062209
 20
76.034628328177718
 30
0.0
  0
INSERT
  5
B6
  8
81TEXT
  6
CONTINUOUS
  2
STDGX5
 10
2077.5301649675762
 20
78.530083699846884
 30
0.0
  0
INSERT
  5
B7
  8
81TEXT
  6
CONTINUOUS
  2
STDGX5
 10
2077.5301649675762
 20
78.530083699846884
 30
0.0
  0
INSERT
  5
B9
  8
81TEXT
  6
CONTINUOUS
  2
STDGX5
 10
1721.9392670872639
 20
81.898358664754326
 30
0.0
  0
INSERT
  5
BA
  8
81TEXT
  6
CONTINUOUS
  2
STDGX5
 10
1721.9392670872639
 20
81.898358664754326
 30
0.0
  0
INSERT
  5
BC
  8
81TEXT
  6
CONTINUOUS
  2
STDGX5
 10
2080.5947929486192
 20
84.393814036423464
 30
0.0
  0
INSERT
  5
BD
  8
81TEXT
  6
CONTINUOUS
  2
STDGX5
 10
2080.5947929486192
 20
84.393814036423464
 30
0.0
  0
INSERT
  5
BE
  8
81TEXT
  6
CONTINUOUS
  2
STDGX5
 10
1721.9392670872639
 20
81.898358664754326
 30
0.0
  0
INSERT
  5
BF
  8
0
  2
STDGX5
 10
1403.623889955272
 20
96.64072575090438
 30
0.0
 41
0.3
 42
0.3
 43
0.3
  0
INSERT
  5
C0
  8
0
  2
STDGX5
 10
1403.623889955272
 20
96.64072575090438
 30
0.0
 41
0.3
 42
0.3
 43
0.3
  0
INSERT
  5
C1
  8
0
  2
STDGX5
 10
1421.8104234722191
 20
110.14072575090439
 30
0.0
 41
0.3
 42
0.3
 43
0.3
  0
INSERT
  5
C2
  8
0
  2
STDGX5
 10
1590.430890487705
 20
138.49716230098599
 30
0.0
 41
0.3
 42
0.3
 43
0.3
  0
INSERT
  5
C3
  8
0
  2
STDGX5
 10
1558.0593681816069
 20
168.37366658709561
 30
0.0
 41
0.3
 42
0.3
 43
0.3
  0
INSERT
  5
C4
  8
0
  2
STDGX5
 10
1558.0593681816069
 20
168.37366658709561
 30
0.0
 41
0.3
 42
0.3
 43
0.3
  0
INSERT
  5
C6
  8
81TEXT
  6
CONTINUOUS
  2
STDGX5
 10
1034.0023134625001
 20
46.587742588264142
 30
0.0
  0
INSERT
  5
C7
  8
81TEXT
  6
CONTINUOUS
  2
STDGX5
 10
1034.0023134625001
 20
46.587742588264142
 30
0.0
  0
INSERT
  5
C8
  8
11
  2
STDGX5
 10
1374.052303899743
 20
49.087600978056429
 30
0.0
  0
INSERT
  5
C9
  8
4
  2
STDGX5
 10
1374.052303899743
 20
49.087600978056429
 30
0.0
  0
INSERT
  5
CA
  8
11
  2
STDGX5
 10
1401.0114069004001
 20
71.766911975227984
 30
0.0
  0
INSERT
  5
CB
  8
4
  2
STDGX5
 10
1401.0114069004001
 20
71.766911975227984
 30
0.0
  0
INSERT
  5
CD
  8
81TEXT
  6
CONTINUOUS
  2
STDGX5
 10
1373.086337943045
 20
64.429834880592779
 30
0.0
  0
INSERT
  5
CE
  8
81TEXT
  6
CONTINUOUS
  2
STDGX5
 10
1373.086337943045
 20
64.429834880592779
 30
0.0
  0
INSERT
  5
D0
  8
81TEXT
  6
CONTINUOUS
  2
STDGX5
 10
1709.295190114701
 20
74.235889802020296
 30
0.0
  0
INSERT
  5
D1
  8
81TEXT
  6
CONTINUOUS
  2
STDGX5
 10
1709.295190114701
 20
74.235889802020296
 30
0.0
  0
INSERT
  5
D3
  8
81TEXT
  6
CONTINUOUS
  2
STDGX5
 10
2067.950715976056
 20
76.731345173689476
 30
0.0
  0
INSERT
  5
D4
  8
81TEXT
  6
CONTINUOUS
  2
STDGX5
 10
2067.950715976056
 20
76.731345173689476
 30
0.0
  0
INSERT
  5
D6
  8
81TEXT
  6
CONTINUOUS
  2
STDGX5
 10
1712.359818095744
 20
80.099620138596904
 30
0.0
  0
INSERT
  5
D7
  8
81TEXT
  6
CONTINUOUS
  2
STDGX5
 10
1712.359818095744
 20
80.099620138596904
 30
0.0
  0
INSERT
  5
D9
  8
81TEXT
  6
CONTINUOUS
  2
STDGX5
 10
2071.015343957099
 20
82.595075510266042
 30
0.0
  0
INSERT
  5
DA
  8
81TEXT
  6
CONTINUOUS
  2
STDGX5
 10
2071.015343957099
 20
82.595075510266042
 30
0.0
  0
INSERT
  5
DB
  8
81TEXT
  6
CONTINUOUS
  2
STDGX5
 10
1712.359818095744
 20
80.099620138596904
 30
0.0
  0
INSERT
  5
DD
  8
81TEXT
  6
CONTINUOUS
  2
STDGX5
 10
1374.0883512391531
 20
62.326500170372967
 30
0.0
  0
INSERT
  5
DE
  8
81TEXT
  6
CONTINUOUS
  2
STDGX5
 10
1374.0883512391531
 20
62.326500170372967
 30
0.0
  0
INSERT
  5
E0
  8
81TEXT
  6
CONTINUOUS
  2
STDGX5
 10
1727.225812772921
 20
70.979315215777234
 30
0.0
  0
INSERT
  5
E1
  8
81TEXT
  6
CONTINUOUS
  2
STDGX5
 10
1727.225812772921
 20
70.979315215777234
 30
0.0
  0
INSERT
  5
E3
  8
81TEXT
  6
CONTINUOUS
  2
STDGX5
 10
2085.8813386342772
 20
73.4747705874464
 30
0.0
  0
INSERT
  5
E4
  8
81TEXT
  6
CONTINUOUS
  2
STDGX5
 10
2085.8813386342772
 20
73.4747705874464
 30
0.0
  0
INSERT
  5
E5
  8
11
  2
STDGX5
 10
1704.320131824363
 20
65.971868008339186
 30
0.0
  0
INSERT
  5
E6
  8
4
  2
STDGX5
 10
1704.320131824363
 20
65.971868008339186
 30
0.0
  0
INSERT
  5
E7
  8
81TEXT
  6
CONTINUOUS
  2
STDGX5
 10
1374.0883512391531
 20
62.326500170372967
 30
0.0
  0
INSERT
  5
E8
  8
81TEXT
  6
CONTINUOUS
  2
STDGX5
 10
1374.0883512391531
 20
62.326500170372967
 30
0.0
  0
INSERT
  5
EA
  8
81TEXT
  6
CONTINUOUS
  2
STDGX5
 10
1377.452268595948
 20
59.645218248566188
 30
0.0
  0
INSERT
  5
EB
  8
81TEXT
  6
CONTINUOUS
  2
STDGX5
 10
1377.452268595948
 20
59.645218248566188
 30
0.0
  0
INSERT
  5
ED
  8
81TEXT
  6
CONTINUOUS
  2
STDGX5
 10
1736.107794457304
 20
62.140673620235368
 30
0.0
  0
INSERT
  5
EE
  8
81TEXT
  6
CONTINUOUS
  2
STDGX5
 10
1736.107794457304
 20
62.140673620235368
 30
0.0
  0
INSERT
  5
EF
  8
81TEXT
  6
CONTINUOUS
  2
STDGX5
 10
1377.452268595948
 20
59.645218248566188
 30
0.0
  0
INSERT
  5
F1
  8
81TEXT
  6
CONTINUOUS
  2
STDGX5
 10
1379.213695889192
 20
67.509039369471552
 30
0.0
  0
INSERT
  5
F3
  8
81TEXT
  6
CONTINUOUS
  2
STDGX5
 10
1370.5142655804159
 20
55.034189612734068
 30
0.0
  0
INSERT
  5
F4
  8
81TEXT
  6
CONTINUOUS
  2
STDGX5
 10
1370.5142655804159
 20
55.034189612734068
 30
0.0
  0
INSERT
  5
F6
  8
81TEXT
  6
CONTINUOUS
  2
STDGX5
 10
1706.7231177520721
 20
64.840244534161599
 30
0.0
  0
INSERT
  5
F7
  8
81TEXT
  6
CONTINUOUS
  2
STDGX5
 10
1706.7231177520721
 20
64.840244534161599
 30
0.0
  0
INSERT
  5
F9
  8
81TEXT
  6
CONTINUOUS
  2
STDGX5
 10
2065.3786436134269
 20
67.335699905830765
 30
0.0
  0
INSERT
  5
FA
  8
81TEXT
  6
CONTINUOUS
  2
STDGX5
 10
2065.3786436134269
 20
67.335699905830765
 30
0.0
  0
INSERT
  5
FC
  8
81TEXT
  6
CONTINUOUS
  2
STDGX5
 10
1709.787745733114
 20
70.703974870738165
 30
0.0
  0
INSERT
  5
FD
  8
81TEXT
  6
CONTINUOUS
  2
STDGX5
 10
1709.787745733114
 20
70.703974870738165
 30
0.0
  0
INSERT
  5
FF
  8
81TEXT
  6
CONTINUOUS
  2
STDGX5
 10
2068.4432715944699
 20
73.199430242407345
 30
0.0
  0
INSERT
  5
100
  8
81TEXT
  6
CONTINUOUS
  2
STDGX5
 10
2068.4432715944699
 20
73.199430242407345
 30
0.0
  0
INSERT
  5
101
  8
81TEXT
  6
CONTINUOUS
  2
STDGX5
 10
1709.787745733114
 20
70.703974870738165
 30
0.0
  0
INSERT
  5
102
  8
0
  2
STDGX5
 10
1391.472368601123
 20
85.446341956888233
 30
0.0
 41
0.3
 42
0.3
 43
0.3
  0
INSERT
  5
103
  8
0
  2
STDGX5
 10
1391.472368601123
 20
85.446341956888233
 30
0.0
 41
0.3
 42
0.3
 43
0.3
  0
INSERT
  5
104
  8
0
  2
STDGX5
 10
1409.65890211807
 20
98.946341956888233
 30
0.0
 41
0.3
 42
0.3
 43
0.3
  0
INSERT
  5
105
  8
0
  2
STDGX5
 10
1578.279369133556
 20
127.3027785069699
 30
0.0
 41
0.3
 42
0.3
 43
0.3
  0
INSERT
  5
106
  8
0
  2
STDGX5
 10
1545.9078468274579
 20
157.17928279307941
 30
0.0
 41
0.3
 42
0.3
 43
0.3
  0
INSERT
  5
107
  8
0
  2
STDGX5
 10
1545.9078468274579
 20
157.17928279307941
 30
0.0
 41
0.3
 42
0.3
 43
0.3
  0
INSERT
  5
108
  8
11
  2
STDGX5
 10
1357.319436277427
 20
57.141517843099621
 30
0.0
  0
INSERT
  5
109
  8
4
  2
STDGX5
 10
1357.319436277427
 20
57.141517843099621
 30
0.0
  0
INSERT
  5
10B
  8
ITEM_HILFE
  2
ACAD
 10
749.33293494902648
 20
72.136818317336505
 30
0.0
  0
INSERT
  5
10C
  8
0
  2
ACAD
 10
945.89413094902648
 20
260.91783731733648
 30
0.0
  0
INSERT
  5
10D
  8
0
  2
37346B
 10
744.73143994902648
 20
-45.551107682663478
 30
0.0
  0
INSERT
  5
10E
  8
0
  2
37390B
 10
744.73143994902648
 20
-45.551107682663478
 30
0.0
  0
INSERT
  5
10F
  8
0
  2
37346B
 10
744.73143994902648
 20
-45.551107682663478
 30
0.0
  0
INSERT
  5
110
  8
0
  2
37390B
 10
744.73143994902648
 20
-45.551107682663478
 30
0.0
  0
INSERT
  5
111
  8
0
  2
37346B
 10
763.51605494902651
 20
362.1258153173365
 30
0.0
  0
INSERT
  5
112
  8
0
  2
37390B
 10
763.51605494902651
 20
362.1258153173365
 30
0.0
  0
INSERT
  5
113
  8
0
  2
37346B
 10
763.51605494902651
 20
362.1258153173365
 30
0.0
  0
INSERT
  5
114
  8
0
  2
37390B
 10
763.51605494902651
 20
362.1258153173365
 30
0.0
  0
INSERT
  5
115
  8
0
  2
37390B
 10
1258.135778949026
 20
272.61170831733648
 30
0.0
  0
INSERT
  5
118
  8
4
  2
STDGX5
 10
713.61826792977104
 20
36.474520937613683
 30
0.0
  0
INSERT
  5
124
  8
81TEXT
  6
CONTINUOUS
  2
STDGX5
 10
713.61826792977104
 20
36.474520937613683
 30
0.0
  0
INSERT
  5
125
  8
0
  2
STDGX5
 10
1039.4307458736071
 20
51.280292638629881
 30
0.0
  0
INSERT
  5
126
  8
0
  2
STDGX5
 10
1039.4307458736071
 20
51.280292638629881
 30
0.0
  0
INSERT
  5
127
  8
0
  2
STDGX5
 10
1039.4307458736071
 20
51.280292638629881
 30
0.0
  0
INSERT
  5
129
  8
4
  6
CONTINUOUS
  2
STDGX5
 10
1049.907546909506
 20
55.900145060171198
 30
0.0
  0
LINE
  5
12E
  8
0
 10
86.751848809631284
 20
115.41018306196121
 30
0.0
 11
86.751848809631284
 21
123.41018306196121
 31
0.0
  0
LINE
  5
12F
  8
0
 10
86.751848809631284
 20
115.41018306196121
 30
0.0
 11
136.7518488096313
 21
115.41018306196121
 31
0.0
  0
LINE
  5
130
  8
0
 10
136.7518488096313
 20
115.41018306196121
 30
0.0
 11
136.7518488096313
 21
123.41018306196121
 31
0.0
  0
LINE
  5
131
  8
0
 10
86.751848809631284
 20
123.41018306196121
 30
0.0
 11
136.7518488096313
 21
123.41018306196121
 31
0.0
  0
LINE
  5
132
  8
0
 10
251.65279368175811
 20
216.6851059242158
 30
0.0
 11
251.65279368175811
 21
166.6851059242158
 31
0.0
  0
LINE
  5
133
  8
0
 10
251.65279368175811
 20
216.6851059242158
 30
0.0
 11
171.65279368175811
 21
216.6851059242158
 31
0.0
  0
LINE
  5
134
  8
0
 10
251.65279368175811
 20
166.6851059242158
 30
0.0
 11
171.65279368175811
 21
166.6851059242158
 31
0.0
  0
LINE
  5
135
  8
0
 10
171.65279368175811
 20
216.6851059242158
 30
0.0
 11
171.65279368175811
 21
166.6851059242158
 31
0.0
  0
LINE
  5
137
  8
0
 10
231.3527936817581
 20
115.41018306196121
 30
0.0
 11
231.58622968175811
 21
115.5900290619611
 31
0.0
  0
ARC
  5
138
  8
0
 10
231.65279368175811
 20
115.49018320553969
 30
0.0
 40
0.119999838085411
 50
56.309894447203369
 51
123.6901055527966
  0
LINE
  5
139
  8
0
 10
231.71935768175811
 20
115.5900290619611
 30
0.0
 11
231.9527936817581
 21
115.41018306196121
 31
0.0
  0
LINE
  5
13A
  8
0
 10
231.9527936817581
 20
115.41018306196121
 30
0.0
 11
251.15279368175811
 21
115.41018306196121
 31
0.0
  0
ARC
  5
13B
  8
0
 10
251.15279405529569
 20
115.9101826884236
 30
0.0
 40
0.4999996264625512
 50
269.99995719571177
 51
0.0000428042865895
  0
LINE
  5
13C
  8
0
 10
251.65279368175811
 20
115.91018306196121
 30
0.0
 11
251.65279368175811
 21
119.41018306196121
 31
0.0
  0
ARC
  5
13D
  8
0
 10
247.65279667005879
 20
119.4101860502619
 30
0.0
 40
3.9999970117003798
 50
359.99995719571302
 51
90.000042804286991
  0
LINE
  5
13E
  8
0
 10
247.65279368175811
 20
123.41018306196121
 30
0.0
 11
175.65279368175811
 21
123.41018306196121
 31
0.0
  0
ARC
  5
13F
  8
0
 10
175.6527906934574
 20
119.4101860502619
 30
0.0
 40
3.9999970117003798
 50
89.999957195712994
 51
180.00004280428701
  0
LINE
  5
140
  8
0
 10
171.65279368175811
 20
119.41018306196121
 30
0.0
 11
171.65279368175811
 21
115.91018306196121
 31
0.0
  0
ARC
  5
141
  8
0
 10
172.15279330822051
 20
115.9101826884236
 30
0.0
 40
0.4999996264625369
 50
179.99995719571339
 51
270.00004280428823
  0
LINE
  5
142
  8
0
 10
172.15279368175811
 20
115.41018306196121
 30
0.0
 11
191.3527936817581
 21
115.41018306196121
 31
0.0
  0
LINE
  5
143
  8
0
 10
191.3527936817581
 20
115.41018306196121
 30
0.0
 11
191.58622968175811
 21
115.5900290619611
 31
0.0
  0
ARC
  5
144
  8
0
 10
191.65279368175811
 20
115.49018320553969
 30
0.0
 40
0.119999838085411
 50
56.309894447203369
 51
123.6901055527966
  0
LINE
  5
145
  8
0
 10
191.71935768175811
 20
115.5900290619611
 30
0.0
 11
191.9527936817581
 21
115.41018306196121
 31
0.0
  0
LINE
  5
146
  8
0
 10
191.9527936817581
 20
115.41018306196121
 30
0.0
 11
211.3527936817581
 21
115.41018306196121
 31
0.0
  0
LINE
  5
147
  8
0
 10
211.3527936817581
 20
115.41018306196121
 30
0.0
 11
211.58622968175811
 21
115.5900290619611
 31
0.0
  0
ARC
  5
148
  8
0
 10
211.65279368175811
 20
115.49018320553969
 30
0.0
 40
0.119999838085411
 50
56.309894447203369
 51
123.6901055527966
  0
LINE
  5
149
  8
0
 10
211.71935768175811
 20
115.5900290619611
 30
0.0
 11
211.9527936817581
 21
115.41018306196121
 31
0.0
  0
LINE
  5
14A
  8
0
 10
211.9527936817581
 20
115.41018306196121
 30
0.0
 11
231.3527936817581
 21
115.41018306196121
 31
0.0
  0
LINE
  5
14B
  8
1
 10
211.65279368175811
 20
161.6851059242158
 30
0.0
 11
211.65279368175811
 21
221.6851059242158
 31
0.0
  0
LINE
  5
14C
  8
1
 10
211.65279368175811
 20
128.41018306196119
 30
0.0
 11
211.65279368175811
 21
110.41018306196121
 31
0.0
  0
INSERT
  5
14D
  8
0
  2
STDGX5
 10
0.0
 20
0.0
 30
0.0
  0
TEXT
  5
234
  8
0
 62
     3
 10
0.0
 20
0.0
 30
0.0
 40
10.0
  1
SPEM808RN-2M
  7
STANDARD1
  0
ENDSEC
  0
EOF
