  0
SECTION
  2
HEADER
  9
$ACADVER
  1
AC1009
  9
$INSBASE
 10
0.0
 20
0.0
 30
0.0
  9
$EXTMIN
 10
0.0
 20
-2.960436562073669
 30
0.0
  9
$EXTMAX
 10
568.54981001567978
 20
492.0638011483266
 30
0.0
  9
$LIMMIN
 10
0.0
 20
0.0
  9
$LIMMAX
 10
275.0
 20
175.0
  9
$ORTHOMODE
 70
     1
  9
$REGENMODE
 70
     1
  9
$FILLMODE
 70
     1
  9
$QTEXTMODE
 70
     0
  9
$MIRRTEXT
 70
     0
  9
$DRAGMODE
 70
     2
  9
$LTSCALE
 40
10.0
  9
$OSMODE
 70
    55
  9
$ATTMODE
 70
     1
  9
$TEXTSIZE
 40
0.2
  9
$TRACEWID
 40
0.05
  9
$TEXTSTYLE
  7
STANDARD
  9
$CLAYER
  8
0
  9
$CELTYPE
  6
BYLAYER
  9
$CECOLOR
 62
   256
  9
$DIMSCALE
 40
1.0
  9
$DIMASZ
 40
3.0
  9
$DIMEXO
 40
1.0
  9
$DIMDLI
 40
6.0
  9
$DIMRND
 40
0.0
  9
$DIMDLE
 40
0.0
  9
$DIMEXE
 40
1.0
  9
$DIMTP
 40
495.0
  9
$DIMTM
 40
0.0
  9
$DIMTXT
 40
3.0
  9
$DIMCEN
 40
0.0
  9
$DIMTSZ
 40
0.0
  9
$DIMTOL
 70
     0
  9
$DIMLIM
 70
     0
  9
$DIMTIH
 70
     0
  9
$DIMTOH
 70
     0
  9
$DIMSE1
 70
     0
  9
$DIMSE2
 70
     0
  9
$DIMTAD
 70
     1
  9
$DIMZIN
 70
     0
  9
$DIMBLK
  1

  9
$DIMASO
 70
     0
  9
$DIMSHO
 70
     0
  9
$DIMPOST
  1

  9
$DIMAPOST
  1

  9
$DIMALT
 70
     0
  9
$DIMALTD
 70
     2
  9
$DIMALTF
 40
25.399999999999999
  9
$DIMLFAC
 40
1.0
  9
$DIMTOFL
 70
     1
  9
$DIMTVP
 40
0.0
  9
$DIMTIX
 70
     1
  9
$DIMSOXD
 70
     0
  9
$DIMSAH
 70
     0
  9
$DIMBLK1
  1

  9
$DIMBLK2
  1

  9
$DIMSTYLE
  2
STANDARD
  9
$DIMCLRD
 70
     0
  9
$DIMCLRE
 70
     0
  9
$DIMCLRT
 70
     4
  9
$DIMTFAC
 40
1.0
  9
$DIMGAP
 40
1.0
  9
$LUNITS
 70
     2
  9
$LUPREC
 70
     4
  9
$SKETCHINC
 40
0.1
  9
$FILLETRAD
 40
0.0
  9
$AUNITS
 70
     0
  9
$AUPREC
 70
     0
  9
$MENU
  1
E:\r13\win\SUPPORT\ACAD
  9
$ELEVATION
 40
0.0
  9
$PELEVATION
 40
0.0
  9
$THICKNESS
 40
0.0
  9
$LIMCHECK
 70
     0
  9
$BLIPMODE
 70
     0
  9
$CHAMFERA
 40
0.0
  9
$CHAMFERB
 40
0.0
  9
$SKPOLY
 70
     0
  9
$TDCREATE
 40
2450653.5278402781
  9
$TDUPDATE
 40
2456598.5487818518
  9
$TDINDWG
 40
0.0462379398
  9
$TDUSRTIMER
 40
0.0462379398
  9
$USRTIMER
 70
     1
  9
$ANGBASE
 50
0.0
  9
$ANGDIR
 70
     0
  9
$PDMODE
 70
     0
  9
$PDSIZE
 40
0.0
  9
$PLINEWID
 40
0.0
  9
$COORDS
 70
     1
  9
$SPLFRAME
 70
     0
  9
$SPLINETYPE
 70
     6
  9
$SPLINESEGS
 70
     8
  9
$ATTDIA
 70
     0
  9
$ATTREQ
 70
     1
  9
$HANDLING
 70
     1
  9
$HANDSEED
  5
3F5
  9
$SURFTAB1
 70
     6
  9
$SURFTAB2
 70
     6
  9
$SURFTYPE
 70
     6
  9
$SURFU
 70
     6
  9
$SURFV
 70
     6
  9
$UCSNAME
  2

  9
$UCSORG
 10
0.0
 20
0.0
 30
0.0
  9
$UCSXDIR
 10
1.0
 20
0.0
 30
0.0
  9
$UCSYDIR
 10
0.0
 20
1.0
 30
0.0
  9
$PUCSNAME
  2

  9
$PUCSORG
 10
0.0
 20
0.0
 30
0.0
  9
$PUCSXDIR
 10
1.0
 20
0.0
 30
0.0
  9
$PUCSYDIR
 10
0.0
 20
1.0
 30
0.0
  9
$USERI1
 70
     4
  9
$USERI2
 70
     1
  9
$USERI3
 70
     1
  9
$USERI4
 70
     0
  9
$USERI5
 70
     0
  9
$USERR1
 40
1.0
  9
$USERR2
 40
3.0
  9
$USERR3
 40
3.0
  9
$USERR4
 40
3.0
  9
$USERR5
 40
10.0
  9
$WORLDVIEW
 70
     1
  9
$SHADEDGE
 70
     3
  9
$SHADEDIF
 70
    70
  9
$TILEMODE
 70
     1
  9
$MAXACTVP
 70
    16
  9
$PLIMCHECK
 70
     0
  9
$PEXTMIN
 10
1.0000000000000000E+020
 20
1.0000000000000000E+020
 30
1.0000000000000000E+020
  9
$PEXTMAX
 10
-1.0000000000000000E+020
 20
-1.0000000000000000E+020
 30
-1.0000000000000000E+020
  9
$PLIMMIN
 10
0.0
 20
0.0
  9
$PLIMMAX
 10
12.0
 20
9.0
  9
$UNITMODE
 70
     0
  9
$VISRETAIN
 70
     0
  9
$PLINEGEN
 70
     0
  9
$PSLTSCALE
 70
     0
  0
ENDSEC
  0
SECTION
  2
TABLES
  0
TABLE
  2
VPORT
 70
     1
  0
VPORT
  2
*ACTIVE
 70
     0
 10
0.0
 20
0.0
 11
1.0
 21
1.0
 12
284.27490633159812
 22
319.63832551039911
 13
0.0
 23
0.0
 14
5.0
 24
5.0
 15
10.0
 25
10.0
 16
0.0
 26
0.0
 36
1.0
 17
0.0
 27
0.0
 37
0.0
 40
650.9285775147913
 41
1.7807262569832401
 42
50.0
 43
0.0
 44
0.0
 50
0.0
 51
0.0
 71
     0
 72
   100
 73
     1
 74
     0
 75
     0
 76
     0
 77
     0
 78
     0
  0
ENDTAB
  0
TABLE
  2
LTYPE
 70
     3
  0
LTYPE
  2
CONTINUOUS
 70
     0
  3
Solid Line
 72
    65
 73
     0
 40
0.0
  0
LTYPE
  2
CENTER
 70
     0
  3
____ _ ____ _ ____ _ ____ _ ____ _ ____ _ ____
 72
    65
 73
     4
 40
2.0
 49
1.25
 49
-0.25
 49
0.25
 49
-0.25
  0
LTYPE
  2
PHANTOM2
 70
     0
  3
___ _ _ ___ _ _ ___ _ _ ___ _ _
 72
    65
 73
     6
 40
1.25
 49
0.625
 49
-0.125
 49
0.125
 49
-0.125
 49
0.125
 49
-0.125
  0
ENDTAB
  0
TABLE
  2
LAYER
 70
     3
  0
LAYER
  2
0
 70
     0
 62
     7
  6
CONTINUOUS
  0
LAYER
  2
10
 70
     0
 62
     7
  6
CONTINUOUS
  0
LAYER
  2
1
 70
     0
 62
     1
  6
CENTER
  0
ENDTAB
  0
TABLE
  2
STYLE
 70
     2
  0
STYLE
  2
STANDARD
 70
     0
 40
0.0
 41
1.0
 50
0.0
 71
     0
 42
0.2
  3
simplex
  4
bigfont
  0
STYLE
  2
STANDARD1
 70
     0
 40
0.0
 41
1.0
 50
0.0
 71
     0
 42
3.0
  3
txt
  4

  0
ENDTAB
  0
TABLE
  2
VIEW
 70
     0
  0
ENDTAB
  0
TABLE
  2
UCS
 70
     0
  0
ENDTAB
  0
TABLE
  2
APPID
 70
    13
  0
APPID
  2
ACAD
 70
     0
  0
APPID
  2
GENIUS_GENODEF_13
 70
     0
  0
APPID
  2
GENIUS_GENOENT_13
 70
     0
  0
APPID
  2
GENIUS_GENOBJ-N-CEN_13
 70
     0
  0
APPID
  2
GENIUS_GENOLIS_13
 70
     0
  0
APPID
  2
GENIUS_GENOREF_13
 70
     0
  0
APPID
  2
GENIUS_GENOBJ-N-CRS_13
 70
     0
  0
APPID
  2
GENIUS_GENOBJ-N-FIL_13
 70
     0
  0
APPID
  2
GENIUS_GENOBJ-N-REC_13
 70
     0
  0
APPID
  2
GENIUS_GENFIL_13
 70
     0
  0
APPID
  2
GENIUS_GENOBJ-N-CHA_13
 70
     0
  0
APPID
  2
ACAD_MLEADERVER
 70
     0
  0
APPID
  2
ACAD_NAV_VCDISPLAY
 70
     0
  0
ENDTAB
  0
TABLE
  2
DIMSTYLE
 70
     1
  0
DIMSTYLE
  2
STANDARD
 70
     0
  3

  4

  5

  6

  7

 40
1.0
 41
0.18
 42
0.0625
 43
0.38
 44
0.18
 45
0.0
 46
0.0
 47
0.0
 48
0.0
140
0.18
141
0.09
142
0.0
143
25.399999999999999
144
1.0
145
0.0
146
1.0
147
0.09
 71
     0
 72
     0
 73
     1
 74
     1
 75
     0
 76
     0
 77
     0
 78
     0
170
     0
171
     2
172
     0
173
     0
174
     0
175
     0
176
     0
177
     0
178
     0
  0
ENDTAB
  0
ENDSEC
  0
SECTION
  2
BLOCKS
  0
BLOCK
  8
0
  2
$MODEL_SPACE
 70
     0
 10
0.0
 20
0.0
 30
0.0
  3
$MODEL_SPACE
  1

  0
ENDBLK
  5
7
  8
0
  0
BLOCK
 67
     1
  8
0
  2
$PAPER_SPACE
 70
     0
 10
0.0
 20
0.0
 30
0.0
  3
$PAPER_SPACE
  1

  0
ENDBLK
  5
A
 67
     1
  8
0
  0
BLOCK
  8
0
  2
DEFAULT
 70
     0
 10
0.0
 20
0.0
 30
0.0
  3
DEFAULT
  1

  0
POINT
  5
67
  8
0
 10
-488.20278060220659
 20
-246.77073567490731
 30
0.0
1001
GENIUS_GENODEF_13
1002
{
1000
HIER
1070
    10
1002
}
1002
{
1000
MANEDIT
1070
     0
1002
}
1002
{
1000
NOSEL
1070
     0
1002
}
1002
{
1000
BEHIND
1070
     0
1002
}
1002
{
1000
REACTOR
1002
}
1001
GENIUS_GENOBJ-N-CRS_13
1002
{
1000
OWNER
1000
GEN
1002
}
1001
GENIUS_GENOENT_13
1002
{
1000
MYREF
1005
67
1002
}
1002
{
1000
GRP
1005
0
1002
}
1001
GENIUS_GENOLIS_13
1002
{
1000
ENT
1005
0
1005
0
1005
0
1005
0
1002
}
  0
POINT
  5
68
  8
0
 10
-488.20278060220659
 20
-246.77073567490731
 30
0.0
1001
GENIUS_GENODEF_13
1002
{
1000
HIER
1070
    10
1002
}
1002
{
1000
MANEDIT
1070
     0
1002
}
1002
{
1000
NOSEL
1070
     0
1002
}
1002
{
1000
BEHIND
1070
     0
1002
}
1002
{
1000
REACTOR
1002
}
1001
GENIUS_GENOBJ-N-CRS_13
1002
{
1000
OWNER
1000
GEN
1002
}
1001
GENIUS_GENOENT_13
1002
{
1000
MYREF
1005
68
1002
}
1002
{
1000
GRP
1005
0
1002
}
1001
GENIUS_GENOLIS_13
1002
{
1000
ENT
1005
0
1005
0
1005
0
1005
0
1002
}
  0
POINT
  5
69
  8
0
 10
-488.20278060220659
 20
-246.77073567490731
 30
0.0
1001
GENIUS_GENODEF_13
1002
{
1000
HIER
1070
    10
1002
}
1002
{
1000
MANEDIT
1070
     0
1002
}
1002
{
1000
NOSEL
1070
     0
1002
}
1002
{
1000
BEHIND
1070
     0
1002
}
1002
{
1000
REACTOR
1002
}
1001
GENIUS_GENOBJ-N-CRS_13
1002
{
1000
OWNER
1000
GEN
1002
}
1001
GENIUS_GENOENT_13
1002
{
1000
MYREF
1005
69
1002
}
1002
{
1000
GRP
1005
0
1002
}
1001
GENIUS_GENOLIS_13
1002
{
1000
ENT
1005
0
1005
0
1005
0
1005
0
1002
}
  0
POINT
  5
6A
  8
0
 10
-488.20278060220659
 20
-246.77073567490731
 30
0.0
1001
GENIUS_GENODEF_13
1002
{
1000
HIER
1070
    10
1002
}
1002
{
1000
MANEDIT
1070
     0
1002
}
1002
{
1000
NOSEL
1070
     0
1002
}
1002
{
1000
BEHIND
1070
     0
1002
}
1002
{
1000
REACTOR
1002
}
1001
GENIUS_GENOBJ-N-CRS_13
1002
{
1000
OWNER
1000
GEN
1002
}
1001
GENIUS_GENOENT_13
1002
{
1000
MYREF
1005
6A
1002
}
1002
{
1000
GRP
1005
0
1002
}
1001
GENIUS_GENOLIS_13
1002
{
1000
ENT
1005
0
1005
0
1005
0
1005
0
1002
}
  0
POINT
  5
6B
  8
0
 10
-266.60723849871289
 20
-28.956162336900409
 30
0.0
1001
GENIUS_GENODEF_13
1002
{
1000
HIER
1070
    10
1002
}
1002
{
1000
MANEDIT
1070
     0
1002
}
1002
{
1000
NOSEL
1070
     0
1002
}
1002
{
1000
BEHIND
1070
     0
1002
}
1002
{
1000
REACTOR
1002
}
1001
GENIUS_GENOBJ-N-CRS_13
1002
{
1000
OWNER
1000
GEN
1002
}
1001
GENIUS_GENOENT_13
1002
{
1000
MYREF
1005
6B
1002
}
1002
{
1000
GRP
1005
0
1002
}
1001
GENIUS_GENOLIS_13
1002
{
1000
ENT
1005
0
1005
0
1005
0
1005
0
1002
}
  0
POINT
  5
6C
  8
0
 10
-266.60723849871289
 20
-28.956162336900409
 30
0.0
1001
GENIUS_GENODEF_13
1002
{
1000
HIER
1070
    10
1002
}
1002
{
1000
MANEDIT
1070
     0
1002
}
1002
{
1000
NOSEL
1070
     0
1002
}
1002
{
1000
BEHIND
1070
     0
1002
}
1002
{
1000
REACTOR
1002
}
1001
GENIUS_GENOBJ-N-CRS_13
1002
{
1000
OWNER
1000
GEN
1002
}
1001
GENIUS_GENOENT_13
1002
{
1000
MYREF
1005
6C
1002
}
1002
{
1000
GRP
1005
0
1002
}
1001
GENIUS_GENOLIS_13
1002
{
1000
ENT
1005
0
1005
0
1005
0
1005
0
1002
}
  0
POINT
  5
6D
  8
0
 10
-266.60723849871289
 20
-28.956162336900409
 30
0.0
1001
GENIUS_GENODEF_13
1002
{
1000
HIER
1070
    10
1002
}
1002
{
1000
MANEDIT
1070
     0
1002
}
1002
{
1000
NOSEL
1070
     0
1002
}
1002
{
1000
BEHIND
1070
     0
1002
}
1002
{
1000
REACTOR
1002
}
1001
GENIUS_GENOBJ-N-CRS_13
1002
{
1000
OWNER
1000
GEN
1002
}
1001
GENIUS_GENOENT_13
1002
{
1000
MYREF
1005
6D
1002
}
1002
{
1000
GRP
1005
0
1002
}
1001
GENIUS_GENOLIS_13
1002
{
1000
ENT
1005
0
1005
0
1005
0
1005
0
1002
}
  0
POINT
  5
6E
  8
0
 10
-266.60723849871289
 20
-28.956162336900409
 30
0.0
1001
GENIUS_GENODEF_13
1002
{
1000
HIER
1070
    10
1002
}
1002
{
1000
MANEDIT
1070
     0
1002
}
1002
{
1000
NOSEL
1070
     0
1002
}
1002
{
1000
BEHIND
1070
     0
1002
}
1002
{
1000
REACTOR
1002
}
1001
GENIUS_GENOBJ-N-CRS_13
1002
{
1000
OWNER
1000
GEN
1002
}
1001
GENIUS_GENOENT_13
1002
{
1000
MYREF
1005
6E
1002
}
1002
{
1000
GRP
1005
0
1002
}
1001
GENIUS_GENOLIS_13
1002
{
1000
ENT
1005
0
1005
0
1005
0
1005
0
1002
}
  0
ENDBLK
  5
70
  8
0
  0
ENDSEC
  0
SECTION
  2
ENTITIES
  0
ARC
  5
176
  8
0
 10
379.68928039917228
 20
275.73607478907189
 30
0.0
 40
25.0
 50
126.8698976458398
 51
143.62442101279831
  0
ARC
  5
177
  8
0
 10
360.43339298778568
 20
289.9200747890718
 30
0.0
 40
1.0840000000000001
 50
143.62442101279831
 51
270.0
  0
ARC
  5
178
  8
0
 10
239.00928039918151
 20
275.73607478907189
 30
0.0
 40
25.0
 50
36.375578987201692
 51
53.130102354160208
  0
LINE
  5
179
  8
0
 10
254.34928039918171
 20
288.83607478907192
 30
0.0
 11
258.26516781056853
 21
288.83607478907192
 31
0.0
  0
LINE
  5
17A
  8
0
 10
204.34928039918171
 20
288.83607478907192
 30
0.0
 11
200.43339298779529
 21
288.83607478907192
 31
0.0
  0
ARC
  5
17B
  8
0
 10
219.6892803991818
 20
275.73607478907189
 30
0.0
 40
25.0
 50
126.8698976458398
 51
143.62442101279831
  0
ARC
  5
17C
  8
0
 10
200.43339298779529
 20
289.92007478907192
 30
0.0
 40
1.0840000000000001
 50
143.62442101279831
 51
270.0
  0
ARC
  5
17D
  8
0
 10
193.3502177680943
 20
288.28701215799123
 30
0.0
 40
4.0
 50
178.7730688497808
 51
271.2269311502273
  0
ARC
  5
17E
  8
0
 10
218.2651678105685
 20
289.92007478907192
 30
0.0
 40
1.0840000000000001
 50
270.0
 51
36.375578987201692
  0
LINE
  5
17F
  8
0
 10
213.34928039918171
 20
286.0112831079428
 30
0.0
 11
213.34928039918171
 21
287.8360747890718
 31
0.0
  0
LINE
  5
180
  8
0
 10
214.34928039918171
 20
288.83607478907192
 30
0.0
 11
218.2651678105685
 21
288.83607478907192
 31
0.0
  0
ARC
  5
181
  8
0
 10
199.00928039918151
 20
275.73607478907189
 30
0.0
 40
25.0
 50
36.375578987201692
 51
53.130102354160208
  0
LINE
  5
182
  8
0
 10
207.08928039918149
 20
296.5360747890719
 30
0.0
 11
211.60928039918139
 21
296.5360747890719
 31
0.0
  0
LINE
  5
183
  8
0
 10
205.34928039918171
 20
286.0112831079428
 30
0.0
 11
205.34928039918171
 21
287.8360747890718
 31
0.0
  0
ARC
  5
184
  8
0
 10
214.34928039918171
 20
287.8360747890718
 30
0.0
 40
1.0
 50
90.0
 51
180.0
  0
ARC
  5
185
  8
0
 10
211.60928039918139
 20
292.5360747890719
 30
0.0
 40
4.0
 50
53.130102354160208
 51
90.0
  0
ARC
  5
186
  8
0
 10
204.34928039918171
 20
287.8360747890718
 30
0.0
 40
1.0
 50
0.0
 51
90.0
  0
ARC
  5
187
  8
0
 10
207.08928039918149
 20
292.5360747890719
 30
0.0
 40
4.0
 50
90.0
 51
126.8698976458398
  0
LINE
  5
188
  8
0
 10
245.34928039918171
 20
286.0112831079428
 30
0.0
 11
245.34928039918171
 21
287.8360747890718
 31
0.0
  0
ARC
  5
189
  8
0
 10
244.34928039918171
 20
287.8360747890718
 30
0.0
 40
1.0
 50
0.0
 51
90.0
  0
LINE
  5
18A
  8
0
 10
244.34928039918171
 20
288.83607478907192
 30
0.0
 11
240.43339298779529
 21
288.83607478907192
 31
0.0
  0
ARC
  5
18B
  8
0
 10
259.68928039918183
 20
275.73607478907189
 30
0.0
 40
25.0
 50
126.8698976458398
 51
143.62442101279831
  0
ARC
  5
18C
  8
0
 10
247.0892803991814
 20
292.5360747890719
 30
0.0
 40
4.0
 50
90.0
 51
126.8698976458398
  0
LINE
  5
18D
  8
0
 10
247.0892803991814
 20
296.5360747890719
 30
0.0
 11
251.60928039918139
 21
296.5360747890719
 31
0.0
  0
ARC
  5
18E
  8
0
 10
251.60928039918139
 20
292.5360747890719
 30
0.0
 40
4.0
 50
53.130102354160208
 51
90.0
  0
ARC
  5
18F
  8
0
 10
254.34928039918171
 20
287.8360747890718
 30
0.0
 40
1.0
 50
90.0
 51
180.0
  0
LINE
  5
190
  8
0
 10
253.34928039918171
 20
286.0112831079428
 30
0.0
 11
253.34928039918171
 21
287.8360747890718
 31
0.0
  0
ARC
  5
191
  8
0
 10
240.43339298779529
 20
289.92007478907192
 30
0.0
 40
1.0840000000000001
 50
143.62442101279831
 51
270.0
  0
LINE
  5
192
  8
0
 10
284.3492803991785
 20
288.83607478907192
 30
0.0
 11
280.4333929877921
 21
288.83607478907192
 31
0.0
  0
ARC
  5
193
  8
0
 10
299.68928039917859
 20
275.73607478907189
 30
0.0
 40
25.0
 50
126.8698976458398
 51
143.62442101279831
  0
ARC
  5
194
  8
0
 10
258.26516781056853
 20
289.92007478907192
 30
0.0
 40
1.0840000000000001
 50
270.0
 51
36.375578987201692
  0
ARC
  5
195
  8
0
 10
280.4333929877921
 20
289.92007478907192
 30
0.0
 40
1.0840000000000001
 50
143.62442101279831
 51
270.0
  0
LINE
  5
196
  8
0
 10
285.3492803991785
 20
286.0112831079428
 30
0.0
 11
285.3492803991785
 21
287.8360747890718
 31
0.0
  0
ARC
  5
197
  8
0
 10
284.3492803991785
 20
287.8360747890718
 30
0.0
 40
1.0
 50
0.0
 51
90.0
  0
ARC
  5
198
  8
0
 10
287.08928039917828
 20
292.5360747890719
 30
0.0
 40
4.0
 50
90.0
 51
126.8698976458398
  0
LINE
  5
199
  8
0
 10
287.08928039917828
 20
296.53607478907179
 30
0.0
 11
291.60928039917832
 21
296.53607478907179
 31
0.0
  0
ARC
  5
19A
  8
0
 10
291.60928039917832
 20
292.5360747890719
 30
0.0
 40
4.0
 50
53.130102354160208
 51
90.0
  0
ARC
  5
19B
  8
0
 10
279.00928039917829
 20
275.73607478907189
 30
0.0
 40
25.0
 50
36.375578987201692
 51
53.130102354160208
  0
LINE
  5
19C
  8
0
 10
294.3492803991785
 20
288.83607478907192
 30
0.0
 11
298.2651678105654
 21
288.83607478907192
 31
0.0
  0
ARC
  5
19D
  8
0
 10
294.3492803991785
 20
287.8360747890718
 30
0.0
 40
1.0
 50
90.0
 51
180.0
  0
LINE
  5
19E
  8
0
 10
293.3492803991785
 20
286.0112831079428
 30
0.0
 11
293.3492803991785
 21
287.8360747890718
 31
0.0
  0
ARC
  5
19F
  8
0
 10
298.2651678105654
 20
289.92007478907192
 30
0.0
 40
1.0840000000000001
 50
270.0
 51
36.375578987201692
  0
ARC
  5
1A0
  8
0
 10
331.60928039917508
 20
292.5360747890719
 30
0.0
 40
4.0
 50
53.130102354160208
 51
90.0
  0
ARC
  5
1A1
  8
0
 10
334.34928039917531
 20
287.8360747890718
 30
0.0
 40
1.0
 50
90.0
 51
180.0
  0
LINE
  5
1A2
  8
0
 10
325.34928039917531
 20
286.0112831079428
 30
0.0
 11
325.34928039917531
 21
287.8360747890718
 31
0.0
  0
ARC
  5
1A3
  8
0
 10
324.34928039917531
 20
287.8360747890718
 30
0.0
 40
1.0
 50
0.0
 51
90.0
  0
LINE
  5
1A4
  8
0
 10
324.34928039917531
 20
288.83607478907192
 30
0.0
 11
320.43339298778852
 21
288.83607478907192
 31
0.0
  0
ARC
  5
1A5
  8
0
 10
339.68928039917552
 20
275.73607478907189
 30
0.0
 40
25.0
 50
126.8698976458398
 51
143.62442101279831
  0
ARC
  5
1A6
  8
0
 10
327.0892803991751
 20
292.5360747890719
 30
0.0
 40
4.0
 50
90.0
 51
126.8698976458398
  0
LINE
  5
1A7
  8
0
 10
327.0892803991751
 20
296.53607478907179
 30
0.0
 11
331.60928039917508
 21
296.53607478907179
 31
0.0
  0
LINE
  5
1A8
  8
0
 10
333.34928039917531
 20
286.0112831079428
 30
0.0
 11
333.34928039917531
 21
287.8360747890718
 31
0.0
  0
ARC
  5
1A9
  8
0
 10
320.43339298778852
 20
289.92007478907192
 30
0.0
 40
1.0840000000000001
 50
143.62442101279831
 51
270.0
  0
ARC
  5
1AA
  8
0
 10
319.00928039917522
 20
275.73607478907189
 30
0.0
 40
25.0
 50
36.375578987201692
 51
53.130102354160208
  0
LINE
  5
1AB
  8
0
 10
334.34928039917531
 20
288.83607478907192
 30
0.0
 11
338.2651678105621
 21
288.83607478907192
 31
0.0
  0
ARC
  5
1AC
  8
0
 10
338.2651678105621
 20
289.92007478907192
 30
0.0
 40
1.0840000000000001
 50
270.0
 51
36.375578987201692
  0
ARC
  5
1AE
  8
0
 10
259.00928039918148
 20
320.83607478906549
 30
0.0
 40
25.0
 50
306.86989764583979
 51
323.62442101279839
  0
LINE
  5
1AF
  8
0
 10
274.34928039918168
 20
307.73607478906558
 30
0.0
 11
278.26516781056853
 21
307.73607478906558
 31
0.0
  0
LINE
  5
1B0
  8
0
 10
224.34928039918171
 20
307.73607478906558
 30
0.0
 11
220.43339298779529
 21
307.73607478906558
 31
0.0
  0
ARC
  5
1B1
  8
0
 10
239.6892803991818
 20
320.83607478906549
 30
0.0
 40
25.0
 50
216.37557898720169
 51
233.13010235416019
  0
ARC
  5
1B2
  8
0
 10
220.43339298779529
 20
306.65207478906552
 30
0.0
 40
1.0840000000000001
 50
90.0
 51
216.37557898720169
  0
ARC
  5
1B3
  8
0
 10
219.00928039918151
 20
320.83607478906549
 30
0.0
 40
25.0
 50
306.86989764583979
 51
323.62442101279839
  0
ARC
  5
1B4
  8
0
 10
279.68928039918183
 20
320.83607478906549
 30
0.0
 40
25.0
 50
216.37557898720169
 51
233.13010235416019
  0
LINE
  5
1B5
  8
0
 10
227.08928039918149
 20
300.03607478906548
 30
0.0
 11
231.60928039918139
 21
300.03607478906548
 31
0.0
  0
ARC
  5
1B6
  8
0
 10
231.60928039918139
 20
304.03607478906548
 30
0.0
 40
4.0
 50
270.0
 51
306.86989764583979
  0
CIRCLE
  5
1B7
  8
0
 10
209.3492803991717
 20
304.28607478906872
 30
0.0
 40
3.399999999999999
  0
ARC
  5
1B8
  8
0
 10
227.08928039918149
 20
304.03607478906548
 30
0.0
 40
4.0
 50
233.13010235416019
 51
270.0
  0
ARC
  5
1B9
  8
0
 10
267.08928039918152
 20
304.03607478906548
 30
0.0
 40
4.0
 50
233.13010235416019
 51
270.0
  0
LINE
  5
1BA
  8
0
 10
267.08928039918152
 20
300.03607478906548
 30
0.0
 11
271.6092803991815
 21
300.03607478906548
 31
0.0
  0
ARC
  5
1BB
  8
0
 10
271.6092803991815
 20
304.03607478906548
 30
0.0
 40
4.0
 50
270.0
 51
306.86989764583979
  0
CIRCLE
  5
1BC
  8
0
 10
249.3492803991717
 20
304.28607478906872
 30
0.0
 40
3.399999999999999
  0
ARC
  5
1BF
  8
0
 10
238.2651678105685
 20
306.65207478906552
 30
0.0
 40
1.0840000000000001
 50
323.62442101279839
 51
90.0
  0
LINE
  5
1C0
  8
0
 10
233.3492803991733
 20
310.78628307901249
 30
0.0
 11
233.34928039918171
 21
308.73607478906558
 31
0.0
  0
LINE
  5
1C1
  8
0
 10
234.34928039918171
 20
307.73607478906558
 30
0.0
 11
238.2651678105685
 21
307.73607478906558
 31
0.0
  0
LINE
  5
1C2
  8
0
 10
225.3492803991733
 20
310.78628307901249
 30
0.0
 11
225.34928039918171
 21
308.73607478906558
 31
0.0
  0
ARC
  5
1C3
  8
0
 10
234.8492803991733
 20
310.78628307901249
 30
0.0
 40
1.5
 50
90.954841253867912
 51
180.0
  0
ARC
  5
1C4
  8
0
 10
234.34928039918171
 20
308.73607478906558
 30
0.0
 40
1.0
 50
180.0
 51
270.0
  0
ARC
  5
1C5
  8
0
 10
223.8492803991733
 20
310.78628307901249
 30
0.0
 40
1.5
 50
0.0
 51
89.045158746132074
  0
ARC
  5
1C6
  8
0
 10
224.34928039918171
 20
308.73607478906558
 30
0.0
 40
1.0
 50
270.0
 51
0.0
  0
LINE
  5
1C7
  8
0
 10
263.87427692768603
 20
312.2860747890719
 30
0.0
 11
234.72226472087971
 21
312.28089574370767
 31
0.0
  0
LINE
  5
1C8
  8
0
 10
265.34928039918492
 20
310.78628307901249
 30
0.0
 11
265.34928039918168
 21
308.73607478906558
 31
0.0
  0
ARC
  5
1C9
  8
0
 10
264.34928039918168
 20
308.73607478906558
 30
0.0
 40
1.0
 50
270.0
 51
0.0
  0
LINE
  5
1CA
  8
0
 10
264.34928039918168
 20
307.73607478906558
 30
0.0
 11
260.43339298779529
 21
307.73607478906558
 31
0.0
  0
ARC
  5
1CB
  8
0
 10
274.34928039918168
 20
308.73607478906558
 30
0.0
 40
1.0
 50
180.0
 51
270.0
  0
LINE
  5
1CC
  8
0
 10
273.34928039918492
 20
310.78628307901249
 30
0.0
 11
273.34928039918168
 21
308.73607478906558
 31
0.0
  0
ARC
  5
1CD
  8
0
 10
274.84928039918492
 20
310.78628307901249
 30
0.0
 40
1.5
 50
90.954841253867912
 51
180.0
  0
ARC
  5
1CE
  8
0
 10
263.84928039918492
 20
310.78628307901249
 30
0.0
 40
1.5
 50
0.0
 51
89.045158746132074
  0
ARC
  5
1CF
  8
0
 10
260.43339298779529
 20
306.65207478906552
 30
0.0
 40
1.0840000000000001
 50
90.0
 51
216.37557898720169
  0
ARC
  5
1D1
  8
0
 10
299.00928039917841
 20
320.83607478906549
 30
0.0
 40
25.0
 50
306.86989764583979
 51
323.62442101279839
  0
ARC
  5
1D2
  8
0
 10
319.68928039917859
 20
320.83607478906549
 30
0.0
 40
25.0
 50
216.37557898720169
 51
233.13010235416019
  0
ARC
  5
1D3
  8
0
 10
311.60928039917832
 20
304.03607478906548
 30
0.0
 40
4.0
 50
270.0
 51
306.86989764583979
  0
LINE
  5
1D4
  8
0
 10
307.08928039917828
 20
300.03607478906548
 30
0.0
 11
311.60928039917832
 21
300.03607478906548
 31
0.0
  0
ARC
  5
1D5
  8
0
 10
307.08928039917828
 20
304.03607478906548
 30
0.0
 40
4.0
 50
233.13010235416019
 51
270.0
  0
CIRCLE
  5
1D6
  8
0
 10
289.34928039916849
 20
304.28607478906872
 30
0.0
 40
3.399999999999999
  0
LINE
  5
1D7
  8
0
 10
304.3492803991785
 20
307.73607478906558
 30
0.0
 11
300.43339298779159
 21
307.73607478906558
 31
0.0
  0
ARC
  5
1D9
  8
0
 10
300.43339298779159
 20
306.65207478906552
 30
0.0
 40
1.0840000000000001
 50
90.0
 51
216.37557898720169
  0
ARC
  5
1DA
  8
0
 10
278.26516781056853
 20
306.65207478906552
 30
0.0
 40
1.0840000000000001
 50
323.62442101279839
 51
90.0
  0
ARC
  5
1DB
  8
0
 10
314.3492803991785
 20
308.73607478906558
 30
0.0
 40
1.0
 50
180.0
 51
270.0
  0
LINE
  5
1DC
  8
0
 10
314.3492803991785
 20
307.73607478906558
 30
0.0
 11
318.26516781056529
 21
307.73607478906558
 31
0.0
  0
ARC
  5
1DD
  8
0
 10
304.3492803991785
 20
308.73607478906558
 30
0.0
 40
1.0
 50
270.0
 51
0.0
  0
ARC
  5
1DE
  8
0
 10
318.26516781056529
 20
306.65207478906552
 30
0.0
 40
1.0840000000000001
 50
323.62442101279839
 51
90.0
  0
ARC
  5
1DF
  8
0
 10
339.00928039917522
 20
320.83607478906549
 30
0.0
 40
25.0
 50
306.86989764583979
 51
323.62442101279839
  0
ARC
  5
1E0
  8
0
 10
359.6892803991754
 20
320.83607478906549
 30
0.0
 40
25.0
 50
216.37557898720169
 51
233.13010235416019
  0
ARC
  5
1E1
  8
0
 10
351.60928039917547
 20
304.03607478906548
 30
0.0
 40
4.0
 50
270.0
 51
306.86989764583979
  0
LINE
  5
1E2
  8
0
 10
347.0892803991751
 20
300.03607478906548
 30
0.0
 11
351.60928039917508
 21
300.03607478906548
 31
0.0
  0
ARC
  5
1E3
  8
0
 10
347.0892803991751
 20
304.03607478906548
 30
0.0
 40
4.0
 50
233.13010235416019
 51
270.0
  0
CIRCLE
  5
1E4
  8
0
 10
329.34928039916531
 20
304.28607478906872
 30
0.0
 40
3.399999999999999
  0
ARC
  5
1E5
  8
0
 10
354.34928039917531
 20
308.73607478906558
 30
0.0
 40
1.0
 50
180.0
 51
270.0
  0
LINE
  5
1E6
  8
0
 10
344.34928039917531
 20
307.73607478906558
 30
0.0
 11
340.43339298778852
 21
307.73607478906558
 31
0.0
  0
ARC
  5
1E7
  8
0
 10
344.34928039917531
 20
308.73607478906558
 30
0.0
 40
1.0
 50
270.0
 51
0.0
  0
ARC
  5
1E8
  8
0
 10
340.43339298778852
 20
306.65207478906552
 30
0.0
 40
1.0840000000000001
 50
90.0
 51
216.37557898720169
  0
LINE
  5
1E9
  8
0
 10
365.34928039916798
 20
312.28607478907179
 30
0.0
 11
385.26269362341418
 21
312.28236588573759
 31
0.0
  0
LINE
  5
1EA
  8
0
 10
354.34928039917531
 20
307.73607478906558
 30
0.0
 11
358.26516781056222
 21
307.73607478906553
 31
0.0
  0
ARC
  5
1EB
  8
0
 10
358.26516781056222
 20
306.65207478906552
 30
0.0
 40
1.0840000000000001
 50
323.62442101279839
 51
90.0
  0
ARC
  5
1EC
  8
0
 10
385.34834303024809
 20
288.28701215799123
 30
0.0
 40
4.0
 50
268.7730688497727
 51
1.226931150219182
  0
LINE
  5
1ED
  8
0
 10
373.34928039917207
 20
286.0112831079428
 30
0.0
 11
373.34928039917207
 21
287.8360747890718
 31
0.0
  0
ARC
  5
1EE
  8
0
 10
374.34928039917207
 20
287.8360747890718
 30
0.0
 40
1.0
 50
90.0
 51
180.0
  0
LINE
  5
1EF
  8
0
 10
374.34928039917207
 20
288.83607478907192
 30
0.0
 11
378.26516781055898
 21
288.83607478907192
 31
0.0
  0
ARC
  5
1F0
  8
0
 10
359.00928039917198
 20
275.73607478907189
 30
0.0
 40
25.0
 50
36.375578987201692
 51
53.130102354160208
  0
ARC
  5
1F1
  8
0
 10
371.60928039917189
 20
292.53607478907179
 30
0.0
 40
4.0
 50
53.130102354160208
 51
90.0
  0
LINE
  5
1F2
  8
0
 10
367.08928039917191
 20
296.53607478907179
 30
0.0
 11
371.60928039917189
 21
296.53607478907179
 31
0.0
  0
ARC
  5
1F3
  8
0
 10
367.08928039917191
 20
292.53607478907179
 30
0.0
 40
4.0
 50
90.0
 51
126.8698976458398
  0
LINE
  5
1F4
  8
0
 10
364.34928039917207
 20
288.83607478907192
 30
0.0
 11
360.43339298778568
 21
288.83607478907192
 31
0.0
  0
ARC
  5
1F5
  8
0
 10
364.34928039917207
 20
287.8360747890718
 30
0.0
 40
1.0
 50
0.0
 51
90.0
  0
LINE
  5
1F6
  8
0
 10
365.34928039917207
 20
286.0112831079428
 30
0.0
 11
365.34928039917207
 21
287.8360747890718
 31
0.0
  0
ARC
  5
1F7
  8
0
 10
378.26516781055898
 20
289.9200747890718
 30
0.0
 40
1.0840000000000001
 50
270.0
 51
36.375578987201692
  0
CIRCLE
  5
1F8
  8
0
 10
369.34928039916213
 20
304.28607478906872
 30
0.0
 40
3.399999999999999
  0
INSERT
  5
1F9
  8
0
  2
DEFAULT
 10
269.18739668619332
 20
381.1494780374677
 30
0.0
  0
INSERT
  5
1FA
  8
0
  2
DEFAULT
 10
126.0556805325964
 20
126.6223534173064
 30
0.0
  0
LINE
  5
1FB
  8
0
 10
303.87427692768279
 20
312.2860747890719
 30
0.0
 11
274.72226472089079
 21
312.28089574370767
 31
0.0
  0
LINE
  5
1FD
  8
0
 10
305.34928039918168
 20
310.78628307901249
 30
0.0
 11
305.3492803991785
 21
308.73607478906558
 31
0.0
  0
ARC
  5
1FE
  8
0
 10
303.84928039918168
 20
310.78628307901249
 30
0.0
 40
1.5
 50
0.0
 51
89.045158746132074
  0
LINE
  5
1FF
  8
0
 10
313.34928039918168
 20
310.78628307901249
 30
0.0
 11
313.3492803991785
 21
308.73607478906558
 31
0.0
  0
ARC
  5
200
  8
0
 10
314.84928039918179
 20
310.78628307901249
 30
0.0
 40
1.5
 50
90.954841253867912
 51
180.0
  0
LINE
  5
201
  8
0
 10
343.8742769276796
 20
312.2860747890719
 30
0.0
 11
314.72226472088761
 21
312.28089574370767
 31
0.0
  0
LINE
  5
202
  8
0
 10
354.82428387067739
 20
312.2860747890719
 30
0.0
 11
365.34928039916798
 21
312.28607478907179
 31
0.0
  0
LINE
  5
203
  8
0
 10
345.34928039917861
 20
310.78628307901249
 30
0.0
 11
345.34928039917531
 21
308.73607478906558
 31
0.0
  0
ARC
  5
204
  8
0
 10
343.84928039917861
 20
310.78628307901249
 30
0.0
 40
1.5
 50
0.0
 51
89.045158746132074
  0
LINE
  5
205
  8
0
 10
353.3492803991785
 20
310.78628307901249
 30
0.0
 11
353.34928039917531
 21
308.73607478906558
 31
0.0
  0
ARC
  5
206
  8
0
 10
354.84928039917861
 20
310.78628307901249
 30
0.0
 40
1.5
 50
90.954841253867912
 51
180.0
  0
LINE
  5
209
  8
0
 10
203.8742769276744
 20
284.28607478906559
 30
0.0
 11
193.43586717492781
 21
284.28792924073281
 31
0.0
  0
LINE
  5
20A
  8
0
 10
205.3492803991733
 20
285.78586649912501
 30
0.0
 11
205.34928039918171
 21
287.8360747890718
 31
0.0
  0
ARC
  5
20B
  8
0
 10
203.8492803991733
 20
285.78586649912501
 30
0.0
 40
1.5
 50
270.95484125386793
 51
0.0
  0
LINE
  5
20C
  8
0
 10
214.82428387067219
 20
284.28607478906559
 30
0.0
 11
243.8742769276875
 21
284.28607478906559
 31
0.0
  0
LINE
  5
20D
  8
0
 10
213.3492803991733
 20
285.78586649912501
 30
0.0
 11
213.34928039918171
 21
287.8360747890718
 31
0.0
  0
ARC
  5
20E
  8
0
 10
214.8492803991733
 20
285.78586649912501
 30
0.0
 40
1.5
 50
180.0
 51
269.04515874613207
  0
LINE
  5
211
  8
0
 10
254.82428387068379
 20
284.28607478906559
 30
0.0
 11
283.87427692768892
 21
284.28607478906559
 31
0.0
  0
LINE
  5
212
  8
0
 10
245.34928039918489
 20
285.78586649912489
 30
0.0
 11
245.34928039918171
 21
287.8360747890718
 31
0.0
  0
ARC
  5
213
  8
0
 10
243.84928039918489
 20
285.78586649912489
 30
0.0
 40
1.5
 50
270.95484125386793
 51
0.0
  0
LINE
  5
214
  8
0
 10
253.34928039918489
 20
285.78586649912489
 30
0.0
 11
253.34928039918171
 21
287.8360747890718
 31
0.0
  0
ARC
  5
215
  8
0
 10
254.84928039918489
 20
285.78586649912489
 30
0.0
 40
1.5
 50
180.0
 51
269.04515874613207
  0
LINE
  5
217
  8
0
 10
285.34928039918168
 20
285.78586649912489
 30
0.0
 11
285.3492803991785
 21
287.8360747890718
 31
0.0
  0
ARC
  5
218
  8
0
 10
283.84928039918168
 20
285.78586649912489
 30
0.0
 40
1.5
 50
270.95484125386793
 51
0.0
  0
LINE
  5
219
  8
0
 10
294.82428387068057
 20
284.28607478906559
 30
0.0
 11
323.8742769276858
 21
284.28607478906559
 31
0.0
  0
LINE
  5
21A
  8
0
 10
293.34928039918168
 20
285.78586649912489
 30
0.0
 11
293.3492803991785
 21
287.8360747890718
 31
0.0
  0
ARC
  5
21B
  8
0
 10
294.84928039918168
 20
285.78586649912489
 30
0.0
 40
1.5
 50
180.0
 51
269.04515874613207
  0
LINE
  5
21C
  8
0
 10
334.8242838706775
 20
284.28607478906559
 30
0.0
 11
363.87427692768779
 21
284.28607478906559
 31
0.0
  0
LINE
  5
21E
  8
0
 10
325.34928039917861
 20
285.78586649912489
 30
0.0
 11
325.34928039917531
 21
287.8360747890718
 31
0.0
  0
ARC
  5
21F
  8
0
 10
323.8492803991785
 20
285.78586649912489
 30
0.0
 40
1.5
 50
270.95484125386793
 51
0.0
  0
LINE
  5
220
  8
0
 10
333.34928039917861
 20
285.78586649912489
 30
0.0
 11
333.34928039917531
 21
287.8360747890718
 31
0.0
  0
ARC
  5
221
  8
0
 10
334.8492803991785
 20
285.78586649912489
 30
0.0
 40
1.5
 50
180.0
 51
269.04515874613207
  0
LINE
  5
224
  8
0
 10
365.34928039918321
 20
285.78586649912501
 30
0.0
 11
365.34928039917492
 21
287.8360747890718
 31
0.0
  0
ARC
  5
225
  8
0
 10
363.84928039918321
 20
285.78586649912501
 30
0.0
 40
1.5
 50
270.95484125386793
 51
0.0
  0
LINE
  5
226
  8
0
 10
374.82428387068211
 20
284.28607478906559
 30
0.0
 11
385.26269362342867
 21
284.28792924073281
 31
0.0
  0
LINE
  5
227
  8
0
 10
373.34928039918321
 20
285.78586649912501
 30
0.0
 11
373.34928039917492
 21
287.8360747890718
 31
0.0
  0
ARC
  5
228
  8
0
 10
374.84928039918321
 20
285.78586649912501
 30
0.0
 40
1.5
 50
180.0
 51
269.04515874613207
  0
LINE
  5
22A
  8
0
 10
389.34742594751071
 20
482.0638011483266
 30
0.0
 11
389.34742594751071
 21
382.0638011483266
 31
0.0
  0
LINE
  5
22B
  8
0
 10
389.34742594751071
 20
382.0638011483266
 30
0.0
 11
189.3511348508359
 21
382.0638011483266
 31
0.0
  0
LINE
  5
22C
  8
0
 10
189.3511348508359
 20
382.0638011483266
 30
0.0
 11
189.3511348508359
 21
482.0638011483266
 31
0.0
  0
LINE
  5
22D
  8
0
 10
458.54981001567978
 20
312.28236588573748
 30
0.0
 11
558.54981001567967
 21
312.28236588573748
 31
0.0
  0
LINE
  5
22F
  8
0
 10
558.54981001567955
 20
284.28700327731428
 30
0.0
 11
458.54981001567961
 21
284.28700327731428
 31
0.0
  0
LINE
  5
230
  8
0
 10
458.54981001567961
 20
284.28700327731428
 30
0.0
 11
458.54981001567978
 21
312.28236588573748
 31
0.0
  0
LINE
  5
231
  8
0
 10
225.34928039918029
 20
482.0638011483266
 30
0.0
 11
225.3492803991775
 21
382.0638011483266
 31
0.0
  0
LINE
  5
232
  8
0
 10
233.3492803991775
 20
482.0638011483266
 30
0.0
 11
233.3492803991775
 21
382.0638011483266
 31
0.0
  0
LINE
  5
233
  8
0
 10
265.34928039918327
 20
482.0638011483266
 30
0.0
 11
265.34928039918327
 21
382.0638011483266
 31
0.0
  0
LINE
  5
234
  8
0
 10
273.34928039918327
 20
482.0638011483266
 30
0.0
 11
273.34928039918327
 21
382.0638011483266
 31
0.0
  0
LINE
  5
235
  8
0
 10
305.34928039918009
 20
482.0638011483266
 30
0.0
 11
305.34928039918009
 21
382.0638011483266
 31
0.0
  0
LINE
  5
236
  8
0
 10
313.34928039918009
 20
482.0638011483266
 30
0.0
 11
313.34928039918009
 21
382.0638011483266
 31
0.0
  0
LINE
  5
237
  8
0
 10
345.34928039917691
 20
482.0638011483266
 30
0.0
 11
345.34928039917691
 21
382.0638011483266
 31
0.0
  0
LINE
  5
238
  8
0
 10
353.34928039917691
 20
482.0638011483266
 30
0.0
 11
353.34928039917691
 21
382.0638011483266
 31
0.0
  0
CIRCLE
  5
24F
  8
0
 10
229.3492803991717
 20
292.28607478906872
 30
0.0
 40
3.399999999999999
  0
CIRCLE
  5
250
  8
0
 10
309.34928039916849
 20
292.28607478906872
 30
0.0
 40
3.399999999999999
  0
CIRCLE
  5
251
  8
0
 10
269.34928039917168
 20
292.28607478906872
 30
0.0
 40
3.399999999999999
  0
CIRCLE
  5
252
  8
0
 10
349.34928039916531
 20
292.28607478906872
 30
0.0
 40
3.399999999999999
  0
ARC
  5
253
  8
0
 10
193.3502177680943
 20
308.283282968479
 30
0.0
 40
4.0
 50
88.773068849772685
 51
181.22693115021909
  0
LINE
  5
254
  8
0
 10
223.8742769276742
 20
312.28607478907179
 30
0.0
 11
193.43586717492781
 21
312.28236588573748
 31
0.0
  0
ARC
  5
255
  8
0
 10
385.34834303024809
 20
308.283282968479
 30
0.0
 40
4.0
 50
358.77306884978083
 51
91.226931150227315
  0
LINE
  5
256
  8
0
 10
189.35113485083571
 20
308.19763356164572
 30
0.0
 11
189.35113485083579
 21
288.37266156482463
 31
0.0
  0
LINE
  5
257
  8
0
 10
389.34742594750662
 20
308.19763356164572
 30
0.0
 11
389.34742594750662
 21
288.37266156482451
 31
0.0
  0
LINE
  5
258
  8
0
 10
389.34742594751071
 20
214.5064939781436
 30
0.0
 11
189.3511348508359
 21
214.5064939781436
 31
0.0
  0
LINE
  5
25A
  8
0
 10
189.3511348508359
 20
214.5064939781436
 30
0.0
 11
189.3511348508359
 21
114.5064939781435
 31
0.0
  0
LINE
  5
25B
  8
0
 10
245.3492803991775
 20
114.5064939781435
 30
0.0
 11
245.3492803991775
 21
214.5064939781436
 31
0.0
  0
LINE
  5
25C
  8
0
 10
253.3492803991775
 20
114.5064939781435
 30
0.0
 11
253.3492803991775
 21
214.5064939781436
 31
0.0
  0
LINE
  5
25D
  8
0
 10
285.34928039918327
 20
114.5064939781435
 30
0.0
 11
285.34928039918327
 21
214.5064939781436
 31
0.0
  0
LINE
  5
25E
  8
0
 10
293.34928039918327
 20
114.5064939781435
 30
0.0
 11
293.34928039918327
 21
214.5064939781436
 31
0.0
  0
LINE
  5
25F
  8
0
 10
325.34928039917997
 20
114.5064939781435
 30
0.0
 11
325.34928039918009
 21
214.5064939781436
 31
0.0
  0
LINE
  5
260
  8
0
 10
333.34928039918009
 20
114.5064939781435
 30
0.0
 11
333.34928039918009
 21
214.5064939781436
 31
0.0
  0
LINE
  5
261
  8
0
 10
365.34928039917691
 20
114.5064939781435
 30
0.0
 11
365.34928039917691
 21
214.5064939781436
 31
0.0
  0
LINE
  5
262
  8
0
 10
373.34928039917702
 20
114.5064939781435
 30
0.0
 11
373.34928039917691
 21
214.5064939781436
 31
0.0
  0
LINE
  5
263
  8
0
 10
389.34742594751071
 20
114.5064939781435
 30
0.0
 11
389.34742594751071
 21
214.5064939781436
 31
0.0
  0
LINE
  5
264
  8
0
 10
205.34928039918029
 20
114.5064939781435
 30
0.0
 11
205.3492803991775
 21
214.5064939781436
 31
0.0
  0
LINE
  5
265
  8
0
 10
213.34928039918029
 20
114.5064939781435
 30
0.0
 11
213.3492803991775
 21
214.5064939781436
 31
0.0
  0
LINE
  5
267
  8
1
 10
179.35113485083571
 20
298.28514756323511
 30
0.0
 11
399.34742594750651
 21
298.28514756323511
 31
0.0
  0
LINE
  5
269
  8
0
 10
389.34742594751071
 20
482.0638011483266
 30
0.0
 11
189.3511348508359
 21
482.0638011483266
 31
0.0
  0
LINE
  5
27F
  8
1
 10
217.74928039917171
 20
304.28607478906872
 30
0.0
 11
200.9492803991717
 21
304.28607478906872
 31
0.0
  0
LINE
  5
280
  8
1
 10
249.3492803991717
 20
487.0638011483266
 30
0.0
 11
249.3492803991717
 21
377.0638011483266
 31
0.0
  0
LINE
  5
281
  8
1
 10
257.74928039917171
 20
304.28607478906872
 30
0.0
 11
240.9492803991717
 21
304.28607478906872
 31
0.0
  0
LINE
  5
282
  8
1
 10
229.3492803991717
 20
317.28607470234778
 30
0.0
 11
229.3492803991717
 21
283.8860747890688
 31
0.0
  0
LINE
  5
283
  8
1
 10
237.7492803991716
 20
292.28607478906872
 30
0.0
 11
220.9492803991717
 21
292.28607478906872
 31
0.0
  0
LINE
  5
284
  8
1
 10
269.34928039917168
 20
317.28607470234778
 30
0.0
 11
269.34928039917168
 21
283.8860747890688
 31
0.0
  0
LINE
  5
285
  8
1
 10
277.7492803991716
 20
292.28607478906872
 30
0.0
 11
260.9492803991717
 21
292.28607478906872
 31
0.0
  0
LINE
  5
286
  8
1
 10
289.34928039916849
 20
487.0638011483266
 30
0.0
 11
289.34928039916849
 21
377.0638011483266
 31
0.0
  0
LINE
  5
287
  8
1
 10
297.74928039916853
 20
304.28607478906872
 30
0.0
 11
280.94928039916852
 21
304.28607478906872
 31
0.0
  0
LINE
  5
288
  8
1
 10
309.34928039916849
 20
317.28607470234778
 30
0.0
 11
309.34928039916849
 21
283.8860747890688
 31
0.0
  0
LINE
  5
289
  8
1
 10
317.74928039916853
 20
292.28607478906872
 30
0.0
 11
300.94928039916852
 21
292.28607478906872
 31
0.0
  0
LINE
  5
28A
  8
1
 10
329.34928039916542
 20
487.0638011483266
 30
0.0
 11
329.34928039916531
 21
377.0638011483266
 31
0.0
  0
LINE
  5
28B
  8
1
 10
337.74928039916529
 20
304.28607478906872
 30
0.0
 11
320.94928039916527
 21
304.28607478906872
 31
0.0
  0
LINE
  5
28C
  8
1
 10
349.34928039916531
 20
317.28607470234778
 30
0.0
 11
349.34928039916531
 21
283.8860747890688
 31
0.0
  0
LINE
  5
28D
  8
1
 10
357.74928039916529
 20
292.28607478906872
 30
0.0
 11
340.94928039916527
 21
292.28607478906872
 31
0.0
  0
LINE
  5
28E
  8
1
 10
369.3492803991623
 20
487.0638011483266
 30
0.0
 11
369.34928039916218
 21
377.0638011483266
 31
0.0
  0
LINE
  5
28F
  8
1
 10
377.7492803991621
 20
304.28607478906872
 30
0.0
 11
360.94928039916221
 21
304.28607478906872
 31
0.0
  0
LINE
  5
290
  8
1
 10
229.34928039917159
 20
372.0638011483266
 30
0.0
 11
229.34928039917159
 21
492.0638011483266
 31
0.0
  0
LINE
  5
293
  8
1
 10
269.34928039917742
 20
372.0638011483266
 30
0.0
 11
269.34928039917742
 21
492.0638011483266
 31
0.0
  0
LINE
  5
294
  8
1
 10
349.34928039917099
 20
372.0638011483266
 30
0.0
 11
349.34928039917099
 21
492.0638011483266
 31
0.0
  0
LINE
  5
295
  8
1
 10
309.34928039916531
 20
372.0638011483266
 30
0.0
 11
309.34928039916531
 21
492.0638011483266
 31
0.0
  0
LINE
  5
298
  8
1
 10
209.3492803991717
 20
487.0638011483266
 30
0.0
 11
209.3492803991717
 21
377.0638011483266
 31
0.0
  0
LINE
  5
29F
  8
1
 10
249.3492803991717
 20
312.6860747890687
 30
0.0
 11
249.3492803991717
 21
279.28607478906559
 31
0.0
  0
LINE
  5
2A0
  8
1
 10
209.3492803991717
 20
312.6860747890687
 30
0.0
 11
209.3492803991717
 21
279.28607478906559
 31
0.0
  0
LINE
  5
2A1
  8
1
 10
289.34928039916838
 20
312.6860747890687
 30
0.0
 11
289.34928039916849
 21
279.28607478906559
 31
0.0
  0
LINE
  5
2A2
  8
1
 10
329.3492803991652
 20
312.6860747890687
 30
0.0
 11
329.34928039916531
 21
279.28607478906559
 31
0.0
  0
LINE
  5
2A3
  8
1
 10
369.34928039916218
 20
312.6860747890687
 30
0.0
 11
369.34928039916213
 21
279.28607478906559
 31
0.0
  0
LINE
  5
2A4
  8
0
 10
558.54981001567955
 20
284.28700327731372
 30
0.0
 11
558.54981001567978
 21
312.28236588573691
 31
0.0
  0
LINE
  5
2A8
  8
1
 10
448.54981001567978
 20
298.28514756323523
 30
0.0
 11
568.54981001567978
 21
298.28514756323523
 31
0.0
  0
LINE
  5
2AB
  8
1
 10
453.54981001567978
 20
304.2860747890681
 30
0.0
 11
563.54981001567967
 21
304.28607478906719
 31
0.0
  0
LINE
  5
2AC
  8
1
 10
453.54981001567972
 20
292.28607478906792
 30
0.0
 11
563.54981001567955
 21
292.28607478906702
 31
0.0
  0
LINE
  5
2AD
  8
0
 10
389.34742594751071
 20
114.5064939781435
 30
0.0
 11
189.3511348508359
 21
114.5064939781435
 31
0.0
  0
LINE
  5
2B1
  8
1
 10
289.34928039916849
 20
224.50649397814351
 30
0.0
 11
289.34928039916872
 21
104.5064939781435
 31
0.0
  0
LINE
  5
2B2
  8
1
 10
249.3492803991717
 20
224.50649397814351
 30
0.0
 11
249.3492803991717
 21
104.5064939781435
 31
0.0
  0
LINE
  5
2B3
  8
1
 10
209.3492803991717
 20
224.50649397814351
 30
0.0
 11
209.34928039917159
 21
104.5064939781435
 31
0.0
  0
LINE
  5
2B4
  8
1
 10
369.34928039916213
 20
224.50649397814351
 30
0.0
 11
369.34928039916161
 21
104.5064939781435
 31
0.0
  0
LINE
  5
2B5
  8
1
 10
329.3492803991652
 20
224.50649397814351
 30
0.0
 11
329.34928039916559
 21
104.5064939781435
 31
0.0
  0
LINE
  5
2B7
  8
1
 10
349.34928039916531
 20
219.5064939781436
 30
0.0
 11
349.34928039916531
 21
109.5064939781435
 31
0.0
  0
LINE
  5
2B8
  8
1
 10
309.34928039916849
 20
219.5064939781436
 30
0.0
 11
309.34928039916849
 21
109.5064939781435
 31
0.0
  0
LINE
  5
2B9
  8
1
 10
269.34928039917162
 20
219.5064939781436
 30
0.0
 11
269.34928039917168
 21
109.5064939781435
 31
0.0
  0
LINE
  5
2BA
  8
1
 10
229.3492803991717
 20
219.5064939781436
 30
0.0
 11
229.34928039917159
 21
109.5064939781435
 31
0.0
  0
TEXT
  5
361
  8
0
 62
     3
 10
0.0
 20
0.0
 30
0.0
 40
10.0
  1
SPH20028N
  7
STANDARD1
  0
ENDSEC
  0
EOF
