  0
SECTION
  2
HEADER
  9
$ACADVER
  1
AC1009
  9
$INSBASE
 10
0.0
 20
0.0
 30
0.0
  9
$EXTMIN
 10
0.0
 20
-2.960436562073669
 30
0.0
  9
$EXTMAX
 10
344.19232070980019
 20
257.31530448201443
 30
0.0
  9
$LIMMIN
 10
0.0
 20
0.0
  9
$LIMMAX
 10
390.0
 20
270.0
  9
$ORTHOMODE
 70
     1
  9
$REGENMODE
 70
     1
  9
$FILLMODE
 70
     1
  9
$QTEXTMODE
 70
     0
  9
$MIRRTEXT
 70
     0
  9
$DRAGMODE
 70
     2
  9
$LTSCALE
 40
10.0
  9
$OSMODE
 70
    55
  9
$ATTMODE
 70
     1
  9
$TEXTSIZE
 40
0.2
  9
$TRACEWID
 40
0.05
  9
$TEXTSTYLE
  7
STANDARD
  9
$CLAYER
  8
0
  9
$CELTYPE
  6
BYLAYER
  9
$CECOLOR
 62
   256
  9
$DIMSCALE
 40
1.0
  9
$DIMASZ
 40
3.0
  9
$DIMEXO
 40
2.0
  9
$DIMDLI
 40
0.38
  9
$DIMRND
 40
0.0
  9
$DIMDLE
 40
0.0
  9
$DIMEXE
 40
2.0
  9
$DIMTP
 40
0.0
  9
$DIMTM
 40
0.0
  9
$DIMTXT
 40
3.0
  9
$DIMCEN
 40
0.0
  9
$DIMTSZ
 40
0.0
  9
$DIMTOL
 70
     0
  9
$DIMLIM
 70
     0
  9
$DIMTIH
 70
     0
  9
$DIMTOH
 70
     0
  9
$DIMSE1
 70
     0
  9
$DIMSE2
 70
     0
  9
$DIMTAD
 70
     1
  9
$DIMZIN
 70
     0
  9
$DIMBLK
  1

  9
$DIMASO
 70
     0
  9
$DIMSHO
 70
     0
  9
$DIMPOST
  1

  9
$DIMAPOST
  1

  9
$DIMALT
 70
     0
  9
$DIMALTD
 70
     2
  9
$DIMALTF
 40
25.399999999999999
  9
$DIMLFAC
 40
1.0
  9
$DIMTOFL
 70
     1
  9
$DIMTVP
 40
1.6000000000000001
  9
$DIMTIX
 70
     1
  9
$DIMSOXD
 70
     0
  9
$DIMSAH
 70
     0
  9
$DIMBLK1
  1

  9
$DIMBLK2
  1

  9
$DIMSTYLE
  2
STANDARD
  9
$DIMCLRD
 70
     0
  9
$DIMCLRE
 70
     0
  9
$DIMCLRT
 70
     0
  9
$DIMTFAC
 40
1.0
  9
$DIMGAP
 40
0.09
  9
$LUNITS
 70
     2
  9
$LUPREC
 70
     4
  9
$SKETCHINC
 40
0.1
  9
$FILLETRAD
 40
1.5
  9
$AUNITS
 70
     0
  9
$AUPREC
 70
     4
  9
$MENU
  1
E:\r13\win\SUPPORT\ACAD
  9
$ELEVATION
 40
0.0
  9
$PELEVATION
 40
0.0
  9
$THICKNESS
 40
0.0
  9
$LIMCHECK
 70
     0
  9
$BLIPMODE
 70
     0
  9
$CHAMFERA
 40
0.0
  9
$CHAMFERB
 40
0.0
  9
$SKPOLY
 70
     0
  9
$TDCREATE
 40
2449567.5922188661
  9
$TDUPDATE
 40
2456598.549156331
  9
$TDINDWG
 40
0.0005437153
  9
$TDUSRTIMER
 40
0.0005437153
  9
$USRTIMER
 70
     1
  9
$ANGBASE
 50
0.0
  9
$ANGDIR
 70
     0
  9
$PDMODE
 70
     0
  9
$PDSIZE
 40
0.0
  9
$PLINEWID
 40
0.0
  9
$COORDS
 70
     1
  9
$SPLFRAME
 70
     0
  9
$SPLINETYPE
 70
     6
  9
$SPLINESEGS
 70
     8
  9
$ATTDIA
 70
     0
  9
$ATTREQ
 70
     1
  9
$HANDLING
 70
     1
  9
$HANDSEED
  5
3C3
  9
$SURFTAB1
 70
     6
  9
$SURFTAB2
 70
     6
  9
$SURFTYPE
 70
     6
  9
$SURFU
 70
     6
  9
$SURFV
 70
     6
  9
$UCSNAME
  2

  9
$UCSORG
 10
0.0
 20
0.0
 30
0.0
  9
$UCSXDIR
 10
1.0
 20
0.0
 30
0.0
  9
$UCSYDIR
 10
0.0
 20
1.0
 30
0.0
  9
$PUCSNAME
  2

  9
$PUCSORG
 10
0.0
 20
0.0
 30
0.0
  9
$PUCSXDIR
 10
1.0
 20
0.0
 30
0.0
  9
$PUCSYDIR
 10
0.0
 20
1.0
 30
0.0
  9
$USERI1
 70
     3
  9
$USERI2
 70
     1
  9
$USERI3
 70
     0
  9
$USERI4
 70
     0
  9
$USERI5
 70
     0
  9
$USERR1
 40
1.0
  9
$USERR2
 40
3.0
  9
$USERR3
 40
3.0
  9
$USERR4
 40
3.0
  9
$USERR5
 40
10.0
  9
$WORLDVIEW
 70
     1
  9
$SHADEDGE
 70
     3
  9
$SHADEDIF
 70
    70
  9
$TILEMODE
 70
     1
  9
$MAXACTVP
 70
    16
  9
$PLIMCHECK
 70
     0
  9
$PEXTMIN
 10
1.0000000000000000E+020
 20
1.0000000000000000E+020
 30
1.0000000000000000E+020
  9
$PEXTMAX
 10
-1.0000000000000000E+020
 20
-1.0000000000000000E+020
 30
-1.0000000000000000E+020
  9
$PLIMMIN
 10
0.0
 20
0.0
  9
$PLIMMAX
 10
12.0
 20
9.0
  9
$UNITMODE
 70
     0
  9
$VISRETAIN
 70
     0
  9
$PLINEGEN
 70
     1
  9
$PSLTSCALE
 70
     0
  0
ENDSEC
  0
SECTION
  2
TABLES
  0
TABLE
  2
VPORT
 70
     1
  0
VPORT
  2
*ACTIVE
 70
     0
 10
0.0
 20
0.0
 11
1.0
 21
1.0
 12
194.9940495262785
 22
174.91677254346851
 13
0.0
 23
0.0
 14
10.0
 24
10.0
 15
10.0
 25
10.0
 16
0.0
 26
0.0
 36
1.0
 17
0.0
 27
0.0
 37
0.0
 40
358.92027899574339
 41
1.7807262569832401
 42
50.0
 43
0.0
 44
0.0
 50
0.0
 51
0.0
 71
     0
 72
   100
 73
     1
 74
     0
 75
     0
 76
     0
 77
     0
 78
     2
  0
ENDTAB
  0
TABLE
  2
LTYPE
 70
     3
  0
LTYPE
  2
CONTINUOUS
 70
     0
  3
Solid Line
 72
    65
 73
     0
 40
0.0
  0
LTYPE
  2
CENTER
 70
     0
  3
____ _ ____ _ ____ _ ____ _ ____ _ ____ _ ____
 72
    65
 73
     4
 40
2.0
 49
1.25
 49
-0.25
 49
0.25
 49
-0.25
  0
LTYPE
  2
PHANTOM2
 70
     0
  3
___ _ _ ___ _ _ ___ _ _ ___ _ _
 72
    65
 73
     6
 40
1.25
 49
0.625
 49
-0.125
 49
0.125
 49
-0.125
 49
0.125
 49
-0.125
  0
ENDTAB
  0
TABLE
  2
LAYER
 70
     1
  0
LAYER
  2
0
 70
     0
 62
     7
  6
CONTINUOUS
  0
ENDTAB
  0
TABLE
  2
STYLE
 70
     2
  0
STYLE
  2
STANDARD
 70
     0
 40
0.0
 41
1.0
 50
0.0
 71
     0
 42
0.2
  3
ROMANS
  4
BIGFONT
  0
STYLE
  2
STANDARD1
 70
     0
 40
0.0
 41
1.0
 50
0.0
 71
     0
 42
3.0
  3
txt
  4

  0
ENDTAB
  0
TABLE
  2
VIEW
 70
     0
  0
ENDTAB
  0
TABLE
  2
UCS
 70
     0
  0
ENDTAB
  0
TABLE
  2
APPID
 70
     3
  0
APPID
  2
ACAD
 70
     0
  0
APPID
  2
ACAD_MLEADERVER
 70
     0
  0
APPID
  2
ACAD_NAV_VCDISPLAY
 70
     0
  0
ENDTAB
  0
TABLE
  2
DIMSTYLE
 70
     1
  0
DIMSTYLE
  2
STANDARD
 70
     0
  3

  4

  5

  6

  7

 40
1.0
 41
0.18
 42
0.0625
 43
0.38
 44
0.18
 45
0.0
 46
0.0
 47
0.0
 48
0.0
140
0.18
141
0.09
142
0.0
143
25.399999999999999
144
1.0
145
0.0
146
1.0
147
0.09
 71
     0
 72
     0
 73
     1
 74
     1
 75
     0
 76
     0
 77
     0
 78
     0
170
     0
171
     2
172
     0
173
     0
174
     0
175
     0
176
     0
177
     0
178
     0
  0
ENDTAB
  0
ENDSEC
  0
SECTION
  2
BLOCKS
  0
BLOCK
  8
0
  2
$MODEL_SPACE
 70
     0
 10
0.0
 20
0.0
 30
0.0
  3
$MODEL_SPACE
  1

  0
ENDBLK
  5
281
  8
0
  0
BLOCK
 67
     1
  8
0
  2
$PAPER_SPACE
 70
     0
 10
0.0
 20
0.0
 30
0.0
  3
$PAPER_SPACE
  1

  0
ENDBLK
  5
27F
 67
     1
  8
0
  0
BLOCK
  8
0
  2
STDGX5
 70
     0
 10
0.0
 20
0.0
 30
0.0
  3
STDGX5
  1

  0
ENDBLK
  5
27
  8
0
  0
ENDSEC
  0
SECTION
  2
ENTITIES
  0
INSERT
  5
2F
  8
0
  6
CONTINUOUS
 62
     7
  2
STDGX5
 10
0.0
 20
0.0
 30
0.0
  0
LINE
  5
31
  8
0
  6
CONTINUOUS
 62
     7
 10
258.7218893549001
 20
192.3153044820144
 30
0.0
 11
98.7218893549001
 21
192.3153044820144
 31
0.0
  0
LINE
  5
32
  8
0
  6
CONTINUOUS
 62
     7
 10
258.7218893549001
 20
252.3153044820144
 30
0.0
 11
98.7218893549001
 21
252.31530448201431
 31
0.0
  0
LINE
  5
33
  8
0
  6
CONTINUOUS
 62
     7
 10
114.7214953549001
 20
192.3153044820144
 30
0.0
 11
114.7214953549001
 21
252.3153044820144
 31
0.0
  0
LINE
  5
34
  8
0
  6
CONTINUOUS
 62
     7
 10
122.7214953549001
 20
192.3153044820144
 30
0.0
 11
122.7214953549001
 21
252.3153044820144
 31
0.0
  0
LINE
  5
35
  8
0
  6
CONTINUOUS
 62
     7
 10
162.7214953549001
 20
192.3153044820144
 30
0.0
 11
162.7214953549001
 21
252.3153044820144
 31
0.0
  0
LINE
  5
36
  8
0
  6
CONTINUOUS
 62
     7
 10
154.72149535489999
 20
192.3153044820144
 30
0.0
 11
154.72149535489999
 21
252.3153044820144
 31
0.0
  0
LINE
  5
37
  8
0
  6
CONTINUOUS
 62
     7
 10
202.7214953549001
 20
192.3153044820144
 30
0.0
 11
202.7214953549001
 21
252.3153044820144
 31
0.0
  0
LINE
  5
38
  8
0
  6
CONTINUOUS
 62
     7
 10
194.72149535489999
 20
192.3153044820144
 30
0.0
 11
194.72149535489999
 21
252.3153044820144
 31
0.0
  0
POLYLINE
  5
39
  8
0
  6
CONTINUOUS
 62
     7
 66
     1
 10
0.0
 20
0.0
 30
0.0
  0
VERTEX
  5
3A
  8
0
  6
CONTINUOUS
 62
     7
 10
252.91427735490009
 20
142.17361107913669
 30
0.0
  0
VERTEX
  5
3B
  8
0
  6
CONTINUOUS
 62
     7
 10
254.2218893549001
 20
142.17361107913669
 30
0.0
  0
SEQEND
  5
3C
  8
0
  6
CONTINUOUS
 62
     7
  0
LINE
  5
3D
  8
0
  6
CONTINUOUS
 62
     7
 10
104.52950135490001
 20
142.17361507913671
 30
0.0
 11
103.2218893549
 21
142.17361507913671
 31
0.0
  0
LINE
  5
3E
  8
0
  6
CONTINUOUS
 62
     7
 10
155.16427735490001
 20
159.92361507913671
 30
0.0
 11
155.16427735490001
 21
159.92361507913671
 31
0.0
  0
LINE
  5
3F
  8
0
  6
CONTINUOUS
 62
     7
 10
155.16427735490001
 20
159.92361507913671
 30
0.0
 11
155.16427735490001
 21
159.92361507913671
 31
0.0
  0
LINE
  5
40
  8
0
  6
CONTINUOUS
 62
     7
 10
254.2218893549001
 20
142.17361507913671
 30
0.0
 11
252.91427735490009
 21
142.17361507913671
 31
0.0
  0
CIRCLE
  5
41
  8
0
  6
CONTINUOUS
 62
     7
 10
198.7218893549001
 20
152.17361507913671
 30
0.0
 40
3.399999999999999
  0
CIRCLE
  5
42
  8
0
  6
CONTINUOUS
 62
     7
 10
238.7218893549001
 20
152.17361507913671
 30
0.0
 40
3.399999999999999
  0
CIRCLE
  5
43
  8
0
  6
CONTINUOUS
 62
     7
 10
118.7218893549
 20
152.17361507913671
 30
0.0
 40
3.399999999999999
  0
CIRCLE
  5
44
  8
0
  6
CONTINUOUS
 62
     7
 10
158.7218893549001
 20
152.17361507913671
 30
0.0
 40
3.399999999999999
  0
LINE
  5
46
  8
0
  6
CONTINUOUS
 62
     7
 10
234.7214953549001
 20
192.3153044820144
 30
0.0
 11
234.7214953549001
 21
252.3153044820144
 31
0.0
  0
LINE
  5
47
  8
0
  6
CONTINUOUS
 62
     7
 10
242.7214953549001
 20
192.3153044820144
 30
0.0
 11
242.7214953549001
 21
252.3153044820144
 31
0.0
  0
LINE
  5
5A
  8
0
  6
CONTINUOUS
 62
     7
 10
18.251458
 20
172.17361507913671
 30
0.0
 11
18.251458
 21
132.1736150791366
 31
0.0
  0
LINE
  5
5B
  8
0
  6
CONTINUOUS
 62
     7
 10
78.251458
 20
148.17361507913671
 30
0.0
 11
18.251458
 21
148.17361507913671
 31
0.0
  0
LINE
  5
5C
  8
0
  6
CONTINUOUS
 62
     7
 10
78.251458
 20
156.1736150791366
 30
0.0
 11
18.251458
 21
156.1736150791366
 31
0.0
  0
LINE
  5
5D
  8
0
  6
CONTINUOUS
 62
     7
 10
78.251458
 20
172.17361507913671
 30
0.0
 11
78.251458000000014
 21
132.1736150791366
 31
0.0
  0
LINE
  5
60
  8
0
  6
CENTER
 62
     1
 10
93.723350354900063
 20
152.17361507913671
 30
0.0
 11
263.72042835490009
 21
152.17361507913671
 31
0.0
  0
LINE
  5
61
  8
0
  6
CENTER
 62
     1
 10
118.7218893549001
 20
127.1750760791367
 30
0.0
 11
118.7218893549001
 21
177.1721540791367
 31
0.0
  0
LINE
  5
62
  8
0
  6
CENTER
 62
     1
 10
158.7218893549001
 20
127.1750760791367
 30
0.0
 11
158.7218893549001
 21
177.1721540791367
 31
0.0
  0
LINE
  5
63
  8
0
  6
CENTER
 62
     1
 10
198.7218893549001
 20
127.1750760791367
 30
0.0
 11
198.7218893549001
 21
177.1721540791367
 31
0.0
  0
LINE
  5
64
  8
0
  6
CENTER
 62
     1
 10
238.7218893549001
 20
127.1750760791367
 30
0.0
 11
238.7218893549001
 21
177.1721540791367
 31
0.0
  0
LINE
  5
65
  8
0
  6
CENTER
 62
     1
 10
83.251457999999985
 20
152.17361507913671
 30
0.0
 11
13.251458
 21
152.17361507913671
 31
0.0
  0
LINE
  5
66
  8
0
  6
CENTER
 62
     1
 10
118.7214953549001
 20
187.3153044820144
 30
0.0
 11
118.7214953549001
 21
257.31530448201443
 31
0.0
  0
LINE
  5
67
  8
0
  6
CENTER
 62
     1
 10
158.7214953549001
 20
187.3153044820144
 30
0.0
 11
158.7214953549001
 21
257.31530448201443
 31
0.0
  0
LINE
  5
68
  8
0
  6
CENTER
 62
     1
 10
198.72149535489999
 20
187.3153044820144
 30
0.0
 11
198.72149535489999
 21
257.31530448201443
 31
0.0
  0
LINE
  5
69
  8
0
  6
CENTER
 62
     1
 10
238.7214953549001
 20
187.3153044820144
 30
0.0
 11
238.7214953549001
 21
257.31530448201443
 31
0.0
  0
ARC
  5
6F
  8
0
  6
CONTINUOUS
 62
     7
 10
254.221891222588
 20
144.6736132114487
 30
0.0
 40
2.4999981323127409
 50
269.99995719571308
 51
0.0000428042869152
  0
ARC
  5
70
  8
0
  6
CONTINUOUS
 62
     7
 10
256.2218897284377
 20
144.6736154526742
 30
0.0
 40
0.4999996264625369
 50
359.99995719571342
 51
90.000042804288213
  0
LINE
  5
71
  8
0
  6
CONTINUOUS
 62
     7
 10
256.2218893549001
 20
145.17361507913671
 30
0.0
 11
254.72188935489999
 21
145.17361507913671
 31
0.0
  0
ARC
  5
72
  8
0
  6
CONTINUOUS
 62
     7
 10
254.72188898136241
 20
145.67361470559899
 30
0.0
 40
0.4999996264625512
 50
179.99995719571339
 51
270.00004280428823
  0
LINE
  5
73
  8
0
  6
CONTINUOUS
 62
     7
 10
254.2218893549001
 20
145.67361507913671
 30
0.0
 11
254.2218893549001
 21
147.17361507913671
 31
0.0
  0
ARC
  5
74
  8
0
  6
CONTINUOUS
 62
     7
 10
255.22188860782481
 20
147.1736158262118
 30
0.0
 40
0.9999992529250737
 50
89.999957195711787
 51
180.00004280428661
  0
LINE
  5
75
  8
0
  6
CONTINUOUS
 62
     7
 10
255.22188935489999
 20
148.17361507913671
 30
0.0
 11
257.2218893549001
 21
148.17361507913671
 31
0.0
  0
LINE
  5
7B
  8
0
  6
CONTINUOUS
 62
     7
 10
242.7218893549001
 20
133.67507607913669
 30
0.0
 11
242.7218893549001
 21
135.67361507913671
 31
0.0
  0
ARC
  5
7C
  8
0
  6
CONTINUOUS
 62
     7
 10
243.72188860782489
 20
135.6736158262118
 30
0.0
 40
0.9999992529251022
 50
89.999957195713435
 51
180.00004280428661
  0
LINE
  5
7D
  8
0
  6
CONTINUOUS
 62
     7
 10
243.7218893549001
 20
136.67361507913671
 30
0.0
 11
245.2218893549001
 21
136.67361507913671
 31
0.0
  0
ARC
  5
7E
  8
0
  6
CONTINUOUS
 62
     7
 10
245.2218897284377
 20
136.1736154526742
 30
0.0
 40
0.4999996264625512
 50
359.99995719571342
 51
90.000042804288213
  0
LINE
  5
7F
  8
0
  6
CONTINUOUS
 62
     7
 10
245.7218893549001
 20
136.17361507913671
 30
0.0
 11
245.7218893549001
 21
134.67361507913671
 31
0.0
  0
ARC
  5
80
  8
0
  6
CONTINUOUS
 62
     7
 10
246.2218889813625
 20
134.67361470559911
 30
0.0
 40
0.4999996264625369
 50
179.99995719571339
 51
270.00004280428823
  0
ARC
  5
81
  8
0
  6
CONTINUOUS
 62
     7
 10
246.221891222588
 20
136.6736132114487
 30
0.0
 40
2.4999981323127272
 50
269.99995719571382
 51
0.0000428042872409
  0
LINE
  5
82
  8
0
  6
CONTINUOUS
 62
     7
 10
248.72188935489999
 20
136.67361507913671
 30
0.0
 11
248.72188935489999
 21
137.98122707913669
 31
0.0
  0
ARC
  5
83
  8
0
  6
CONTINUOUS
 62
     7
 10
243.7218807566083
 20
137.98122370574251
 30
0.0
 40
5.0000085982929079
 50
0.0000386561835068
 51
44.999957663527951
  0
LINE
  5
84
  8
0
  6
CONTINUOUS
 62
     7
 10
247.25742335490011
 20
141.5167610791367
 30
0.0
 11
245.81503535490009
 21
142.95914907913669
 31
0.0
  0
ARC
  5
85
  8
0
  6
CONTINUOUS
 62
     7
 10
242.27949798150581
 20
139.42360648084491
 30
0.0
 40
5.000008598292867
 50
45.000042336471822
 51
89.999961343816324
  0
LINE
  5
86
  8
0
  6
CONTINUOUS
 62
     7
 10
242.27950135490011
 20
144.42361507913671
 30
0.0
 11
235.16427735490001
 21
144.42361507913671
 31
0.0
  0
ARC
  5
87
  8
0
  6
CONTINUOUS
 62
     7
 10
235.1642807282943
 20
139.42360648084491
 30
0.0
 40
5.0000085982928661
 50
90.000038656183648
 51
134.99995766352819
  0
LINE
  5
88
  8
0
  6
CONTINUOUS
 62
     7
 10
231.62874335490011
 20
142.95914907913669
 30
0.0
 11
230.18635535490009
 21
141.5167610791367
 31
0.0
  0
ARC
  5
89
  8
0
  6
CONTINUOUS
 62
     7
 10
233.72189795319181
 20
137.98122370574251
 30
0.0
 40
5.0000085982929079
 50
135.00004233647161
 51
179.99996134381621
  0
LINE
  5
8A
  8
0
  6
CONTINUOUS
 62
     7
 10
228.7218893549001
 20
137.98122707913669
 30
0.0
 11
228.7218893549001
 21
136.67361507913671
 31
0.0
  0
ARC
  5
8B
  8
0
  6
CONTINUOUS
 62
     7
 10
231.22188748721209
 20
136.6736132114487
 30
0.0
 40
2.4999981323127409
 50
179.99995719571311
 51
270.00004280428692
  0
ARC
  5
8C
  8
0
  6
CONTINUOUS
 62
     7
 10
231.2218897284377
 20
134.67361470559911
 30
0.0
 40
0.4999996264625512
 50
269.99995719571177
 51
0.0000428042865895
  0
LINE
  5
8D
  8
0
  6
CONTINUOUS
 62
     7
 10
231.7218893549001
 20
134.67361507913671
 30
0.0
 11
231.7218893549001
 21
136.17361507913671
 31
0.0
  0
ARC
  5
8E
  8
0
  6
CONTINUOUS
 62
     7
 10
232.2218889813625
 20
136.1736154526742
 30
0.0
 40
0.4999996264625369
 50
89.999957195711787
 51
180.00004280428661
  0
LINE
  5
8F
  8
0
  6
CONTINUOUS
 62
     7
 10
232.2218893549001
 20
136.67361507913671
 30
0.0
 11
233.7218893549001
 21
136.67361507913671
 31
0.0
  0
ARC
  5
90
  8
0
  6
CONTINUOUS
 62
     7
 10
233.7218901019753
 20
135.6736158262118
 30
0.0
 40
0.9999992529251022
 50
359.99995719571342
 51
90.000042804286579
  0
LINE
  5
91
  8
0
  6
CONTINUOUS
 62
     7
 10
234.7218893549001
 20
135.67361507913671
 30
0.0
 11
234.7218893549001
 21
133.67507607913669
 31
0.0
  0
LINE
  5
95
  8
0
  6
CONTINUOUS
 62
     7
 10
202.7218893549001
 20
133.67507607913669
 30
0.0
 11
202.7218893549001
 21
135.67361507913671
 31
0.0
  0
ARC
  5
96
  8
0
  6
CONTINUOUS
 62
     7
 10
203.72188860782489
 20
135.6736158262118
 30
0.0
 40
0.9999992529251022
 50
89.999957195713435
 51
180.00004280428661
  0
LINE
  5
97
  8
0
  6
CONTINUOUS
 62
     7
 10
203.7218893549001
 20
136.67361507913671
 30
0.0
 11
205.2218893549001
 21
136.67361507913671
 31
0.0
  0
ARC
  5
98
  8
0
  6
CONTINUOUS
 62
     7
 10
205.2218897284377
 20
136.1736154526742
 30
0.0
 40
0.4999996264625512
 50
359.99995719571342
 51
90.000042804288213
  0
LINE
  5
99
  8
0
  6
CONTINUOUS
 62
     7
 10
205.7218893549001
 20
136.17361507913671
 30
0.0
 11
205.7218893549001
 21
134.67361507913671
 31
0.0
  0
ARC
  5
9A
  8
0
  6
CONTINUOUS
 62
     7
 10
206.2218889813625
 20
134.67361470559911
 30
0.0
 40
0.4999996264625369
 50
179.99995719571339
 51
270.00004280428823
  0
ARC
  5
9B
  8
0
  6
CONTINUOUS
 62
     7
 10
206.22189122258811
 20
136.6736132114487
 30
0.0
 40
2.4999981323127409
 50
269.99995719571308
 51
0.0000428042869152
  0
LINE
  5
9C
  8
0
  6
CONTINUOUS
 62
     7
 10
208.7218893549001
 20
136.67361507913671
 30
0.0
 11
208.7218893549001
 21
137.98122707913669
 31
0.0
  0
ARC
  5
9D
  8
0
  6
CONTINUOUS
 62
     7
 10
203.7218807566083
 20
137.98122370574251
 30
0.0
 40
5.0000085982929079
 50
0.0000386561838325
 51
44.999957663528399
  0
LINE
  5
9E
  8
0
  6
CONTINUOUS
 62
     7
 10
207.25742335490011
 20
141.5167610791367
 30
0.0
 11
205.81503535490009
 21
142.95914907913669
 31
0.0
  0
ARC
  5
9F
  8
0
  6
CONTINUOUS
 62
     7
 10
202.2794979815059
 20
139.42360648084491
 30
0.0
 40
5.000008598292867
 50
45.000042336471822
 51
89.999961343816324
  0
LINE
  5
A0
  8
0
  6
CONTINUOUS
 62
     7
 10
202.27950135490011
 20
144.42361507913671
 30
0.0
 11
195.16427735490001
 21
144.42361507913671
 31
0.0
  0
ARC
  5
A1
  8
0
  6
CONTINUOUS
 62
     7
 10
195.1642807282943
 20
139.42360648084491
 30
0.0
 40
5.0000085982928661
 50
90.000038656183648
 51
134.99995766352819
  0
LINE
  5
A2
  8
0
  6
CONTINUOUS
 62
     7
 10
191.6287433549
 20
142.95914907913669
 30
0.0
 11
190.1863553549
 21
141.5167610791367
 31
0.0
  0
ARC
  5
A3
  8
0
  6
CONTINUOUS
 62
     7
 10
193.72189795319181
 20
137.98122370574251
 30
0.0
 40
5.0000085982928892
 50
135.00004233647181
 51
179.99996134381649
  0
LINE
  5
A4
  8
0
  6
CONTINUOUS
 62
     7
 10
188.7218893549001
 20
137.98122707913669
 30
0.0
 11
188.7218893549001
 21
136.67361507913671
 31
0.0
  0
ARC
  5
A5
  8
0
  6
CONTINUOUS
 62
     7
 10
191.22188748721209
 20
136.6736132114487
 30
0.0
 40
2.4999981323127409
 50
179.99995719571311
 51
270.00004280428692
  0
ARC
  5
A6
  8
0
  6
CONTINUOUS
 62
     7
 10
191.2218897284377
 20
134.67361470559911
 30
0.0
 40
0.4999996264625512
 50
269.99995719571177
 51
0.0000428042865895
  0
LINE
  5
A7
  8
0
  6
CONTINUOUS
 62
     7
 10
191.7218893549001
 20
134.67361507913671
 30
0.0
 11
191.7218893549001
 21
136.17361507913671
 31
0.0
  0
ARC
  5
A8
  8
0
  6
CONTINUOUS
 62
     7
 10
192.2218889813625
 20
136.1736154526742
 30
0.0
 40
0.4999996264625369
 50
89.999957195711787
 51
180.00004280428661
  0
LINE
  5
A9
  8
0
  6
CONTINUOUS
 62
     7
 10
192.2218893549001
 20
136.67361507913671
 30
0.0
 11
193.7218893549001
 21
136.67361507913671
 31
0.0
  0
ARC
  5
AA
  8
0
  6
CONTINUOUS
 62
     7
 10
193.72189010197519
 20
135.6736158262118
 30
0.0
 40
0.9999992529251022
 50
359.99995719571342
 51
90.000042804286579
  0
LINE
  5
AB
  8
0
  6
CONTINUOUS
 62
     7
 10
194.7218893549001
 20
135.67361507913671
 30
0.0
 11
194.7218893549001
 21
133.67507607913669
 31
0.0
  0
LINE
  5
AF
  8
0
  6
CONTINUOUS
 62
     7
 10
162.7218893549001
 20
133.67507607913669
 30
0.0
 11
162.7218893549001
 21
135.67361507913671
 31
0.0
  0
ARC
  5
B0
  8
0
  6
CONTINUOUS
 62
     7
 10
163.72188860782489
 20
135.6736158262118
 30
0.0
 40
0.9999992529251022
 50
89.999957195713435
 51
180.00004280428661
  0
LINE
  5
B1
  8
0
  6
CONTINUOUS
 62
     7
 10
163.7218893549001
 20
136.67361507913671
 30
0.0
 11
165.2218893549001
 21
136.67361507913671
 31
0.0
  0
ARC
  5
B2
  8
0
  6
CONTINUOUS
 62
     7
 10
165.2218897284377
 20
136.1736154526742
 30
0.0
 40
0.4999996264625512
 50
359.99995719571342
 51
90.000042804288213
  0
LINE
  5
B3
  8
0
  6
CONTINUOUS
 62
     7
 10
165.7218893549001
 20
136.17361507913671
 30
0.0
 11
165.7218893549001
 21
134.67361507913671
 31
0.0
  0
ARC
  5
B4
  8
0
  6
CONTINUOUS
 62
     7
 10
166.2218889813625
 20
134.67361470559911
 30
0.0
 40
0.4999996264625369
 50
179.99995719571339
 51
270.00004280428823
  0
ARC
  5
B5
  8
0
  6
CONTINUOUS
 62
     7
 10
166.221891222588
 20
136.6736132114487
 30
0.0
 40
2.4999981323127409
 50
269.99995719571308
 51
0.0000428042869152
  0
LINE
  5
B6
  8
0
  6
CONTINUOUS
 62
     7
 10
168.7218893549001
 20
136.67361507913671
 30
0.0
 11
168.7218893549001
 21
137.98122707913669
 31
0.0
  0
ARC
  5
B7
  8
0
  6
CONTINUOUS
 62
     7
 10
163.7218807566083
 20
137.98122370574251
 30
0.0
 40
5.0000085982929079
 50
0.0000386561838325
 51
44.999957663528399
  0
LINE
  5
B8
  8
0
  6
CONTINUOUS
 62
     7
 10
167.25742335490011
 20
141.5167610791367
 30
0.0
 11
165.81503535490009
 21
142.95914907913669
 31
0.0
  0
ARC
  5
B9
  8
0
  6
CONTINUOUS
 62
     7
 10
162.27949798150581
 20
139.42360648084491
 30
0.0
 40
5.0000085982929177
 50
45.000042336471928
 51
89.999961343816324
  0
LINE
  5
BA
  8
0
  6
CONTINUOUS
 62
     7
 10
162.27950135489999
 20
144.42361507913671
 30
0.0
 11
155.16427735490001
 21
144.42361507913671
 31
0.0
  0
ARC
  5
BB
  8
0
  6
CONTINUOUS
 62
     7
 10
155.16428072829419
 20
139.42360648084491
 30
0.0
 40
5.0000085982928661
 50
90.000038656183648
 51
134.99995766352819
  0
LINE
  5
BC
  8
0
  6
CONTINUOUS
 62
     7
 10
151.6287433549
 20
142.95914907913669
 30
0.0
 11
150.1863553549
 21
141.5167610791367
 31
0.0
  0
ARC
  5
BD
  8
0
  6
CONTINUOUS
 62
     7
 10
153.72189795319181
 20
137.98122370574251
 30
0.0
 40
5.0000085982928892
 50
135.00004233647181
 51
179.99996134381649
  0
LINE
  5
BE
  8
0
  6
CONTINUOUS
 62
     7
 10
148.7218893549001
 20
137.98122707913669
 30
0.0
 11
148.7218893549001
 21
136.67361507913671
 31
0.0
  0
ARC
  5
BF
  8
0
  6
CONTINUOUS
 62
     7
 10
151.22188748721209
 20
136.6736132114487
 30
0.0
 40
2.4999981323127409
 50
179.99995719571311
 51
270.00004280428692
  0
ARC
  5
C0
  8
0
  6
CONTINUOUS
 62
     7
 10
151.2218897284377
 20
134.67361470559911
 30
0.0
 40
0.4999996264625512
 50
269.99995719571177
 51
0.0000428042865895
  0
LINE
  5
C1
  8
0
  6
CONTINUOUS
 62
     7
 10
151.7218893549001
 20
134.67361507913671
 30
0.0
 11
151.7218893549001
 21
136.17361507913671
 31
0.0
  0
ARC
  5
C2
  8
0
  6
CONTINUOUS
 62
     7
 10
152.2218889813625
 20
136.1736154526742
 30
0.0
 40
0.4999996264625369
 50
89.999957195711787
 51
180.00004280428661
  0
LINE
  5
C3
  8
0
  6
CONTINUOUS
 62
     7
 10
152.2218893549001
 20
136.67361507913671
 30
0.0
 11
153.7218893549001
 21
136.67361507913671
 31
0.0
  0
ARC
  5
C4
  8
0
  6
CONTINUOUS
 62
     7
 10
153.72189010197519
 20
135.6736158262118
 30
0.0
 40
0.9999992529251022
 50
359.99995719571342
 51
90.000042804286579
  0
LINE
  5
C5
  8
0
  6
CONTINUOUS
 62
     7
 10
154.7218893549001
 20
135.67361507913671
 30
0.0
 11
154.7218893549001
 21
133.67507607913669
 31
0.0
  0
LINE
  5
C9
  8
0
  6
CONTINUOUS
 62
     7
 10
122.7218893549001
 20
133.67507607913669
 30
0.0
 11
122.7218893549001
 21
135.67361507913671
 31
0.0
  0
ARC
  5
CA
  8
0
  6
CONTINUOUS
 62
     7
 10
123.72188860782489
 20
135.6736158262118
 30
0.0
 40
0.9999992529251022
 50
89.999957195713435
 51
180.00004280428661
  0
LINE
  5
CB
  8
0
  6
CONTINUOUS
 62
     7
 10
123.7218893549001
 20
136.67361507913671
 30
0.0
 11
125.2218893549001
 21
136.67361507913671
 31
0.0
  0
ARC
  5
CC
  8
0
  6
CONTINUOUS
 62
     7
 10
125.2218897284377
 20
136.1736154526742
 30
0.0
 40
0.4999996264625512
 50
359.99995719571342
 51
90.000042804288213
  0
LINE
  5
CD
  8
0
  6
CONTINUOUS
 62
     7
 10
125.7218893549001
 20
136.17361507913671
 30
0.0
 11
125.7218893549001
 21
134.67361507913671
 31
0.0
  0
ARC
  5
CE
  8
0
  6
CONTINUOUS
 62
     7
 10
126.2218889813625
 20
134.67361470559911
 30
0.0
 40
0.4999996264625369
 50
179.99995719571339
 51
270.00004280428823
  0
ARC
  5
CF
  8
0
  6
CONTINUOUS
 62
     7
 10
126.221891222588
 20
136.6736132114487
 30
0.0
 40
2.4999981323127409
 50
269.99995719571308
 51
0.0000428042869152
  0
LINE
  5
D0
  8
0
  6
CONTINUOUS
 62
     7
 10
128.7218893549001
 20
136.67361507913671
 30
0.0
 11
128.7218893549001
 21
137.98122707913669
 31
0.0
  0
ARC
  5
D1
  8
0
  6
CONTINUOUS
 62
     7
 10
123.7218807566083
 20
137.98122370574251
 30
0.0
 40
5.0000085982929079
 50
0.0000386561838325
 51
44.999957663528399
  0
LINE
  5
D2
  8
0
  6
CONTINUOUS
 62
     7
 10
127.2574233549
 20
141.5167610791367
 30
0.0
 11
125.8150353549001
 21
142.95914907913669
 31
0.0
  0
ARC
  5
D3
  8
0
  6
CONTINUOUS
 62
     7
 10
122.2794979815058
 20
139.42360648084491
 30
0.0
 40
5.0000085982929177
 50
45.000042336471928
 51
89.999961343816324
  0
LINE
  5
D4
  8
0
  6
CONTINUOUS
 62
     7
 10
122.27950135490001
 20
144.42361507913671
 30
0.0
 11
115.16427735489999
 21
144.42361507913671
 31
0.0
  0
ARC
  5
D5
  8
0
  6
CONTINUOUS
 62
     7
 10
115.1642807282942
 20
139.42360648084491
 30
0.0
 40
5.0000085982928661
 50
90.000038656183648
 51
134.99995766352819
  0
LINE
  5
D6
  8
0
  6
CONTINUOUS
 62
     7
 10
111.6287433549
 20
142.95914907913669
 30
0.0
 11
110.1863553549
 21
141.5167610791367
 31
0.0
  0
ARC
  5
D7
  8
0
  6
CONTINUOUS
 62
     7
 10
113.7218979531918
 20
137.98122370574251
 30
0.0
 40
5.0000085982929079
 50
135.00004233647201
 51
179.99996134381649
  0
LINE
  5
D8
  8
0
  6
CONTINUOUS
 62
     7
 10
108.7218893549001
 20
137.98122707913669
 30
0.0
 11
108.7218893549001
 21
136.67361507913671
 31
0.0
  0
ARC
  5
D9
  8
0
  6
CONTINUOUS
 62
     7
 10
111.2218874872121
 20
136.6736132114487
 30
0.0
 40
2.4999981323127409
 50
179.99995719571311
 51
270.00004280428692
  0
ARC
  5
DA
  8
0
  6
CONTINUOUS
 62
     7
 10
111.2218897284376
 20
134.67361470559911
 30
0.0
 40
0.4999996264625512
 50
269.99995719571342
 51
0.0000428042865895
  0
LINE
  5
DB
  8
0
  6
CONTINUOUS
 62
     7
 10
111.7218893549001
 20
134.67361507913671
 30
0.0
 11
111.7218893549001
 21
136.17361507913671
 31
0.0
  0
ARC
  5
DC
  8
0
  6
CONTINUOUS
 62
     7
 10
112.2218889813625
 20
136.1736154526742
 30
0.0
 40
0.4999996264625512
 50
89.999957195713435
 51
180.00004280428661
  0
LINE
  5
DD
  8
0
  6
CONTINUOUS
 62
     7
 10
112.2218893549
 20
136.67361507913671
 30
0.0
 11
113.7218893549
 21
136.67361507913671
 31
0.0
  0
ARC
  5
DE
  8
0
  6
CONTINUOUS
 62
     7
 10
113.72189010197521
 20
135.6736158262118
 30
0.0
 40
0.9999992529251022
 50
359.99995719571342
 51
90.000042804286579
  0
LINE
  5
DF
  8
0
  6
CONTINUOUS
 62
     7
 10
114.7218893549
 20
135.67361507913671
 30
0.0
 11
114.7218893549
 21
133.67507607913669
 31
0.0
  0
LINE
  5
E5
  8
0
  6
CONTINUOUS
 62
     7
 10
100.22335035490001
 20
148.17361507913671
 30
0.0
 11
102.2218893549
 21
148.17361507913671
 31
0.0
  0
ARC
  5
E6
  8
0
  6
CONTINUOUS
 62
     7
 10
102.22189010197521
 20
147.1736158262118
 30
0.0
 40
0.9999992529251022
 50
359.99995719571342
 51
90.000042804286579
  0
LINE
  5
E7
  8
0
  6
CONTINUOUS
 62
     7
 10
103.2218893549
 20
147.17361507913671
 30
0.0
 11
103.2218893549
 21
145.67361507913671
 31
0.0
  0
ARC
  5
E8
  8
0
  6
CONTINUOUS
 62
     7
 10
102.7218897284376
 20
145.67361470559899
 30
0.0
 40
0.4999996264625512
 50
269.99995719571342
 51
0.0000428042865895
  0
LINE
  5
E9
  8
0
  6
CONTINUOUS
 62
     7
 10
102.7218893549
 20
145.17361507913671
 30
0.0
 11
101.2218893549
 21
145.17361507913671
 31
0.0
  0
ARC
  5
EA
  8
0
  6
CONTINUOUS
 62
     7
 10
101.2218889813625
 20
144.6736154526742
 30
0.0
 40
0.4999996264625512
 50
89.999957195713435
 51
180.00004280428661
  0
ARC
  5
EB
  8
0
  6
CONTINUOUS
 62
     7
 10
103.2218874872121
 20
144.6736132114487
 30
0.0
 40
2.4999981323127409
 50
179.99995719571311
 51
270.00004280428692
  0
LINE
  5
EC
  8
0
  6
CONTINUOUS
 62
     7
 10
103.2218893549
 20
142.17361507913671
 30
0.0
 11
104.52950135490001
 21
142.17361507913671
 31
0.0
  0
ARC
  5
ED
  8
0
  6
CONTINUOUS
 62
     7
 10
104.5294979815058
 20
147.17362367742851
 30
0.0
 40
5.0000085982929221
 50
270.0000386561839
 51
314.99995766352828
  0
LINE
  5
EE
  8
0
  6
CONTINUOUS
 62
     7
 10
108.0650353549001
 20
143.6380810791367
 30
0.0
 11
109.5074233549
 21
145.08047007913669
 31
0.0
  0
ARC
  5
EF
  8
0
  6
CONTINUOUS
 62
     7
 10
105.97188196371739
 20
148.61600695253091
 30
0.0
 40
5.0000073911840976
 50
315.00003660689271
 51
359.99995561423719
  0
LINE
  5
F0
  8
0
  6
CONTINUOUS
 62
     7
 10
110.9718893549
 20
148.6160030791367
 30
0.0
 11
110.9718893549
 21
155.73122707913669
 31
0.0
  0
ARC
  5
F1
  8
0
  6
CONTINUOUS
 62
     7
 10
105.9718807566083
 20
155.73122370574239
 30
0.0
 40
5.0000085982929221
 50
0.0000386561839953
 51
44.999957663528399
  0
LINE
  5
F2
  8
0
  6
CONTINUOUS
 62
     7
 10
109.5074233549
 20
159.2667610791367
 30
0.0
 11
108.0650353549001
 21
160.70914907913669
 31
0.0
  0
ARC
  5
F3
  8
0
  6
CONTINUOUS
 62
     7
 10
104.5294979815059
 20
157.17360648084491
 30
0.0
 40
5.0000085982929079
 50
45.000042336472049
 51
89.999961343816494
  0
LINE
  5
F4
  8
0
  6
CONTINUOUS
 62
     7
 10
104.52950135490001
 20
162.17361507913671
 30
0.0
 11
103.2218893549
 21
162.17361507913671
 31
0.0
  0
ARC
  5
F5
  8
0
  6
CONTINUOUS
 62
     7
 10
103.2218874872121
 20
159.67361694682461
 30
0.0
 40
2.4999981323127409
 50
89.999957195713066
 51
180.00004280428689
  0
ARC
  5
F6
  8
0
  6
CONTINUOUS
 62
     7
 10
101.2218889813625
 20
159.67361470559911
 30
0.0
 40
0.4999996264625512
 50
179.99995719571169
 51
270.00004280428658
  0
LINE
  5
F7
  8
0
  6
CONTINUOUS
 62
     7
 10
101.2218893549
 20
159.1736150791366
 30
0.0
 11
102.7218893549
 21
159.1736150791366
 31
0.0
  0
ARC
  5
F8
  8
0
  6
CONTINUOUS
 62
     7
 10
102.7218897284376
 20
158.67361545267431
 30
0.0
 40
0.4999996264625369
 50
359.99995719571177
 51
90.000042804286579
  0
LINE
  5
F9
  8
0
  6
CONTINUOUS
 62
     7
 10
103.2218893549
 20
158.67361507913671
 30
0.0
 11
103.2218893549
 21
157.1736150791366
 31
0.0
  0
ARC
  5
FA
  8
0
  6
CONTINUOUS
 62
     7
 10
102.22189010197521
 20
157.1736143320615
 30
0.0
 40
0.9999992529251022
 50
269.99995719571342
 51
0.0000428042865895
  0
LINE
  5
FB
  8
0
  6
CONTINUOUS
 62
     7
 10
102.2218893549
 20
156.1736150791366
 30
0.0
 11
100.22335035490001
 21
156.1736150791366
 31
0.0
  0
LINE
  5
101
  8
0
  6
CONTINUOUS
 62
     7
 10
114.7218893549
 20
170.6736150791366
 30
0.0
 11
114.7218893549
 21
168.6736150791366
 31
0.0
  0
ARC
  5
102
  8
0
  6
CONTINUOUS
 62
     7
 10
113.72189010197521
 20
168.6736143320615
 30
0.0
 40
0.9999992529251022
 50
269.99995719571342
 51
0.0000428042865895
  0
LINE
  5
103
  8
0
  6
CONTINUOUS
 62
     7
 10
113.7218893549
 20
167.67361507913671
 30
0.0
 11
112.2218893549
 21
167.67361507913671
 31
0.0
  0
ARC
  5
104
  8
0
  6
CONTINUOUS
 62
     7
 10
112.2218889813625
 20
168.17361470559911
 30
0.0
 40
0.4999996264625369
 50
179.99995719571169
 51
270.00004280428658
  0
LINE
  5
105
  8
0
  6
CONTINUOUS
 62
     7
 10
111.7218893549001
 20
168.17361507913671
 30
0.0
 11
111.7218893549001
 21
169.6736150791366
 31
0.0
  0
ARC
  5
106
  8
0
  6
CONTINUOUS
 62
     7
 10
111.2218897284376
 20
169.67361545267431
 30
0.0
 40
0.4999996264625512
 50
359.99995719571177
 51
90.000042804286579
  0
ARC
  5
107
  8
0
  6
CONTINUOUS
 62
     7
 10
111.2218874872121
 20
167.67361694682461
 30
0.0
 40
2.4999981323127409
 50
89.999957195713066
 51
180.00004280428689
  0
LINE
  5
108
  8
0
  6
CONTINUOUS
 62
     7
 10
108.7218893549001
 20
167.67361507913671
 30
0.0
 11
108.7218893549001
 21
166.3660030791367
 31
0.0
  0
ARC
  5
109
  8
0
  6
CONTINUOUS
 62
     7
 10
113.72189674608261
 20
166.36600695253091
 30
0.0
 40
5.0000073911840781
 50
180.0000443857621
 51
224.9999633931067
  0
LINE
  5
10A
  8
0
  6
CONTINUOUS
 62
     7
 10
110.1863553549
 20
162.83047007913669
 30
0.0
 11
111.6287433549
 21
161.3880810791367
 31
0.0
  0
ARC
  5
10B
  8
0
  6
CONTINUOUS
 62
     7
 10
115.1642807282943
 20
164.9236236774284
 30
0.0
 40
5.0000085982928777
 50
225.00004233647149
 51
269.99996134381598
  0
LINE
  5
10C
  8
0
  6
CONTINUOUS
 62
     7
 10
115.16427735489999
 20
159.92361507913671
 30
0.0
 11
122.27950135490001
 21
159.92361507913671
 31
0.0
  0
ARC
  5
10D
  8
0
  6
CONTINUOUS
 62
     7
 10
122.2794979815058
 20
164.9236236774284
 30
0.0
 40
5.0000085982929079
 50
270.00003865618402
 51
314.99995766352851
  0
LINE
  5
10E
  8
0
  6
CONTINUOUS
 62
     7
 10
125.8150353549001
 20
161.3880810791367
 30
0.0
 11
127.2574233549
 21
162.83047007913669
 31
0.0
  0
ARC
  5
10F
  8
0
  6
CONTINUOUS
 62
     7
 10
123.72188196371749
 20
166.36600695253091
 30
0.0
 40
5.0000073911840683
 50
315.00003660689288
 51
359.99995561423748
  0
LINE
  5
110
  8
0
  6
CONTINUOUS
 62
     7
 10
128.7218893549001
 20
166.3660030791367
 30
0.0
 11
128.7218893549001
 21
167.67361507913671
 31
0.0
  0
ARC
  5
111
  8
0
  6
CONTINUOUS
 62
     7
 10
126.221891222588
 20
167.67361694682461
 30
0.0
 40
2.4999981323127409
 50
359.99995719571308
 51
90.000042804286906
  0
ARC
  5
112
  8
0
  6
CONTINUOUS
 62
     7
 10
126.2218889813625
 20
169.67361545267431
 30
0.0
 40
0.4999996264625369
 50
89.999957195711787
 51
180.0000428042882
  0
LINE
  5
113
  8
0
  6
CONTINUOUS
 62
     7
 10
125.7218893549001
 20
169.6736150791366
 30
0.0
 11
125.7218893549001
 21
168.17361507913671
 31
0.0
  0
ARC
  5
114
  8
0
  6
CONTINUOUS
 62
     7
 10
125.2218897284377
 20
168.17361470559911
 30
0.0
 40
0.4999996264625369
 50
269.99995719571177
 51
0.0000428042882179
  0
LINE
  5
115
  8
0
  6
CONTINUOUS
 62
     7
 10
125.2218893549001
 20
167.67361507913671
 30
0.0
 11
123.7218893549001
 21
167.67361507913671
 31
0.0
  0
ARC
  5
116
  8
0
  6
CONTINUOUS
 62
     7
 10
123.72188860782489
 20
168.6736143320615
 30
0.0
 40
0.9999992529251022
 50
179.99995719571339
 51
270.00004280428658
  0
LINE
  5
117
  8
0
  6
CONTINUOUS
 62
     7
 10
122.7218893549001
 20
168.6736150791366
 30
0.0
 11
122.7218893549001
 21
170.67361507913671
 31
0.0
  0
LINE
  5
11B
  8
0
  6
CONTINUOUS
 62
     7
 10
154.7218893549001
 20
170.67361507913671
 30
0.0
 11
154.7218893549001
 21
168.6736150791366
 31
0.0
  0
ARC
  5
11C
  8
0
  6
CONTINUOUS
 62
     7
 10
153.72189010197519
 20
168.6736143320615
 30
0.0
 40
0.9999992529251022
 50
269.99995719571342
 51
0.0000428042865895
  0
LINE
  5
11D
  8
0
  6
CONTINUOUS
 62
     7
 10
153.7218893549001
 20
167.67361507913671
 30
0.0
 11
152.2218893549001
 21
167.67361507913671
 31
0.0
  0
ARC
  5
11E
  8
0
  6
CONTINUOUS
 62
     7
 10
152.2218889813625
 20
168.17361470559911
 30
0.0
 40
0.4999996264625369
 50
179.99995719571169
 51
270.00004280428823
  0
LINE
  5
11F
  8
0
  6
CONTINUOUS
 62
     7
 10
151.7218893549001
 20
168.17361507913671
 30
0.0
 11
151.7218893549001
 21
169.6736150791366
 31
0.0
  0
ARC
  5
120
  8
0
  6
CONTINUOUS
 62
     7
 10
151.2218897284377
 20
169.67361545267431
 30
0.0
 40
0.4999996264625369
 50
359.99995719571177
 51
90.000042804288213
  0
ARC
  5
121
  8
0
  6
CONTINUOUS
 62
     7
 10
151.22188748721209
 20
167.67361694682461
 30
0.0
 40
2.4999981323127409
 50
89.999957195713066
 51
180.00004280428689
  0
LINE
  5
122
  8
0
  6
CONTINUOUS
 62
     7
 10
148.7218893549001
 20
167.67361507913671
 30
0.0
 11
148.7218893549001
 21
166.3660030791367
 31
0.0
  0
ARC
  5
123
  8
0
  6
CONTINUOUS
 62
     7
 10
153.72189674608259
 20
166.36600695253091
 30
0.0
 40
5.0000073911840488
 50
180.0000443857621
 51
224.9999633931069
  0
LINE
  5
124
  8
0
  6
CONTINUOUS
 62
     7
 10
150.1863553549
 20
162.83047007913669
 30
0.0
 11
151.6287433549
 21
161.3880810791367
 31
0.0
  0
ARC
  5
125
  8
0
  6
CONTINUOUS
 62
     7
 10
155.16428072829419
 20
164.9236236774284
 30
0.0
 40
5.0000085982928777
 50
225.00004233647149
 51
269.99996134381598
  0
LINE
  5
126
  8
0
  6
CONTINUOUS
 62
     7
 10
155.16427735490001
 20
159.92361507913671
 30
0.0
 11
162.27950135489999
 21
159.92361507913671
 31
0.0
  0
ARC
  5
127
  8
0
  6
CONTINUOUS
 62
     7
 10
162.27949798150581
 20
164.9236236774284
 30
0.0
 40
5.0000085982929079
 50
270.00003865618402
 51
314.99995766352851
  0
LINE
  5
128
  8
0
  6
CONTINUOUS
 62
     7
 10
165.81503535490009
 20
161.3880810791367
 30
0.0
 11
167.25742335490011
 21
162.83047007913669
 31
0.0
  0
ARC
  5
129
  8
0
  6
CONTINUOUS
 62
     7
 10
163.72188196371749
 20
166.36600695253091
 30
0.0
 40
5.0000073911840683
 50
315.00003660689288
 51
359.99995561423748
  0
LINE
  5
12A
  8
0
  6
CONTINUOUS
 62
     7
 10
168.7218893549001
 20
166.3660030791367
 30
0.0
 11
168.7218893549001
 21
167.67361507913671
 31
0.0
  0
ARC
  5
12B
  8
0
  6
CONTINUOUS
 62
     7
 10
166.221891222588
 20
167.67361694682461
 30
0.0
 40
2.4999981323127409
 50
359.99995719571308
 51
90.000042804286906
  0
ARC
  5
12C
  8
0
  6
CONTINUOUS
 62
     7
 10
166.2218889813625
 20
169.67361545267431
 30
0.0
 40
0.4999996264625369
 50
89.999957195711787
 51
180.0000428042882
  0
LINE
  5
12D
  8
0
  6
CONTINUOUS
 62
     7
 10
165.7218893549001
 20
169.6736150791366
 30
0.0
 11
165.7218893549001
 21
168.17361507913671
 31
0.0
  0
ARC
  5
12E
  8
0
  6
CONTINUOUS
 62
     7
 10
165.2218897284377
 20
168.17361470559911
 30
0.0
 40
0.4999996264625369
 50
269.99995719571177
 51
0.0000428042882179
  0
LINE
  5
12F
  8
0
  6
CONTINUOUS
 62
     7
 10
165.2218893549001
 20
167.67361507913671
 30
0.0
 11
163.7218893549001
 21
167.67361507913671
 31
0.0
  0
ARC
  5
130
  8
0
  6
CONTINUOUS
 62
     7
 10
163.72188860782489
 20
168.6736143320615
 30
0.0
 40
0.9999992529251022
 50
179.99995719571339
 51
270.00004280428658
  0
LINE
  5
131
  8
0
  6
CONTINUOUS
 62
     7
 10
162.7218893549001
 20
168.6736150791366
 30
0.0
 11
162.7218893549001
 21
170.6736150791366
 31
0.0
  0
LINE
  5
135
  8
0
  6
CONTINUOUS
 62
     7
 10
194.7218893549001
 20
170.67361507913671
 30
0.0
 11
194.7218893549001
 21
168.6736150791366
 31
0.0
  0
ARC
  5
136
  8
0
  6
CONTINUOUS
 62
     7
 10
193.72189010197519
 20
168.6736143320615
 30
0.0
 40
0.9999992529251022
 50
269.99995719571342
 51
0.0000428042865895
  0
LINE
  5
137
  8
0
  6
CONTINUOUS
 62
     7
 10
193.7218893549001
 20
167.67361507913671
 30
0.0
 11
192.2218893549001
 21
167.67361507913671
 31
0.0
  0
ARC
  5
138
  8
0
  6
CONTINUOUS
 62
     7
 10
192.2218889813625
 20
168.17361470559911
 30
0.0
 40
0.4999996264625369
 50
179.99995719571169
 51
270.00004280428823
  0
LINE
  5
139
  8
0
  6
CONTINUOUS
 62
     7
 10
191.7218893549001
 20
168.17361507913671
 30
0.0
 11
191.7218893549001
 21
169.6736150791366
 31
0.0
  0
ARC
  5
13A
  8
0
  6
CONTINUOUS
 62
     7
 10
191.2218897284377
 20
169.67361545267431
 30
0.0
 40
0.4999996264625369
 50
359.99995719571177
 51
90.000042804288213
  0
ARC
  5
13B
  8
0
  6
CONTINUOUS
 62
     7
 10
191.22188748721209
 20
167.67361694682461
 30
0.0
 40
2.4999981323127409
 50
89.999957195713066
 51
180.00004280428689
  0
LINE
  5
13C
  8
0
  6
CONTINUOUS
 62
     7
 10
188.7218893549001
 20
167.67361507913671
 30
0.0
 11
188.7218893549001
 21
166.3660030791367
 31
0.0
  0
ARC
  5
13D
  8
0
  6
CONTINUOUS
 62
     7
 10
193.72189674608259
 20
166.36600695253091
 30
0.0
 40
5.0000073911840488
 50
180.0000443857621
 51
224.9999633931069
  0
LINE
  5
13E
  8
0
  6
CONTINUOUS
 62
     7
 10
190.1863553549
 20
162.83047007913669
 30
0.0
 11
191.6287433549
 21
161.3880810791367
 31
0.0
  0
ARC
  5
13F
  8
0
  6
CONTINUOUS
 62
     7
 10
195.1642807282943
 20
164.9236236774284
 30
0.0
 40
5.0000085982928777
 50
225.00004233647149
 51
269.99996134381598
  0
LINE
  5
140
  8
0
  6
CONTINUOUS
 62
     7
 10
195.16427735490001
 20
159.92361507913671
 30
0.0
 11
202.27950135490011
 21
159.92361507913671
 31
0.0
  0
ARC
  5
141
  8
0
  6
CONTINUOUS
 62
     7
 10
202.2794979815059
 20
164.9236236774284
 30
0.0
 40
5.0000085982928804
 50
270.00003865618402
 51
314.99995766352851
  0
LINE
  5
142
  8
0
  6
CONTINUOUS
 62
     7
 10
205.81503535490009
 20
161.3880810791367
 30
0.0
 11
207.25742335490011
 21
162.83047007913669
 31
0.0
  0
ARC
  5
143
  8
0
  6
CONTINUOUS
 62
     7
 10
203.72188196371749
 20
166.36600695253091
 30
0.0
 40
5.0000073911840683
 50
315.00003660689288
 51
359.99995561423748
  0
LINE
  5
144
  8
0
  6
CONTINUOUS
 62
     7
 10
208.7218893549001
 20
166.3660030791367
 30
0.0
 11
208.7218893549001
 21
167.67361507913671
 31
0.0
  0
ARC
  5
145
  8
0
  6
CONTINUOUS
 62
     7
 10
206.22189122258811
 20
167.67361694682461
 30
0.0
 40
2.4999981323127409
 50
359.99995719571308
 51
90.000042804286906
  0
ARC
  5
146
  8
0
  6
CONTINUOUS
 62
     7
 10
206.2218889813625
 20
169.67361545267431
 30
0.0
 40
0.4999996264625369
 50
89.999957195711787
 51
180.0000428042882
  0
LINE
  5
147
  8
0
  6
CONTINUOUS
 62
     7
 10
205.7218893549001
 20
169.6736150791366
 30
0.0
 11
205.7218893549001
 21
168.17361507913671
 31
0.0
  0
ARC
  5
148
  8
0
  6
CONTINUOUS
 62
     7
 10
205.2218897284377
 20
168.17361470559911
 30
0.0
 40
0.4999996264625369
 50
269.99995719571177
 51
0.0000428042882179
  0
LINE
  5
149
  8
0
  6
CONTINUOUS
 62
     7
 10
205.2218893549001
 20
167.67361507913671
 30
0.0
 11
203.7218893549001
 21
167.67361507913671
 31
0.0
  0
ARC
  5
14A
  8
0
  6
CONTINUOUS
 62
     7
 10
203.72188860782489
 20
168.6736143320615
 30
0.0
 40
0.9999992529251022
 50
179.99995719571339
 51
270.00004280428658
  0
LINE
  5
14B
  8
0
  6
CONTINUOUS
 62
     7
 10
202.7218893549001
 20
168.6736150791366
 30
0.0
 11
202.7218893549001
 21
170.67361507913671
 31
0.0
  0
LINE
  5
14F
  8
0
  6
CONTINUOUS
 62
     7
 10
234.7218893549001
 20
170.67361507913671
 30
0.0
 11
234.7218893549001
 21
168.6736150791366
 31
0.0
  0
ARC
  5
150
  8
0
  6
CONTINUOUS
 62
     7
 10
233.7218901019753
 20
168.6736143320615
 30
0.0
 40
0.9999992529251022
 50
269.99995719571342
 51
0.0000428042865895
  0
LINE
  5
151
  8
0
  6
CONTINUOUS
 62
     7
 10
233.7218893549001
 20
167.67361507913671
 30
0.0
 11
232.2218893549001
 21
167.67361507913671
 31
0.0
  0
ARC
  5
152
  8
0
  6
CONTINUOUS
 62
     7
 10
232.2218889813625
 20
168.17361470559911
 30
0.0
 40
0.4999996264625369
 50
179.99995719571169
 51
270.00004280428823
  0
LINE
  5
153
  8
0
  6
CONTINUOUS
 62
     7
 10
231.7218893549001
 20
168.17361507913671
 30
0.0
 11
231.7218893549001
 21
169.6736150791366
 31
0.0
  0
ARC
  5
154
  8
0
  6
CONTINUOUS
 62
     7
 10
231.2218897284377
 20
169.67361545267431
 30
0.0
 40
0.4999996264625369
 50
359.99995719571177
 51
90.000042804288213
  0
ARC
  5
155
  8
0
  6
CONTINUOUS
 62
     7
 10
231.22188748721209
 20
167.67361694682461
 30
0.0
 40
2.4999981323127409
 50
89.999957195713066
 51
180.00004280428689
  0
LINE
  5
156
  8
0
  6
CONTINUOUS
 62
     7
 10
228.7218893549001
 20
167.67361507913671
 30
0.0
 11
228.7218893549001
 21
166.3660030791367
 31
0.0
  0
ARC
  5
157
  8
0
  6
CONTINUOUS
 62
     7
 10
233.72189674608271
 20
166.36600695253091
 30
0.0
 40
5.0000073911840781
 50
180.00004438576249
 51
224.99996339310709
  0
LINE
  5
158
  8
0
  6
CONTINUOUS
 62
     7
 10
230.18635535490009
 20
162.83047007913669
 30
0.0
 11
231.62874335490011
 21
161.3880810791367
 31
0.0
  0
ARC
  5
159
  8
0
  6
CONTINUOUS
 62
     7
 10
235.1642807282943
 20
164.9236236774284
 30
0.0
 40
5.0000085982928777
 50
225.00004233647149
 51
269.99996134381598
  0
LINE
  5
15A
  8
0
  6
CONTINUOUS
 62
     7
 10
235.16427735490001
 20
159.92361507913671
 30
0.0
 11
242.27950135490011
 21
159.92361507913671
 31
0.0
  0
ARC
  5
15B
  8
0
  6
CONTINUOUS
 62
     7
 10
242.27949798150581
 20
164.9236236774284
 30
0.0
 40
5.0000085982928804
 50
270.00003865618402
 51
314.99995766352851
  0
LINE
  5
15C
  8
0
  6
CONTINUOUS
 62
     7
 10
245.81503535490009
 20
161.3880810791367
 30
0.0
 11
247.25742335490011
 21
162.83047007913669
 31
0.0
  0
ARC
  5
15D
  8
0
  6
CONTINUOUS
 62
     7
 10
243.72188196371749
 20
166.36600695253091
 30
0.0
 40
5.0000073911840683
 50
315.00003660689339
 51
359.99995561423788
  0
LINE
  5
15E
  8
0
  6
CONTINUOUS
 62
     7
 10
248.72188935489999
 20
166.3660030791367
 30
0.0
 11
248.72188935489999
 21
167.67361507913671
 31
0.0
  0
ARC
  5
15F
  8
0
  6
CONTINUOUS
 62
     7
 10
246.221891222588
 20
167.67361694682461
 30
0.0
 40
2.4999981323127409
 50
359.99995719571251
 51
90.000042804286267
  0
ARC
  5
160
  8
0
  6
CONTINUOUS
 62
     7
 10
246.2218889813625
 20
169.67361545267431
 30
0.0
 40
0.4999996264625369
 50
89.999957195711787
 51
180.0000428042882
  0
LINE
  5
161
  8
0
  6
CONTINUOUS
 62
     7
 10
245.7218893549001
 20
169.6736150791366
 30
0.0
 11
245.7218893549001
 21
168.17361507913671
 31
0.0
  0
ARC
  5
162
  8
0
  6
CONTINUOUS
 62
     7
 10
245.2218897284377
 20
168.17361470559911
 30
0.0
 40
0.4999996264625369
 50
269.99995719571177
 51
0.0000428042882179
  0
LINE
  5
163
  8
0
  6
CONTINUOUS
 62
     7
 10
245.2218893549001
 20
167.67361507913671
 30
0.0
 11
243.7218893549001
 21
167.67361507913671
 31
0.0
  0
ARC
  5
164
  8
0
  6
CONTINUOUS
 62
     7
 10
243.72188860782489
 20
168.6736143320615
 30
0.0
 40
0.9999992529251022
 50
179.99995719571339
 51
270.00004280428658
  0
LINE
  5
165
  8
0
  6
CONTINUOUS
 62
     7
 10
242.7218893549001
 20
168.6736150791366
 30
0.0
 11
242.7218893549001
 21
170.67361507913671
 31
0.0
  0
LINE
  5
16B
  8
0
  6
CONTINUOUS
 62
     7
 10
257.2218893549001
 20
156.1736150791366
 30
0.0
 11
255.22188935489999
 21
156.1736150791366
 31
0.0
  0
ARC
  5
16C
  8
0
  6
CONTINUOUS
 62
     7
 10
255.22188860782481
 20
157.1736143320615
 30
0.0
 40
0.9999992529251022
 50
179.99995719571339
 51
270.00004280428823
  0
LINE
  5
16D
  8
0
  6
CONTINUOUS
 62
     7
 10
254.2218893549001
 20
157.1736150791366
 30
0.0
 11
254.2218893549001
 21
158.67361507913671
 31
0.0
  0
ARC
  5
16E
  8
0
  6
CONTINUOUS
 62
     7
 10
254.72188898136241
 20
158.67361545267431
 30
0.0
 40
0.4999996264625369
 50
89.999957195711787
 51
180.0000428042882
  0
LINE
  5
16F
  8
0
  6
CONTINUOUS
 62
     7
 10
254.72188935489999
 20
159.1736150791366
 30
0.0
 11
256.2218893549001
 21
159.1736150791366
 31
0.0
  0
ARC
  5
170
  8
0
  6
CONTINUOUS
 62
     7
 10
256.2218897284377
 20
159.67361470559911
 30
0.0
 40
0.4999996264625369
 50
269.99995719571177
 51
0.0000428042882179
  0
ARC
  5
171
  8
0
  6
CONTINUOUS
 62
     7
 10
254.221891222588
 20
159.67361694682461
 30
0.0
 40
2.4999981323127409
 50
359.99995719571308
 51
90.000042804286906
  0
LINE
  5
172
  8
0
  6
CONTINUOUS
 62
     7
 10
254.2218893549001
 20
162.17361507913671
 30
0.0
 11
252.91427735490009
 21
162.17361507913671
 31
0.0
  0
ARC
  5
173
  8
0
  6
CONTINUOUS
 62
     7
 10
252.91428072829419
 20
157.17360648084491
 30
0.0
 40
5.0000085982928804
 50
90.000038656183335
 51
134.99995766352779
  0
LINE
  5
174
  8
0
  6
CONTINUOUS
 62
     7
 10
249.3787433549
 20
160.70914907913669
 30
0.0
 11
247.93635535490009
 21
159.2667610791367
 31
0.0
  0
ARC
  5
175
  8
0
  6
CONTINUOUS
 62
     7
 10
251.47189795319181
 20
155.73122370574239
 30
0.0
 40
5.0000085982929177
 50
135.00004233647141
 51
179.99996134381601
  0
LINE
  5
176
  8
0
  6
CONTINUOUS
 62
     7
 10
246.4718893549001
 20
155.73122707913669
 30
0.0
 11
246.4718893549001
 21
148.6160030791367
 31
0.0
  0
ARC
  5
177
  8
0
  6
CONTINUOUS
 62
     7
 10
251.47189674608271
 20
148.61600695253091
 30
0.0
 40
5.0000073911841056
 50
180.00004438576281
 51
224.99996339310709
  0
LINE
  5
178
  8
0
  6
CONTINUOUS
 62
     7
 10
247.93635535490009
 20
145.08047007913669
 30
0.0
 11
249.3787433549
 21
143.6380810791367
 31
0.0
  0
ARC
  5
179
  8
0
  6
CONTINUOUS
 62
     7
 10
252.9142807282943
 20
147.1736236774284
 30
0.0
 40
5.0000085982928777
 50
225.00004233647149
 51
269.99996134381598
  0
ARC
  5
17A
  8
0
  6
CONTINUOUS
 62
     7
 10
102.7218877113346
 20
168.17361672270201
 30
0.0
 40
2.199998356435219
 50
89.999957195712824
 51
180.00004280428641
  0
LINE
  5
17B
  8
0
  6
CONTINUOUS
 62
     7
 10
100.5218893549
 20
168.17361507913671
 30
0.0
 11
100.5218893549
 21
163.97361507913669
 31
0.0
  0
LINE
  5
17C
  8
0
  6
CONTINUOUS
 62
     7
 10
100.5218893549
 20
163.97361507913669
 30
0.0
 11
106.9218893549001
 21
163.97361507913669
 31
0.0
  0
LINE
  5
17D
  8
0
  6
CONTINUOUS
 62
     7
 10
106.9218893549001
 20
163.97361507913669
 30
0.0
 11
106.9218893549001
 21
170.37361507913661
 31
0.0
  0
LINE
  5
17E
  8
0
  6
CONTINUOUS
 62
     7
 10
106.9218893549001
 20
170.37361507913661
 30
0.0
 11
102.7218893549
 21
170.37361507913661
 31
0.0
  0
ARC
  5
17F
  8
0
  6
CONTINUOUS
 62
     7
 10
102.7218877113346
 20
136.17361343557121
 30
0.0
 40
2.199998356435219
 50
179.99995719571319
 51
270.0000428042872
  0
LINE
  5
180
  8
0
  6
CONTINUOUS
 62
     7
 10
100.5218893549
 20
136.17361507913671
 30
0.0
 11
100.5218893549
 21
140.3736150791367
 31
0.0
  0
LINE
  5
181
  8
0
  6
CONTINUOUS
 62
     7
 10
100.5218893549
 20
140.3736150791367
 30
0.0
 11
106.9218893549001
 21
140.3736150791367
 31
0.0
  0
LINE
  5
182
  8
0
  6
CONTINUOUS
 62
     7
 10
106.9218893549001
 20
140.3736150791367
 30
0.0
 11
106.9218893549001
 21
133.97361507913661
 31
0.0
  0
LINE
  5
183
  8
0
  6
CONTINUOUS
 62
     7
 10
106.9218893549001
 20
133.97361507913661
 30
0.0
 11
102.7218893549
 21
133.97361507913661
 31
0.0
  0
LINE
  5
184
  8
0
  6
CONTINUOUS
 62
     7
 10
144.42188935490009
 20
170.17361507913671
 30
0.0
 11
133.0218893549
 21
170.17361507913671
 31
0.0
  0
ARC
  5
185
  8
0
  6
CONTINUOUS
 62
     7
 10
133.0218874872121
 20
167.67361694682461
 30
0.0
 40
2.4999981323127409
 50
89.999957195713066
 51
180.00004280428689
  0
LINE
  5
186
  8
0
  6
CONTINUOUS
 62
     7
 10
130.5218893549
 20
167.67361507913671
 30
0.0
 11
130.5218893549
 21
163.92336307913669
 31
0.0
  0
ARC
  5
187
  8
0
  6
CONTINUOUS
 62
     7
 10
125.5218807566083
 20
163.9233664525309
 30
0.0
 40
5.0000085982928804
 50
315.00004233647149
 51
359.99996134381598
  0
LINE
  5
188
  8
0
  6
CONTINUOUS
 62
     7
 10
129.05742335490001
 20
160.38782907913671
 30
0.0
 11
127.9363553549
 21
159.2667610791367
 31
0.0
  0
ARC
  5
189
  8
0
  6
CONTINUOUS
 62
     7
 10
131.47189795319181
 20
155.73122370574251
 30
0.0
 40
5.000008598292899
 50
135.00004233647169
 51
179.9999613438163
  0
LINE
  5
18A
  8
0
  6
CONTINUOUS
 62
     7
 10
126.4718893549001
 20
155.73122707913669
 30
0.0
 11
126.4718893549001
 21
148.6160030791367
 31
0.0
  0
ARC
  5
18B
  8
0
  6
CONTINUOUS
 62
     7
 10
131.47189674608259
 20
148.6160069525308
 30
0.0
 40
5.0000073911840488
 50
180.0000443857621
 51
224.9999633931069
  0
LINE
  5
18C
  8
0
  6
CONTINUOUS
 62
     7
 10
127.9363553549
 20
145.08047007913669
 30
0.0
 11
129.05742335490001
 21
143.95940207913671
 31
0.0
  0
ARC
  5
18D
  8
0
  6
CONTINUOUS
 62
     7
 10
125.5218807566083
 20
140.4238647057424
 30
0.0
 40
5.0000085982929079
 50
0.0000386561838325
 51
44.999957663528399
  0
LINE
  5
18E
  8
0
  6
CONTINUOUS
 62
     7
 10
130.5218893549
 20
140.42386807913661
 30
0.0
 11
130.5218893549
 21
136.67361507913671
 31
0.0
  0
ARC
  5
18F
  8
0
  6
CONTINUOUS
 62
     7
 10
133.0218874872121
 20
136.6736132114487
 30
0.0
 40
2.4999981323127409
 50
179.99995719571311
 51
270.00004280428692
  0
LINE
  5
190
  8
0
  6
CONTINUOUS
 62
     7
 10
133.0218893549
 20
134.1736150791366
 30
0.0
 11
144.42188935490009
 21
134.1736150791366
 31
0.0
  0
ARC
  5
191
  8
0
  6
CONTINUOUS
 62
     7
 10
144.42189122258799
 20
136.6736132114487
 30
0.0
 40
2.4999981323127409
 50
269.99995719571308
 51
0.0000428042869152
  0
LINE
  5
192
  8
0
  6
CONTINUOUS
 62
     7
 10
146.92188935490009
 20
136.67361507913671
 30
0.0
 11
146.92188935490009
 21
140.42386807913661
 31
0.0
  0
ARC
  5
193
  8
0
  6
CONTINUOUS
 62
     7
 10
151.9218979531918
 20
140.42386470574249
 30
0.0
 40
5.0000085982928804
 50
135.00004233647181
 51
179.99996134381649
  0
LINE
  5
194
  8
0
  6
CONTINUOUS
 62
     7
 10
148.38635535489999
 20
143.95940207913671
 30
0.0
 11
149.50742335490011
 21
145.08047007913669
 31
0.0
  0
ARC
  5
195
  8
0
  6
CONTINUOUS
 62
     7
 10
145.97188196371749
 20
148.61600695253091
 30
0.0
 40
5.000007391184087
 50
315.00003660689271
 51
359.99995561423719
  0
LINE
  5
196
  8
0
  6
CONTINUOUS
 62
     7
 10
150.9718893549001
 20
148.6160030791367
 30
0.0
 11
150.9718893549001
 21
155.73122707913669
 31
0.0
  0
ARC
  5
197
  8
0
  6
CONTINUOUS
 62
     7
 10
145.9718807566083
 20
155.73122370574239
 30
0.0
 40
5.0000085982929079
 50
0.0000386561839953
 51
44.999957663528519
  0
LINE
  5
198
  8
0
  6
CONTINUOUS
 62
     7
 10
149.50742335490011
 20
159.2667610791367
 30
0.0
 11
148.38635535489999
 21
160.38782907913671
 31
0.0
  0
ARC
  5
199
  8
0
  6
CONTINUOUS
 62
     7
 10
151.9218979531918
 20
163.9233664525309
 30
0.0
 40
5.0000085982928582
 50
180.0000386561837
 51
224.99995766352831
  0
LINE
  5
19A
  8
0
  6
CONTINUOUS
 62
     7
 10
146.92188935490009
 20
163.92336307913669
 30
0.0
 11
146.92188935490009
 21
167.67361507913671
 31
0.0
  0
ARC
  5
19B
  8
0
  6
CONTINUOUS
 62
     7
 10
144.42189122258799
 20
167.67361694682461
 30
0.0
 40
2.4999981323127409
 50
359.99995719571308
 51
90.000042804286906
  0
LINE
  5
19C
  8
0
  6
CONTINUOUS
 62
     7
 10
184.42188935490009
 20
170.17361507913671
 30
0.0
 11
173.0218893549
 21
170.17361507913671
 31
0.0
  0
ARC
  5
19D
  8
0
  6
CONTINUOUS
 62
     7
 10
173.0218874872121
 20
167.67361694682461
 30
0.0
 40
2.4999981323127409
 50
89.999957195713066
 51
180.00004280428689
  0
LINE
  5
19E
  8
0
  6
CONTINUOUS
 62
     7
 10
170.5218893549
 20
167.67361507913671
 30
0.0
 11
170.5218893549
 21
163.92336307913669
 31
0.0
  0
ARC
  5
19F
  8
0
  6
CONTINUOUS
 62
     7
 10
165.52188075660831
 20
163.9233664525309
 30
0.0
 40
5.0000085982928804
 50
315.00004233647149
 51
359.99996134381598
  0
LINE
  5
1A0
  8
0
  6
CONTINUOUS
 62
     7
 10
169.05742335490001
 20
160.38782907913671
 30
0.0
 11
167.9363553549
 21
159.2667610791367
 31
0.0
  0
ARC
  5
1A1
  8
0
  6
CONTINUOUS
 62
     7
 10
171.47189795319181
 20
155.73122370574251
 30
0.0
 40
5.000008598292899
 50
135.00004233647169
 51
179.9999613438163
  0
LINE
  5
1A2
  8
0
  6
CONTINUOUS
 62
     7
 10
166.4718893549001
 20
155.73122707913669
 30
0.0
 11
166.4718893549001
 21
148.6160030791367
 31
0.0
  0
ARC
  5
1A3
  8
0
  6
CONTINUOUS
 62
     7
 10
171.47189674608259
 20
148.6160069525308
 30
0.0
 40
5.0000073911840488
 50
180.0000443857621
 51
224.9999633931069
  0
LINE
  5
1A4
  8
0
  6
CONTINUOUS
 62
     7
 10
167.9363553549
 20
145.08047007913669
 30
0.0
 11
169.05742335490001
 21
143.95940207913671
 31
0.0
  0
ARC
  5
1A5
  8
0
  6
CONTINUOUS
 62
     7
 10
165.52188075660831
 20
140.4238647057424
 30
0.0
 40
5.0000085982929079
 50
0.0000386561838325
 51
44.999957663528399
  0
LINE
  5
1A6
  8
0
  6
CONTINUOUS
 62
     7
 10
170.5218893549
 20
140.42386807913661
 30
0.0
 11
170.5218893549
 21
136.67361507913671
 31
0.0
  0
ARC
  5
1A7
  8
0
  6
CONTINUOUS
 62
     7
 10
173.0218874872121
 20
136.6736132114487
 30
0.0
 40
2.4999981323127409
 50
179.99995719571311
 51
270.00004280428692
  0
LINE
  5
1A8
  8
0
  6
CONTINUOUS
 62
     7
 10
173.0218893549
 20
134.1736150791366
 30
0.0
 11
184.42188935490009
 21
134.1736150791366
 31
0.0
  0
ARC
  5
1A9
  8
0
  6
CONTINUOUS
 62
     7
 10
184.42189122258799
 20
136.6736132114487
 30
0.0
 40
2.4999981323127409
 50
269.99995719571308
 51
0.0000428042869152
  0
LINE
  5
1AA
  8
0
  6
CONTINUOUS
 62
     7
 10
186.92188935490009
 20
136.67361507913671
 30
0.0
 11
186.92188935490009
 21
140.42386807913661
 31
0.0
  0
ARC
  5
1AB
  8
0
  6
CONTINUOUS
 62
     7
 10
191.9218979531918
 20
140.42386470574249
 30
0.0
 40
5.0000085982928804
 50
135.00004233647181
 51
179.99996134381649
  0
LINE
  5
1AC
  8
0
  6
CONTINUOUS
 62
     7
 10
188.38635535489999
 20
143.95940207913671
 30
0.0
 11
189.50742335490011
 21
145.08047007913669
 31
0.0
  0
ARC
  5
1AD
  8
0
  6
CONTINUOUS
 62
     7
 10
185.97188196371749
 20
148.61600695253091
 30
0.0
 40
5.000007391184087
 50
315.00003660689271
 51
359.99995561423719
  0
LINE
  5
1AE
  8
0
  6
CONTINUOUS
 62
     7
 10
190.9718893549001
 20
148.6160030791367
 30
0.0
 11
190.9718893549001
 21
155.73122707913669
 31
0.0
  0
ARC
  5
1AF
  8
0
  6
CONTINUOUS
 62
     7
 10
185.9718807566083
 20
155.73122370574239
 30
0.0
 40
5.0000085982929079
 50
0.0000386561839953
 51
44.999957663528519
  0
LINE
  5
1B0
  8
0
  6
CONTINUOUS
 62
     7
 10
189.50742335490011
 20
159.2667610791367
 30
0.0
 11
188.38635535489999
 21
160.38782907913671
 31
0.0
  0
ARC
  5
1B1
  8
0
  6
CONTINUOUS
 62
     7
 10
191.92189795319169
 20
163.9233664525309
 30
0.0
 40
5.0000085982928582
 50
180.0000386561837
 51
224.99995766352831
  0
LINE
  5
1B2
  8
0
  6
CONTINUOUS
 62
     7
 10
186.92188935490009
 20
163.92336307913669
 30
0.0
 11
186.92188935490009
 21
167.67361507913671
 31
0.0
  0
ARC
  5
1B3
  8
0
  6
CONTINUOUS
 62
     7
 10
184.42189122258799
 20
167.67361694682461
 30
0.0
 40
2.4999981323127409
 50
359.99995719571308
 51
90.000042804286906
  0
LINE
  5
1B4
  8
0
  6
CONTINUOUS
 62
     7
 10
224.42188935490009
 20
170.17361507913671
 30
0.0
 11
213.02188935490011
 21
170.17361507913671
 31
0.0
  0
ARC
  5
1B5
  8
0
  6
CONTINUOUS
 62
     7
 10
213.0218874872121
 20
167.67361694682461
 30
0.0
 40
2.4999981323127409
 50
89.999957195713066
 51
180.00004280428689
  0
LINE
  5
1B6
  8
0
  6
CONTINUOUS
 62
     7
 10
210.5218893549
 20
167.67361507913671
 30
0.0
 11
210.5218893549
 21
163.92336307913669
 31
0.0
  0
ARC
  5
1B7
  8
0
  6
CONTINUOUS
 62
     7
 10
205.52188075660831
 20
163.9233664525309
 30
0.0
 40
5.0000085982928804
 50
315.00004233647149
 51
359.99996134381598
  0
LINE
  5
1B8
  8
0
  6
CONTINUOUS
 62
     7
 10
209.05742335490001
 20
160.38782907913671
 30
0.0
 11
207.93635535490009
 21
159.2667610791367
 31
0.0
  0
ARC
  5
1B9
  8
0
  6
CONTINUOUS
 62
     7
 10
211.4718979531919
 20
155.73122370574239
 30
0.0
 40
5.0000085982929177
 50
135.00004233647141
 51
179.99996134381601
  0
LINE
  5
1BA
  8
0
  6
CONTINUOUS
 62
     7
 10
206.4718893549001
 20
155.73122707913669
 30
0.0
 11
206.4718893549001
 21
148.6160030791367
 31
0.0
  0
ARC
  5
1BB
  8
0
  6
CONTINUOUS
 62
     7
 10
211.47189674608271
 20
148.61600695253091
 30
0.0
 40
5.0000073911840781
 50
180.00004438576281
 51
224.99996339310741
  0
LINE
  5
1BC
  8
0
  6
CONTINUOUS
 62
     7
 10
207.93635535490009
 20
145.08047007913669
 30
0.0
 11
209.05742335490001
 21
143.95940207913671
 31
0.0
  0
ARC
  5
1BD
  8
0
  6
CONTINUOUS
 62
     7
 10
205.52188075660831
 20
140.4238647057424
 30
0.0
 40
5.0000085982929079
 50
0.0000386561838325
 51
44.999957663528399
  0
LINE
  5
1BE
  8
0
  6
CONTINUOUS
 62
     7
 10
210.5218893549
 20
140.42386807913661
 30
0.0
 11
210.5218893549
 21
136.67361507913671
 31
0.0
  0
ARC
  5
1BF
  8
0
  6
CONTINUOUS
 62
     7
 10
213.0218874872121
 20
136.6736132114487
 30
0.0
 40
2.4999981323127409
 50
179.99995719571311
 51
270.00004280428692
  0
LINE
  5
1C0
  8
0
  6
CONTINUOUS
 62
     7
 10
213.02188935490011
 20
134.1736150791366
 30
0.0
 11
224.42188935490009
 21
134.1736150791366
 31
0.0
  0
ARC
  5
1C1
  8
0
  6
CONTINUOUS
 62
     7
 10
224.4218912225881
 20
136.6736132114487
 30
0.0
 40
2.4999981323127409
 50
269.99995719571308
 51
0.0000428042869152
  0
LINE
  5
1C2
  8
0
  6
CONTINUOUS
 62
     7
 10
226.92188935490009
 20
136.67361507913671
 30
0.0
 11
226.92188935490009
 21
140.42386807913661
 31
0.0
  0
ARC
  5
1C3
  8
0
  6
CONTINUOUS
 62
     7
 10
231.9218979531918
 20
140.4238647057424
 30
0.0
 40
5.0000085982929079
 50
135.00004233647161
 51
179.99996134381621
  0
LINE
  5
1C4
  8
0
  6
CONTINUOUS
 62
     7
 10
228.3863553549001
 20
143.95940207913671
 30
0.0
 11
229.50742335490011
 21
145.08047007913669
 31
0.0
  0
ARC
  5
1C5
  8
0
  6
CONTINUOUS
 62
     7
 10
225.97188196371749
 20
148.61600695253091
 30
0.0
 40
5.000007391184087
 50
315.00003660689271
 51
359.99995561423719
  0
LINE
  5
1C6
  8
0
  6
CONTINUOUS
 62
     7
 10
230.9718893549001
 20
148.6160030791367
 30
0.0
 11
230.9718893549001
 21
155.73122707913669
 31
0.0
  0
ARC
  5
1C7
  8
0
  6
CONTINUOUS
 62
     7
 10
225.9718807566083
 20
155.73122370574239
 30
0.0
 40
5.0000085982929079
 50
0.0000386561839953
 51
44.999957663528519
  0
LINE
  5
1C8
  8
0
  6
CONTINUOUS
 62
     7
 10
229.50742335490011
 20
159.2667610791367
 30
0.0
 11
228.3863553549001
 21
160.38782907913671
 31
0.0
  0
ARC
  5
1C9
  8
0
  6
CONTINUOUS
 62
     7
 10
231.9218979531918
 20
163.9233664525309
 30
0.0
 40
5.0000085982928777
 50
180.00003865618399
 51
224.99995766352859
  0
LINE
  5
1CA
  8
0
  6
CONTINUOUS
 62
     7
 10
226.92188935490009
 20
163.92336307913669
 30
0.0
 11
226.92188935490009
 21
167.67361507913671
 31
0.0
  0
ARC
  5
1CB
  8
0
  6
CONTINUOUS
 62
     7
 10
224.4218912225881
 20
167.67361694682461
 30
0.0
 40
2.4999981323127409
 50
359.99995719571308
 51
90.000042804286906
  0
ARC
  5
1CC
  8
0
  6
CONTINUOUS
 62
     7
 10
254.64507999846549
 20
168.17361672270209
 30
0.0
 40
2.1999983564351901
 50
359.9999571957128
 51
90.000042804287915
  0
LINE
  5
1CD
  8
0
  6
CONTINUOUS
 62
     7
 10
256.84507835490012
 20
168.17361507913671
 30
0.0
 11
256.84507835490012
 21
163.97361507913669
 31
0.0
  0
LINE
  5
1CE
  8
0
  6
CONTINUOUS
 62
     7
 10
256.84507835490012
 20
163.97361507913669
 30
0.0
 11
250.44507835490009
 21
163.97361507913669
 31
0.0
  0
LINE
  5
1CF
  8
0
  6
CONTINUOUS
 62
     7
 10
250.44507835490009
 20
163.97361507913669
 30
0.0
 11
250.44507835490009
 21
170.37361507913661
 31
0.0
  0
LINE
  5
1D0
  8
0
  6
CONTINUOUS
 62
     7
 10
250.44507835490009
 20
170.37361507913661
 30
0.0
 11
254.64507835490011
 21
170.37361507913661
 31
0.0
  0
ARC
  5
1D1
  8
0
  6
CONTINUOUS
 62
     7
 10
254.64507999846549
 20
136.17361343557121
 30
0.0
 40
2.199998356435219
 50
269.99995719571211
 51
0.0000428042868116
  0
LINE
  5
1D2
  8
0
  6
CONTINUOUS
 62
     7
 10
256.84507835490012
 20
136.17361507913671
 30
0.0
 11
256.84507835490012
 21
140.3736150791367
 31
0.0
  0
LINE
  5
1D3
  8
0
  6
CONTINUOUS
 62
     7
 10
256.84507835490012
 20
140.3736150791367
 30
0.0
 11
250.44507835490009
 21
140.3736150791367
 31
0.0
  0
LINE
  5
1D4
  8
0
  6
CONTINUOUS
 62
     7
 10
250.44507835490009
 20
140.3736150791367
 30
0.0
 11
250.44507835490009
 21
133.97361507913661
 31
0.0
  0
LINE
  5
1D5
  8
0
  6
CONTINUOUS
 62
     7
 10
250.44507835490009
 20
133.97361507913661
 30
0.0
 11
254.64507835490011
 21
133.97361507913661
 31
0.0
  0
LINE
  5
1E0
  8
0
  6
CONTINUOUS
 62
     7
 10
244.2218893549001
 20
172.17361507913671
 30
0.0
 11
254.7218893549001
 21
172.17361507913671
 31
0.0
  0
LINE
  5
1E2
  8
0
  6
CONTINUOUS
 62
     7
 10
258.7218893549001
 20
157.67361507913671
 30
0.0
 11
258.7218893549001
 21
168.17361507913671
 31
0.0
  0
ARC
  5
1E4
  8
0
  6
CONTINUOUS
 62
     7
 10
102.7218893549001
 20
168.17361507913671
 30
0.0
 40
4.0
 50
90.0
 51
180.0
  0
ARC
  5
1E5
  8
0
  6
CONTINUOUS
 62
     7
 10
102.7218893549001
 20
136.17361507913671
 30
0.0
 40
4.0
 50
180.0
 51
270.0
  0
ARC
  5
1E6
  8
0
  6
CONTINUOUS
 62
     7
 10
254.7218893549001
 20
136.17361507913671
 30
0.0
 40
4.0
 50
270.0
 51
0.0
  0
ARC
  5
1E7
  8
0
  6
CONTINUOUS
 62
     7
 10
254.7218893549001
 20
168.17361507913671
 30
0.0
 40
4.0
 50
0.0
 51
90.0
  0
ARC
  5
1E8
  8
0
  6
CONTINUOUS
 62
     7
 10
244.2218893549001
 20
170.67361507913671
 30
0.0
 40
1.5
 50
90.0
 51
180.0
  0
LINE
  5
1E9
  8
0
  6
CONTINUOUS
 62
     7
 10
204.2218893549001
 20
172.17361507913671
 30
0.0
 11
233.2218893549001
 21
172.17361507913671
 31
0.0
  0
ARC
  5
1EA
  8
0
  6
CONTINUOUS
 62
     7
 10
233.2218893549001
 20
170.67361507913671
 30
0.0
 40
1.5
 50
0.0
 51
90.0
  0
ARC
  5
1EB
  8
0
  6
CONTINUOUS
 62
     7
 10
204.2218893549001
 20
170.67361507913671
 30
0.0
 40
1.5
 50
90.0
 51
180.0
  0
LINE
  5
1EC
  8
0
  6
CONTINUOUS
 62
     7
 10
164.2218893549001
 20
172.1736150791366
 30
0.0
 11
193.2218893549001
 21
172.17361507913671
 31
0.0
  0
ARC
  5
1ED
  8
0
  6
CONTINUOUS
 62
     7
 10
193.2218893549001
 20
170.67361507913671
 30
0.0
 40
1.5
 50
0.0
 51
90.0
  0
ARC
  5
1EE
  8
0
  6
CONTINUOUS
 62
     7
 10
164.2218893549001
 20
170.6736150791366
 30
0.0
 40
1.5
 50
90.0
 51
180.0
  0
LINE
  5
1EF
  8
0
  6
CONTINUOUS
 62
     7
 10
124.2218893549001
 20
172.17361507913671
 30
0.0
 11
153.2218893549001
 21
172.17361507913671
 31
0.0
  0
ARC
  5
1F0
  8
0
  6
CONTINUOUS
 62
     7
 10
153.2218893549001
 20
170.67361507913671
 30
0.0
 40
1.5
 50
0.0
 51
90.0
  0
ARC
  5
1F1
  8
0
  6
CONTINUOUS
 62
     7
 10
124.2218893549001
 20
170.67361507913671
 30
0.0
 40
1.5
 50
90.0
 51
180.0
  0
LINE
  5
1F2
  8
0
  6
CONTINUOUS
 62
     7
 10
102.7218893549001
 20
172.17361507913671
 30
0.0
 11
113.2218893549
 21
172.1736150791366
 31
0.0
  0
ARC
  5
1F3
  8
0
  6
CONTINUOUS
 62
     7
 10
113.2218893549
 20
170.6736150791366
 30
0.0
 40
1.5
 50
0.0
 51
90.0
  0
ARC
  5
1F4
  8
0
  6
CONTINUOUS
 62
     7
 10
257.2218893549001
 20
157.67361507913671
 30
0.0
 40
1.5
 50
270.0
 51
0.0
  0
LINE
  5
1F5
  8
0
  6
CONTINUOUS
 62
     7
 10
258.7218893549001
 20
136.17361507913671
 30
0.0
 11
258.7218893549001
 21
146.6736150791366
 31
0.0
  0
ARC
  5
1F6
  8
0
  6
CONTINUOUS
 62
     7
 10
257.2218893549001
 20
146.6736150791366
 30
0.0
 40
1.5
 50
0.0
 51
90.0
  0
LINE
  5
1F7
  8
0
  6
CONTINUOUS
 62
     7
 10
98.7218893549001
 20
136.17361507913671
 30
0.0
 11
98.7218893549001
 21
146.6736150791366
 31
0.0
  0
LINE
  5
1F8
  8
0
  6
CONTINUOUS
 62
     7
 10
98.7218893549001
 20
157.67361507913671
 30
0.0
 11
98.7218893549001
 21
168.17361507913671
 31
0.0
  0
ARC
  5
1F9
  8
0
  6
CONTINUOUS
 62
     7
 10
100.2218893549001
 20
157.67361507913671
 30
0.0
 40
1.5
 50
180.0
 51
270.0
  0
ARC
  5
1FA
  8
0
  6
CONTINUOUS
 62
     7
 10
100.2218893549001
 20
146.6736150791366
 30
0.0
 40
1.5
 50
90.0
 51
180.0
  0
ARC
  5
1FB
  8
0
  6
CONTINUOUS
 62
     7
 10
193.2218893549001
 20
133.6736150791366
 30
0.0
 40
1.5
 50
270.0
 51
0.0
  0
LINE
  5
1FC
  8
0
  6
CONTINUOUS
 62
     7
 10
124.2218893549001
 20
132.1736150791366
 30
0.0
 11
153.2218893549001
 21
132.1736150791366
 31
0.0
  0
ARC
  5
1FD
  8
0
  6
CONTINUOUS
 62
     7
 10
113.2218893549
 20
133.6736150791366
 30
0.0
 40
1.5
 50
270.0
 51
0.0
  0
ARC
  5
1FE
  8
0
  6
CONTINUOUS
 62
     7
 10
124.2218893549001
 20
133.6736150791366
 30
0.0
 40
1.5
 50
180.0
 51
270.0
  0
LINE
  5
1FF
  8
0
  6
CONTINUOUS
 62
     7
 10
164.2218893549001
 20
132.1736150791366
 30
0.0
 11
193.2218893549001
 21
132.1736150791366
 31
0.0
  0
ARC
  5
200
  8
0
  6
CONTINUOUS
 62
     7
 10
153.2218893549001
 20
133.6736150791366
 30
0.0
 40
1.5
 50
270.0
 51
0.0
  0
ARC
  5
201
  8
0
  6
CONTINUOUS
 62
     7
 10
164.2218893549001
 20
133.6736150791366
 30
0.0
 40
1.5
 50
180.0
 51
270.0
  0
LINE
  5
202
  8
0
  6
CONTINUOUS
 62
     7
 10
204.2218893549001
 20
132.1736150791366
 30
0.0
 11
233.2218893549001
 21
132.1736150791366
 31
0.0
  0
ARC
  5
203
  8
0
  6
CONTINUOUS
 62
     7
 10
204.2218893549001
 20
133.6736150791366
 30
0.0
 40
1.5
 50
180.0
 51
270.0
  0
ARC
  5
204
  8
0
  6
CONTINUOUS
 62
     7
 10
233.2218893549001
 20
133.6736150791366
 30
0.0
 40
1.5
 50
270.0
 51
0.0
  0
LINE
  5
205
  8
0
  6
CONTINUOUS
 62
     7
 10
244.2218893549001
 20
132.1736150791366
 30
0.0
 11
254.7218893549001
 21
132.1736150791366
 31
0.0
  0
ARC
  5
206
  8
0
  6
CONTINUOUS
 62
     7
 10
244.2218893549001
 20
133.6736150791366
 30
0.0
 40
1.5
 50
180.0
 51
270.0
  0
LINE
  5
207
  8
0
  6
CONTINUOUS
 62
     7
 10
102.7218893549001
 20
132.1736150791366
 30
0.0
 11
113.2218893549
 21
132.1736150791366
 31
0.0
  0
LINE
  5
208
  8
0
  6
CONTINUOUS
 62
     7
 10
78.251457999999985
 20
172.17361507913671
 30
0.0
 11
18.251458
 21
172.17361507913671
 31
0.0
  0
LINE
  5
209
  8
0
  6
CONTINUOUS
 62
     7
 10
78.251458
 20
132.1736150791366
 30
0.0
 11
18.251458
 21
132.1736150791366
 31
0.0
  0
LINE
  5
20A
  8
0
  6
CONTINUOUS
 62
     7
 10
98.721889354900114
 20
192.3153044820144
 30
0.0
 11
98.7218893549001
 21
252.3153044820144
 31
0.0
  0
LINE
  5
20B
  8
0
  6
CONTINUOUS
 62
     7
 10
258.7218893549001
 20
192.3153044820144
 30
0.0
 11
258.7218893549001
 21
252.3153044820144
 31
0.0
  0
LINE
  5
20C
  8
0
  6
CONTINUOUS
 62
     7
 10
339.19232070980019
 20
172.17361507913671
 30
0.0
 11
339.19232070980019
 21
132.1736150791366
 31
0.0
  0
LINE
  5
20D
  8
0
  6
CONTINUOUS
 62
     7
 10
279.19232070980019
 20
172.17361507913671
 30
0.0
 11
279.19232070980019
 21
132.1736150791366
 31
0.0
  0
LINE
  5
20E
  8
0
  6
CONTINUOUS
 62
     7
 10
279.19232070980019
 20
132.1736150791366
 30
0.0
 11
339.19232070980019
 21
132.1736150791366
 31
0.0
  0
LINE
  5
20F
  8
0
  6
CONTINUOUS
 62
     7
 10
279.19232070980019
 20
172.17361507913671
 30
0.0
 11
339.19232070980019
 21
172.17361507913671
 31
0.0
  0
LINE
  5
210
  8
0
  6
CENTER
 62
     1
 10
274.19232070980019
 20
152.17361507913671
 30
0.0
 11
344.19232070980019
 21
152.17361507913671
 31
0.0
  0
LINE
  5
211
  8
0
  6
CONTINUOUS
 62
     7
 10
279.19232070980019
 20
156.1736150791366
 30
0.0
 11
339.19232070980019
 21
156.1736150791366
 31
0.0
  0
LINE
  5
212
  8
0
  6
CONTINUOUS
 62
     7
 10
279.19232070980019
 20
148.17361507913671
 30
0.0
 11
339.19232070980019
 21
148.17361507913671
 31
0.0
  0
LINE
  5
213
  8
0
  6
CONTINUOUS
 62
     7
 10
258.7218893549001
 20
52.031925676258943
 30
0.0
 11
98.7218893549001
 21
52.031925676258957
 31
0.0
  0
LINE
  5
214
  8
0
  6
CONTINUOUS
 62
     7
 10
258.7218893549001
 20
112.03192567625889
 30
0.0
 11
98.7218893549001
 21
112.03192567625889
 31
0.0
  0
LINE
  5
215
  8
0
  6
CONTINUOUS
 62
     7
 10
98.721889354900114
 20
112.03192567625889
 30
0.0
 11
98.7218893549001
 21
52.031925676258943
 31
0.0
  0
LINE
  5
216
  8
0
  6
CENTER
 62
     1
 10
158.7214953549001
 20
117.03192567625889
 30
0.0
 11
158.7214953549001
 21
47.031925676258879
 31
0.0
  0
LINE
  5
217
  8
0
  6
CENTER
 62
     1
 10
118.7214953549001
 20
117.03192567625889
 30
0.0
 11
118.7214953549001
 21
47.031925676258879
 31
0.0
  0
LINE
  5
218
  8
0
  6
CONTINUOUS
 62
     7
 10
194.72149535489999
 20
112.03192567625889
 30
0.0
 11
194.72149535489999
 21
52.031925676258943
 31
0.0
  0
LINE
  5
219
  8
0
  6
CONTINUOUS
 62
     7
 10
154.72149535489999
 20
112.03192567625889
 30
0.0
 11
154.72149535489999
 21
52.031925676258943
 31
0.0
  0
LINE
  5
21A
  8
0
  6
CONTINUOUS
 62
     7
 10
162.7214953549001
 20
112.03192567625889
 30
0.0
 11
162.7214953549001
 21
52.031925676258943
 31
0.0
  0
LINE
  5
21B
  8
0
  6
CONTINUOUS
 62
     7
 10
122.7214953549001
 20
112.03192567625889
 30
0.0
 11
122.7214953549001
 21
52.031925676258943
 31
0.0
  0
LINE
  5
21C
  8
0
  6
CONTINUOUS
 62
     7
 10
114.7214953549001
 20
112.03192567625889
 30
0.0
 11
114.7214953549001
 21
52.031925676258943
 31
0.0
  0
LINE
  5
21D
  8
0
  6
CONTINUOUS
 62
     7
 10
258.7218893549001
 20
112.03192567625889
 30
0.0
 11
258.7218893549001
 21
52.031925676258943
 31
0.0
  0
LINE
  5
21E
  8
0
  6
CENTER
 62
     1
 10
238.7214953549001
 20
117.03192567625889
 30
0.0
 11
238.7214953549001
 21
47.031925676258879
 31
0.0
  0
LINE
  5
21F
  8
0
  6
CONTINUOUS
 62
     7
 10
242.7214953549001
 20
112.03192567625889
 30
0.0
 11
242.7214953549001
 21
52.031925676258943
 31
0.0
  0
LINE
  5
220
  8
0
  6
CONTINUOUS
 62
     7
 10
234.7214953549001
 20
112.03192567625889
 30
0.0
 11
234.7214953549001
 21
52.031925676258943
 31
0.0
  0
LINE
  5
221
  8
0
  6
CONTINUOUS
 62
     7
 10
202.7214953549001
 20
112.03192567625889
 30
0.0
 11
202.7214953549001
 21
52.031925676258943
 31
0.0
  0
LINE
  5
222
  8
0
  6
CENTER
 62
     1
 10
198.72149535489999
 20
117.03192567625889
 30
0.0
 11
198.72149535489999
 21
47.031925676258879
 31
0.0
  0
TEXT
  5
332
  8
0
 62
     3
 10
0.0
 20
0.0
 30
0.0
 40
10.0
  1
SPL16040N
  7
STANDARD1
  0
ENDSEC
  0
EOF
