  0
SECTION
  2
HEADER
  9
$ACADVER
  1
AC1009
  9
$INSBASE
 10
0.0
 20
0.0
 30
0.0
  9
$EXTMIN
 10
0.0
 20
-2.960436562073669
 30
0.0
  9
$EXTMAX
 10
291.13603307188561
 20
191.44604584762129
 30
0.0
  9
$LIMMIN
 10
0.0
 20
0.0
  9
$LIMMAX
 10
375.0
 20
270.0
  9
$ORTHOMODE
 70
     1
  9
$REGENMODE
 70
     1
  9
$FILLMODE
 70
     1
  9
$QTEXTMODE
 70
     0
  9
$MIRRTEXT
 70
     0
  9
$DRAGMODE
 70
     2
  9
$LTSCALE
 40
10.0
  9
$OSMODE
 70
    55
  9
$ATTMODE
 70
     1
  9
$TEXTSIZE
 40
0.2
  9
$TRACEWID
 40
0.05
  9
$TEXTSTYLE
  7
STANDARD
  9
$CLAYER
  8
0
  9
$CELTYPE
  6
BYLAYER
  9
$CECOLOR
 62
   256
  9
$DIMSCALE
 40
1.0
  9
$DIMASZ
 40
3.0
  9
$DIMEXO
 40
2.0
  9
$DIMDLI
 40
0.38
  9
$DIMRND
 40
0.0
  9
$DIMDLE
 40
0.0
  9
$DIMEXE
 40
2.0
  9
$DIMTP
 40
0.0
  9
$DIMTM
 40
0.0
  9
$DIMTXT
 40
3.2000000000000002
  9
$DIMCEN
 40
0.0
  9
$DIMTSZ
 40
0.0
  9
$DIMTOL
 70
     0
  9
$DIMLIM
 70
     0
  9
$DIMTIH
 70
     0
  9
$DIMTOH
 70
     0
  9
$DIMSE1
 70
     0
  9
$DIMSE2
 70
     0
  9
$DIMTAD
 70
     1
  9
$DIMZIN
 70
     0
  9
$DIMBLK
  1

  9
$DIMASO
 70
     0
  9
$DIMSHO
 70
     0
  9
$DIMPOST
  1

  9
$DIMAPOST
  1

  9
$DIMALT
 70
     0
  9
$DIMALTD
 70
     2
  9
$DIMALTF
 40
25.399999999999999
  9
$DIMLFAC
 40
1.0
  9
$DIMTOFL
 70
     1
  9
$DIMTVP
 40
1.6000000000000001
  9
$DIMTIX
 70
     1
  9
$DIMSOXD
 70
     0
  9
$DIMSAH
 70
     0
  9
$DIMBLK1
  1

  9
$DIMBLK2
  1

  9
$DIMSTYLE
  2
STANDARD
  9
$DIMCLRD
 70
     0
  9
$DIMCLRE
 70
     0
  9
$DIMCLRT
 70
     0
  9
$DIMTFAC
 40
1.0
  9
$DIMGAP
 40
0.09
  9
$LUNITS
 70
     2
  9
$LUPREC
 70
     4
  9
$SKETCHINC
 40
0.1
  9
$FILLETRAD
 40
0.0
  9
$AUNITS
 70
     0
  9
$AUPREC
 70
     4
  9
$MENU
  1
E:\r13\win\SUPPORT\ACAD
  9
$ELEVATION
 40
0.0
  9
$PELEVATION
 40
0.0
  9
$THICKNESS
 40
0.0
  9
$LIMCHECK
 70
     0
  9
$BLIPMODE
 70
     0
  9
$CHAMFERA
 40
0.0
  9
$CHAMFERB
 40
0.0
  9
$SKPOLY
 70
     0
  9
$TDCREATE
 40
2449840.6508333329
  9
$TDUPDATE
 40
2456598.550246343
  9
$TDINDWG
 40
0.003851956
  9
$TDUSRTIMER
 40
0.003851956
  9
$USRTIMER
 70
     1
  9
$ANGBASE
 50
0.0
  9
$ANGDIR
 70
     0
  9
$PDMODE
 70
     0
  9
$PDSIZE
 40
0.0
  9
$PLINEWID
 40
0.0
  9
$COORDS
 70
     1
  9
$SPLFRAME
 70
     0
  9
$SPLINETYPE
 70
     6
  9
$SPLINESEGS
 70
     8
  9
$ATTDIA
 70
     0
  9
$ATTREQ
 70
     1
  9
$HANDLING
 70
     1
  9
$HANDSEED
  5
736
  9
$SURFTAB1
 70
     6
  9
$SURFTAB2
 70
     6
  9
$SURFTYPE
 70
     6
  9
$SURFU
 70
     6
  9
$SURFV
 70
     6
  9
$UCSNAME
  2

  9
$UCSORG
 10
0.0
 20
0.0
 30
0.0
  9
$UCSXDIR
 10
1.0
 20
0.0
 30
0.0
  9
$UCSYDIR
 10
0.0
 20
1.0
 30
0.0
  9
$PUCSNAME
  2

  9
$PUCSORG
 10
0.0
 20
0.0
 30
0.0
  9
$PUCSXDIR
 10
1.0
 20
0.0
 30
0.0
  9
$PUCSYDIR
 10
0.0
 20
1.0
 30
0.0
  9
$USERI1
 70
     0
  9
$USERI2
 70
     1
  9
$USERI3
 70
     0
  9
$USERI4
 70
     0
  9
$USERI5
 70
     0
  9
$USERR1
 40
0.0
  9
$USERR2
 40
0.0
  9
$USERR3
 40
0.0
  9
$USERR4
 40
0.0
  9
$USERR5
 40
0.0
  9
$WORLDVIEW
 70
     1
  9
$SHADEDGE
 70
     3
  9
$SHADEDIF
 70
    70
  9
$TILEMODE
 70
     1
  9
$MAXACTVP
 70
    16
  9
$PLIMCHECK
 70
     0
  9
$PEXTMIN
 10
1.0000000000000000E+020
 20
1.0000000000000000E+020
 30
1.0000000000000000E+020
  9
$PEXTMAX
 10
-1.0000000000000000E+020
 20
-1.0000000000000000E+020
 30
-1.0000000000000000E+020
  9
$PLIMMIN
 10
0.0
 20
0.0
  9
$PLIMMAX
 10
12.0
 20
9.0
  9
$UNITMODE
 70
     0
  9
$VISRETAIN
 70
     0
  9
$PLINEGEN
 70
     0
  9
$PSLTSCALE
 70
     0
  0
ENDSEC
  0
SECTION
  2
TABLES
  0
TABLE
  2
VPORT
 70
     1
  0
VPORT
  2
*ACTIVE
 70
     0
 10
0.0
 20
0.0
 11
1.0
 21
1.0
 12
187.49427839065231
 22
174.91677254346851
 13
0.0
 23
0.0
 14
10.0
 24
10.0
 15
10.0
 25
10.0
 16
0.0
 26
0.0
 36
1.0
 17
0.0
 27
0.0
 37
0.0
 40
358.92027899574339
 41
1.7807262569832401
 42
50.0
 43
0.0
 44
0.0
 50
0.0
 51
0.0
 71
     0
 72
   500
 73
     1
 74
     0
 75
     0
 76
     0
 77
     0
 78
     2
  0
ENDTAB
  0
TABLE
  2
LTYPE
 70
     3
  0
LTYPE
  2
CONTINUOUS
 70
     0
  3
Solid Line
 72
    65
 73
     0
 40
0.0
  0
LTYPE
  2
CENTER
 70
     0
  3
____ _ ____ _ ____ _ ____ _ ____ _ ____ _ ____
 72
    65
 73
     4
 40
2.0
 49
1.25
 49
-0.25
 49
0.25
 49
-0.25
  0
LTYPE
  2
PHANTOM2
 70
     0
  3
___ _ _ ___ _ _ ___ _ _ ___ _ _
 72
    65
 73
     6
 40
1.25
 49
0.625
 49
-0.125
 49
0.125
 49
-0.125
 49
0.125
 49
-0.125
  0
ENDTAB
  0
TABLE
  2
LAYER
 70
     5
  0
LAYER
  2
0
 70
     0
 62
     7
  6
CONTINUOUS
  0
LAYER
  2
1
 70
     0
 62
     1
  6
CENTER
  0
LAYER
  2
CHOKU02
 70
     0
 62
     7
  6
CONTINUOUS
  0
LAYER
  2
CHOKU01
 70
     0
 62
     4
  6
CONTINUOUS
  0
LAYER
  2
1TEXT
 70
     0
 62
     7
  6
CONTINUOUS
  0
ENDTAB
  0
TABLE
  2
STYLE
 70
     2
  0
STYLE
  2
STANDARD
 70
     0
 40
0.0
 41
1.0
 50
0.0
 71
     0
 42
0.2
  3
TXT
  4
BIGFONT
  0
STYLE
  2
STANDARD1
 70
     0
 40
0.0
 41
1.0
 50
0.0
 71
     0
 42
3.0
  3
txt
  4

  0
ENDTAB
  0
TABLE
  2
VIEW
 70
     1
  0
VIEW
  2
ALL
 70
     0
 40
270.0
 10
220.99159663865549
 20
135.0
 41
0.0
 11
0.0
 21
0.0
 31
1.0
 12
0.0
 22
0.0
 32
0.0
 42
0.0
 43
0.0
 44
0.0
 50
0.0
 71
     0
  0
ENDTAB
  0
TABLE
  2
UCS
 70
     0
  0
ENDTAB
  0
TABLE
  2
APPID
 70
     3
  0
APPID
  2
ACAD
 70
     0
  0
APPID
  2
ACAD_MLEADERVER
 70
     0
  0
APPID
  2
ACAD_NAV_VCDISPLAY
 70
     0
  0
ENDTAB
  0
TABLE
  2
DIMSTYLE
 70
     2
  0
DIMSTYLE
  2
STANDARD
 70
     0
  3

  4

  5

  6

  7

 40
1.0
 41
0.18
 42
0.0625
 43
0.38
 44
0.18
 45
0.0
 46
0.0
 47
0.0
 48
0.0
140
0.18
141
0.09
142
0.0
143
25.399999999999999
144
1.0
145
0.0
146
1.0
147
0.09
 71
     0
 72
     0
 73
     1
 74
     1
 75
     0
 76
     0
 77
     0
 78
     0
170
     0
171
     2
172
     0
173
     0
174
     0
175
     0
176
     0
177
     0
178
     0
  0
DIMSTYLE
  2
ISO-35
 70
     0
  3

  4

  5

  6

  7

 40
1.0
 41
3.5
 42
0.875
 43
5.25
 44
1.75
 45
0.0
 46
0.0
 47
0.0
 48
0.0
140
3.5
141
3.5
142
0.0
143
0.0394
144
1.0
145
0.0
146
1.0
147
0.875
 71
     0
 72
     0
 73
     0
 74
     0
 75
     0
 76
     0
 77
     1
 78
     8
170
     0
171
     4
172
     1
173
     0
174
     0
175
     0
176
     0
177
     0
178
     0
  0
ENDTAB
  0
ENDSEC
  0
SECTION
  2
BLOCKS
  0
BLOCK
  8
0
  2
$MODEL_SPACE
 70
     0
 10
0.0
 20
0.0
 30
0.0
  3
$MODEL_SPACE
  1

  0
ENDBLK
  5
1B7
  8
0
  0
BLOCK
 67
     1
  8
0
  2
$PAPER_SPACE
 70
     0
 10
0.0
 20
0.0
 30
0.0
  3
$PAPER_SPACE
  1

  0
ENDBLK
  5
1B5
 67
     1
  8
0
  0
ENDSEC
  0
SECTION
  2
ENTITIES
  0
LINE
  5
34
  8
1
 10
221.1360330718847
 20
141.44604584762129
 30
0.0
 11
291.13603307188561
 21
141.44604584762129
 31
0.0
  0
LINE
  5
35
  8
0
 10
231.13603307188509
 20
157.44604584762089
 30
0.0
 11
281.13603307188509
 21
157.44604584762089
 31
0.0
  0
LINE
  5
36
  8
0
 10
231.13603307188509
 20
165.4460458476218
 30
0.0
 11
281.13603307188509
 21
165.4460458476218
 31
0.0
  0
LINE
  5
37
  8
0
 10
231.13603307188509
 20
125.4460458476218
 30
0.0
 11
281.13603307188509
 21
125.4460458476218
 31
0.0
  0
LINE
  5
38
  8
0
 10
231.13603307188509
 20
117.44604584762089
 30
0.0
 11
281.13603307188509
 21
117.44604584762089
 31
0.0
  0
LINE
  5
39
  8
1
 10
226.13603307188501
 20
121.44604584762131
 30
0.0
 11
286.13603307188578
 21
121.44604584762131
 31
0.0
  0
LINE
  5
3A
  8
1
 10
226.13603307188501
 20
161.44604584762129
 30
0.0
 11
286.13603307188509
 21
161.44604584762129
 31
0.0
  0
LINE
  5
3B
  8
0
 10
281.13603307188509
 20
101.44604584762131
 30
0.0
 11
281.13603307188509
 21
181.44604584762129
 31
0.0
  0
LINE
  5
3C
  8
0
 10
231.13603307188509
 20
181.44604584762129
 30
0.0
 11
231.13603307188509
 21
101.44604584762131
 31
0.0
  0
LINE
  5
3D
  8
0
 10
231.13603307188509
 20
101.44604584762131
 30
0.0
 11
281.13603307188509
 21
101.44604584762131
 31
0.0
  0
LINE
  5
3E
  8
0
 10
281.13603307188509
 20
181.44604584762129
 30
0.0
 11
231.13603307188509
 21
181.44604584762129
 31
0.0
  0
LINE
  5
4A
  8
0
 10
138.2698689941455
 20
129.19604584762129
 30
0.0
 11
145.7932095912459
 21
129.19604584762129
 31
0.0
  0
CIRCLE
  5
4C
  8
0
 10
142.23559774668371
 20
121.44604584762131
 30
0.0
 40
3.399999999999999
  0
LINE
  5
56
  8
0
 10
138.2698689941455
 20
129.19604584762129
 30
0.0
 11
134.4855977466836
 21
125.4117746001595
 31
0.0
  0
LINE
  5
59
  8
0
 10
107.73559774668369
 20
101.44604584762131
 30
0.0
 11
136.7355977466836
 21
101.44604584762131
 31
0.0
  0
LINE
  5
5A
  8
0
 10
96.735597746683837
 20
101.44604584762131
 30
0.0
 11
86.235597746683723
 21
101.44604584762131
 31
0.0
  0
LINE
  5
5B
  8
0
 10
82.235597746683794
 20
115.94604584762131
 30
0.0
 11
82.235597746683794
 21
105.44604584762131
 31
0.0
  0
ARC
  5
5C
  8
0
 10
86.235597746683808
 20
105.44604584762131
 30
0.0
 40
4.0
 50
180.0
 51
270.00000000000011
  0
CIRCLE
  5
5E
  8
0
 10
102.23559774668379
 20
121.44604584762131
 30
0.0
 40
3.399999999999999
  0
LINE
  5
5F
  8
0
 10
86.235597746683766
 20
103.2460458476213
 30
0.0
 11
90.435597746683726
 21
103.2460458476213
 31
0.0
  0
LINE
  5
60
  8
0
 10
90.435597746683726
 20
103.2460458476213
 30
0.0
 11
90.435597746683726
 21
109.64604584762129
 31
0.0
  0
LINE
  5
61
  8
0
 10
90.435597746683726
 20
109.64604584762129
 30
0.0
 11
84.035597746683763
 21
109.64604584762129
 31
0.0
  0
LINE
  5
62
  8
0
 10
84.035597746683763
 20
109.64604584762129
 30
0.0
 11
84.035597746683763
 21
105.44604584762131
 31
0.0
  0
LINE
  5
63
  8
0
 10
93.719870289337919
 20
110.8181697976606
 30
0.0
 11
95.37132585867063
 21
112.45127586066759
 31
0.0
  0
LINE
  5
64
  8
0
 10
110.7513252040296
 20
110.8181697976605
 30
0.0
 11
109.0998696346968
 21
112.45127586066749
 31
0.0
  0
ARC
  5
65
  8
0
 10
109.73559774668379
 20
105.94604584762131
 30
0.0
 40
2.5
 50
270.00000000000011
 51
0.000000000000014
  0
LINE
  5
66
  8
0
 10
109.23559774668379
 20
103.44604584762131
 30
0.0
 11
109.73559774668379
 21
103.44604584762131
 31
0.0
  0
LINE
  5
67
  8
0
 10
106.23559774668379
 20
102.94604584762131
 30
0.0
 11
106.23559774668379
 21
104.94604584762131
 31
0.0
  0
LINE
  5
68
  8
0
 10
107.23559774668379
 20
105.94604584762131
 30
0.0
 11
108.73559774668379
 21
105.94604584762131
 31
0.0
  0
LINE
  5
69
  8
0
 10
109.23559774668379
 20
105.44604584762131
 30
0.0
 11
109.23559774668379
 21
103.44604584762131
 31
0.0
  0
LINE
  5
6A
  8
0
 10
106.23559774668379
 20
102.94604584762131
 30
0.0
 11
106.23559774668379
 21
102.94464586095459
 31
0.0
  0
LINE
  5
6B
  8
0
 10
112.23559774668379
 20
105.94604584762131
 30
0.0
 11
112.23559774668369
 21
107.2629397846145
 31
0.0
  0
ARC
  5
6C
  8
0
 10
107.73559774668369
 20
102.94604584762131
 30
0.0
 40
1.5
 50
180.0
 51
270.00000000000011
  0
ARC
  5
6D
  8
0
 10
107.23559774668379
 20
104.94604584762131
 30
0.0
 40
1.0
 50
90.000000000000014
 51
179.99999999999969
  0
ARC
  5
6E
  8
0
 10
108.73559774668379
 20
105.44604584762131
 30
0.0
 40
0.5
 50
0.000000000000014
 51
89.999999999999957
  0
ARC
  5
6F
  8
0
 10
95.735597746683794
 20
105.44604584762131
 30
0.0
 40
0.5
 50
90.000000000000114
 51
180.0
  0
ARC
  5
70
  8
0
 10
97.235597746683794
 20
104.94604584762131
 30
0.0
 40
1.0
 50
0.0000000000003194
 51
90.000000000000014
  0
ARC
  5
71
  8
0
 10
96.735597746683837
 20
102.94604584762131
 30
0.0
 40
1.5
 50
270.00000000000011
 51
0.000000000000014
  0
LINE
  5
72
  8
0
 10
92.235597746683794
 20
105.94604584762131
 30
0.0
 11
92.235597746683837
 21
107.2629397846146
 31
0.0
  0
LINE
  5
73
  8
0
 10
98.235597746683823
 20
102.94604584762131
 30
0.0
 11
98.235597746683823
 21
102.94464586095459
 31
0.0
  0
LINE
  5
74
  8
0
 10
95.235597746683808
 20
105.44604584762131
 30
0.0
 11
95.235597746683808
 21
103.44604584762131
 31
0.0
  0
LINE
  5
75
  8
0
 10
97.235597746683794
 20
105.94604584762131
 30
0.0
 11
95.735597746683794
 21
105.94604584762131
 31
0.0
  0
LINE
  5
76
  8
0
 10
98.235597746683837
 20
102.94604584762131
 30
0.0
 11
98.235597746683823
 21
104.94604584762131
 31
0.0
  0
LINE
  5
77
  8
0
 10
95.235597746683808
 20
103.44604584762131
 30
0.0
 11
94.735597746683794
 21
103.44604584762131
 31
0.0
  0
ARC
  5
78
  8
0
 10
94.735597746683794
 20
105.94604584762131
 30
0.0
 40
2.5
 50
180.0
 51
270.00000000000011
  0
LINE
  5
79
  8
0
 10
98.887053316016491
 20
113.89604584762139
 30
0.0
 11
105.5841421773509
 21
113.89604584762139
 31
0.0
  0
LINE
  5
7A
  8
0
 10
91.703378372197349
 20
129.9617733049671
 30
0.0
 11
93.240827759730024
 21
128.407049205215
 31
0.0
  0
LINE
  5
7B
  8
0
 10
91.607721696723004
 20
112.9303183902754
 30
0.0
 11
93.240827759730124
 21
114.5817739596085
 31
0.0
  0
ARC
  5
7C
  8
0
 10
86.735597746683737
 20
113.94604584762131
 30
0.0
 40
2.5
 50
180.0
 51
270.00000000000011
  0
LINE
  5
7D
  8
0
 10
84.235597746683737
 20
114.44604584762131
 30
0.0
 11
84.235597746683737
 21
113.94604584762131
 31
0.0
  0
LINE
  5
7E
  8
0
 10
83.735597746683723
 20
117.44604584762131
 30
0.0
 11
85.735597746683752
 21
117.44604584762131
 31
0.0
  0
LINE
  5
7F
  8
0
 10
86.735597746683737
 20
116.44604584762131
 30
0.0
 11
86.735597746683723
 21
114.94604584762131
 31
0.0
  0
LINE
  5
80
  8
0
 10
86.235597746683723
 20
114.44604584762131
 30
0.0
 11
84.235597746683737
 21
114.44604584762131
 31
0.0
  0
LINE
  5
81
  8
0
 10
83.735597746683752
 20
117.44604584762131
 30
0.0
 11
83.734197760017068
 21
117.44604584762131
 31
0.0
  0
LINE
  5
82
  8
0
 10
86.735597746683737
 20
111.44604584762131
 30
0.0
 11
88.052491683677005
 21
111.44604584762131
 31
0.0
  0
ARC
  5
83
  8
0
 10
83.735597746683723
 20
115.94604584762131
 30
0.0
 40
1.5
 50
90.000000000000014
 51
180.0
  0
ARC
  5
84
  8
0
 10
85.735597746683752
 20
116.44604584762131
 30
0.0
 40
1.0
 50
0.000000000000014
 51
89.999999999999687
  0
ARC
  5
85
  8
0
 10
86.235597746683723
 20
114.94604584762131
 30
0.0
 40
0.5
 50
270.00000000000011
 51
360.0
  0
ARC
  5
86
  8
0
 10
89.685597746683882
 20
124.8913217478692
 30
0.0
 40
5.0
 50
0.0000000000000649
 51
44.679915176220099
  0
ARC
  5
87
  8
0
 10
88.148148359151222
 20
126.44604584762131
 30
0.0
 40
5.0
 50
44.679915176220213
 51
90.000000000000014
  0
ARC
  5
88
  8
0
 10
86.235597746683723
 20
127.94604584762131
 30
0.0
 40
0.5
 50
0.0000000000000649
 51
90.000000000000014
  0
ARC
  5
89
  8
0
 10
85.735597746683723
 20
126.44604584762131
 30
0.0
 40
1.0
 50
270.00000000000028
 51
0.000000000000014
  0
ARC
  5
8A
  8
0
 10
83.735597746683723
 20
126.94604584762131
 30
0.0
 40
1.5
 50
180.0
 51
270.00000000000011
  0
LINE
  5
8B
  8
0
 10
86.735597746683723
 20
131.44604584762129
 30
0.0
 11
88.148148359151222
 21
131.44604584762129
 31
0.0
  0
LINE
  5
8C
  8
0
 10
83.735597746683723
 20
125.44604584762131
 30
0.0
 11
83.734197760017025
 21
125.44604584762131
 31
0.0
  0
LINE
  5
8D
  8
0
 10
86.235597746683723
 20
128.44604584762129
 30
0.0
 11
84.235597746683723
 21
128.44604584762129
 31
0.0
  0
LINE
  5
8E
  8
0
 10
86.735597746683723
 20
126.44604584762131
 30
0.0
 11
86.735597746683723
 21
127.94604584762131
 31
0.0
  0
LINE
  5
8F
  8
0
 10
83.735597746683723
 20
125.44604584762131
 30
0.0
 11
85.735597746683723
 21
125.44604584762131
 31
0.0
  0
LINE
  5
90
  8
0
 10
84.235597746683723
 20
128.44604584762129
 30
0.0
 11
84.235597746683723
 21
128.94604584762129
 31
0.0
  0
ARC
  5
91
  8
0
 10
86.735597746683723
 20
128.94604584762129
 30
0.0
 40
2.5
 50
90.000000000000014
 51
180.0
  0
LINE
  5
92
  8
0
 10
94.685597746683882
 20
124.8913217478692
 30
0.0
 11
94.685597746683882
 21
118.0975014169543
 31
0.0
  0
ARC
  5
93
  8
0
 10
107.23559774668369
 20
107.2629397846144
 30
0.0
 40
5.0
 50
0.0000000000012354
 51
45.320084823780007
  0
ARC
  5
94
  8
0
 10
105.5841421773509
 20
108.89604584762139
 30
0.0
 40
5.0
 50
45.320084823779148
 51
90.000000000000014
  0
ARC
  5
95
  8
0
 10
88.05249168367682
 20
116.44604584762131
 30
0.0
 40
5.0
 50
270.00000000000227
 51
315.32008482378052
  0
ARC
  5
96
  8
0
 10
89.685597746683882
 20
118.0975014169543
 30
0.0
 40
5.0
 50
315.32008482378109
 51
0.0
  0
ARC
  5
97
  8
0
 10
98.887053316016491
 20
108.89604584762139
 30
0.0
 40
5.0
 50
90.000000000000057
 51
134.67991517622011
  0
ARC
  5
98
  8
0
 10
97.235597746683837
 20
107.2629397846145
 30
0.0
 40
5.0
 50
134.67991517622079
 51
179.99999999999889
  0
ARC
  5
99
  8
0
 10
86.235597746683766
 20
105.44604584762131
 30
0.0
 40
2.2000000000000002
 50
180.00000000000011
 51
270.0
  0
LINE
  5
9D
  8
0
 10
106.20132649922191
 20
129.19604584762129
 30
0.0
 11
109.98559774668379
 21
125.4117746001595
 31
0.0
  0
ARC
  5
A4
  8
0
 10
158.2355977466836
 20
105.44604584762131
 30
0.0
 40
2.2000000000000002
 50
270.0
 51
360.0
  0
ARC
  5
A5
  8
0
 10
147.2355977466836
 20
107.2629397846145
 30
0.0
 40
5.0
 50
0.0000000000011336
 51
45.320084823779197
  0
ARC
  5
A6
  8
0
 10
145.58414217735091
 20
108.89604584762139
 30
0.0
 40
5.0
 50
45.320084823779958
 51
89.999999999999957
  0
ARC
  5
A7
  8
0
 10
154.78559774668349
 20
118.0975014169543
 30
0.0
 40
5.0
 50
180.0
 51
224.67991517621891
  0
ARC
  5
A8
  8
0
 10
156.41870380969061
 20
116.44604584762131
 30
0.0
 40
5.0
 50
224.67991517621959
 51
269.99999999999773
  0
ARC
  5
A9
  8
0
 10
158.23559774668371
 20
114.94604584762131
 30
0.0
 40
0.5
 50
180.0
 51
270.0
  0
ARC
  5
AA
  8
0
 10
158.73559774668371
 20
116.44604584762131
 30
0.0
 40
1.0
 50
90.000000000000313
 51
180.0
  0
ARC
  5
AB
  8
0
 10
160.73559774668371
 20
115.94604584762131
 30
0.0
 40
1.5
 50
360.0
 51
90.000000000000014
  0
LINE
  5
AC
  8
0
 10
157.73559774668371
 20
111.44604584762131
 30
0.0
 11
156.41870380969041
 21
111.44604584762131
 31
0.0
  0
LINE
  5
AD
  8
0
 10
160.73559774668371
 20
117.44604584762131
 30
0.0
 11
160.73699773335039
 21
117.44604584762131
 31
0.0
  0
LINE
  5
AE
  8
0
 10
158.23559774668371
 20
114.44604584762131
 30
0.0
 11
160.23559774668371
 21
114.44604584762131
 31
0.0
  0
LINE
  5
AF
  8
0
 10
157.73559774668371
 20
116.44604584762131
 30
0.0
 11
157.73559774668371
 21
114.94604584762131
 31
0.0
  0
LINE
  5
B0
  8
0
 10
160.73559774668371
 20
117.44604584762131
 30
0.0
 11
158.73559774668371
 21
117.44604584762131
 31
0.0
  0
LINE
  5
B1
  8
0
 10
160.23559774668371
 20
114.44604584762131
 30
0.0
 11
160.23559774668371
 21
113.94604584762131
 31
0.0
  0
ARC
  5
B2
  8
0
 10
157.73559774668371
 20
113.94604584762131
 30
0.0
 40
2.5
 50
270.0
 51
360.0
  0
LINE
  5
B3
  8
0
 10
152.8634737966444
 20
112.9303183902754
 30
0.0
 11
151.23036773363731
 21
114.5817739596085
 31
0.0
  0
LINE
  5
B4
  8
0
 10
145.58414217735091
 20
113.89604584762139
 30
0.0
 11
138.88705331601639
 21
113.89604584762139
 31
0.0
  0
ARC
  5
B5
  8
0
 10
149.7355977466836
 20
105.94604584762131
 30
0.0
 40
2.5
 50
270.0
 51
360.0
  0
LINE
  5
B6
  8
0
 10
149.2355977466836
 20
103.44604584762131
 30
0.0
 11
149.7355977466836
 21
103.44604584762131
 31
0.0
  0
LINE
  5
B7
  8
0
 10
146.2355977466836
 20
102.94604584762131
 30
0.0
 11
146.2355977466836
 21
104.94604584762131
 31
0.0
  0
LINE
  5
B8
  8
0
 10
147.2355977466836
 20
105.94604584762131
 30
0.0
 11
148.7355977466836
 21
105.94604584762131
 31
0.0
  0
LINE
  5
B9
  8
0
 10
149.2355977466836
 20
105.44604584762131
 30
0.0
 11
149.2355977466836
 21
103.44604584762131
 31
0.0
  0
LINE
  5
BA
  8
0
 10
146.2355977466836
 20
102.94604584762131
 30
0.0
 11
146.2355977466836
 21
102.94464586095459
 31
0.0
  0
LINE
  5
BB
  8
0
 10
152.2355977466836
 20
105.94604584762131
 30
0.0
 11
152.2355977466836
 21
107.2629397846146
 31
0.0
  0
ARC
  5
BC
  8
0
 10
147.7355977466836
 20
102.94604584762131
 30
0.0
 40
1.5
 50
180.0
 51
270.0
  0
ARC
  5
BD
  8
0
 10
147.2355977466836
 20
104.94604584762131
 30
0.0
 40
1.0
 50
90.000000000000014
 51
179.99999999999969
  0
ARC
  5
BE
  8
0
 10
148.7355977466836
 20
105.44604584762131
 30
0.0
 40
0.5
 50
360.0
 51
89.999999999999915
  0
LINE
  5
BF
  8
0
 10
150.75132520402951
 20
110.8181697976606
 30
0.0
 11
149.0998696346968
 21
112.45127586066759
 31
0.0
  0
LINE
  5
C0
  8
0
 10
160.4355977466837
 20
109.64604584762129
 30
0.0
 11
160.4355977466837
 21
105.44604584762131
 31
0.0
  0
LINE
  5
C1
  8
0
 10
154.03559774668369
 20
109.64604584762129
 30
0.0
 11
160.4355977466837
 21
109.64604584762129
 31
0.0
  0
LINE
  5
C2
  8
0
 10
154.03559774668369
 20
103.2460458476213
 30
0.0
 11
154.03559774668369
 21
109.64604584762129
 31
0.0
  0
LINE
  5
C3
  8
0
 10
158.2355977466836
 20
103.2460458476213
 30
0.0
 11
154.03559774668369
 21
103.2460458476213
 31
0.0
  0
ARC
  5
C4
  8
0
 10
158.2355977466836
 20
105.44604584762131
 30
0.0
 40
4.0
 50
270.0
 51
360.0
  0
LINE
  5
C5
  8
0
 10
162.2355977466836
 20
115.94604584762131
 30
0.0
 11
162.2355977466836
 21
105.44604584762131
 31
0.0
  0
LINE
  5
C6
  8
0
 10
147.7355977466836
 20
101.44604584762131
 30
0.0
 11
158.23559774668371
 21
101.44604584762131
 31
0.0
  0
ARC
  5
C7
  8
0
 10
135.7355977466836
 20
105.44604584762131
 30
0.0
 40
0.5
 50
90.000000000000014
 51
180.0
  0
ARC
  5
C8
  8
0
 10
137.2355977466836
 20
104.94604584762131
 30
0.0
 40
1.0
 50
0.0000000000002685
 51
89.999999999999957
  0
ARC
  5
C9
  8
0
 10
136.7355977466836
 20
102.94604584762131
 30
0.0
 40
1.5
 50
270.0
 51
360.0
  0
LINE
  5
CA
  8
0
 10
138.2355977466836
 20
102.94604584762131
 30
0.0
 11
138.2355977466836
 21
102.94464586095459
 31
0.0
  0
LINE
  5
CB
  8
0
 10
135.2355977466836
 20
105.44604584762131
 30
0.0
 11
135.2355977466836
 21
103.44604584762131
 31
0.0
  0
LINE
  5
CC
  8
0
 10
137.2355977466836
 20
105.94604584762131
 30
0.0
 11
135.7355977466836
 21
105.94604584762131
 31
0.0
  0
LINE
  5
CD
  8
0
 10
138.2355977466836
 20
102.94604584762131
 30
0.0
 11
138.2355977466836
 21
104.94604584762131
 31
0.0
  0
LINE
  5
CE
  8
0
 10
135.2355977466836
 20
103.44604584762131
 30
0.0
 11
134.7355977466836
 21
103.44604584762131
 31
0.0
  0
ARC
  5
CF
  8
0
 10
134.7355977466836
 20
105.94604584762131
 30
0.0
 40
2.5
 50
180.0
 51
270.0
  0
ARC
  5
D0
  8
0
 10
137.23559774668371
 20
107.2629397846144
 30
0.0
 40
5.0
 50
134.67991517621991
 51
179.99999999999869
  0
ARC
  5
D1
  8
0
 10
138.88705331601639
 20
108.89604584762139
 30
0.0
 40
5.0
 50
89.999999999999957
 51
134.67991517622079
  0
LINE
  5
D2
  8
0
 10
133.71987028933779
 20
110.8181697976605
 30
0.0
 11
135.3713258586705
 21
112.45127586066749
 31
0.0
  0
LINE
  5
D3
  8
0
 10
132.2355977466836
 20
105.94604584762131
 30
0.0
 11
132.23559774668371
 21
107.2629397846145
 31
0.0
  0
ARC
  5
D4
  8
0
 10
157.73559774668371
 20
128.94604584762129
 30
0.0
 40
2.5
 50
360.0
 51
89.999999999999957
  0
LINE
  5
D5
  8
0
 10
160.23559774668371
 20
128.44604584762129
 30
0.0
 11
160.23559774668371
 21
128.94604584762129
 31
0.0
  0
LINE
  5
D6
  8
0
 10
160.73559774668371
 20
125.44604584762131
 30
0.0
 11
158.73559774668371
 21
125.44604584762131
 31
0.0
  0
LINE
  5
D7
  8
0
 10
158.23559774668371
 20
128.44604584762129
 30
0.0
 11
160.23559774668371
 21
128.44604584762129
 31
0.0
  0
LINE
  5
D8
  8
0
 10
160.73559774668371
 20
125.44604584762131
 30
0.0
 11
160.73699773335039
 21
125.44604584762131
 31
0.0
  0
ARC
  5
D9
  8
0
 10
160.73559774668371
 20
126.94604584762131
 30
0.0
 40
1.5
 50
270.0
 51
360.0
  0
ARC
  5
DA
  8
0
 10
158.73559774668371
 20
126.44604584762131
 30
0.0
 40
1.0
 50
180.0
 51
269.99999999999972
  0
ARC
  5
DB
  8
0
 10
158.23559774668371
 20
127.94604584762131
 30
0.0
 40
0.5
 50
89.999999999999957
 51
179.99999999999989
  0
LINE
  5
DC
  8
0
 10
157.73559774668371
 20
131.44604584762129
 30
0.0
 11
156.32304713421621
 21
131.44604584762129
 31
0.0
  0
ARC
  5
DD
  8
0
 10
156.32304713421621
 20
126.44604584762131
 30
0.0
 40
5.0
 50
89.999999999999957
 51
135.32008482377969
  0
LINE
  5
DE
  8
0
 10
149.78559774668349
 20
124.8913217478692
 30
0.0
 11
149.78559774668349
 21
118.0975014169543
 31
0.0
  0
ARC
  5
DF
  8
0
 10
154.78559774668349
 20
124.8913217478692
 30
0.0
 40
5.0
 50
135.32008482377981
 51
179.99999999999989
  0
LINE
  5
E0
  8
0
 10
152.76781712117011
 20
129.9617733049671
 30
0.0
 11
151.23036773363739
 21
128.407049205215
 31
0.0
  0
LINE
  5
E1
  8
0
 10
157.73559774668371
 20
126.44604584762131
 30
0.0
 11
157.73559774668371
 21
127.94604584762131
 31
0.0
  0
LINE
  5
E2
  8
0
 10
157.73559774668371
 20
156.44604584762141
 30
0.0
 11
157.73559774668371
 21
154.94604584762141
 31
0.0
  0
LINE
  5
E3
  8
0
 10
152.76781712117011
 20
152.93031839027549
 30
0.0
 11
151.23036773363739
 21
154.48504249002761
 31
0.0
  0
ARC
  5
E4
  8
0
 10
154.78559774668349
 20
158.0007699473735
 30
0.0
 40
5.0
 50
180.00000000000011
 51
224.67991517622011
  0
LINE
  5
E5
  8
0
 10
149.78559774668349
 20
158.0007699473735
 30
0.0
 11
149.78559774668349
 21
164.7945902782883
 31
0.0
  0
ARC
  5
E6
  8
0
 10
156.32304713421621
 20
156.44604584762141
 30
0.0
 40
5.0
 50
224.67991517622031
 51
270.00000000000011
  0
LINE
  5
E7
  8
0
 10
157.73559774668371
 20
151.44604584762141
 30
0.0
 11
156.32304713421621
 21
151.44604584762141
 31
0.0
  0
ARC
  5
E8
  8
0
 10
158.23559774668371
 20
154.94604584762141
 30
0.0
 40
0.5
 50
180.00000000000011
 51
270.00000000000011
  0
ARC
  5
E9
  8
0
 10
158.73559774668371
 20
156.44604584762141
 30
0.0
 40
1.0
 50
90.000000000000327
 51
180.0
  0
ARC
  5
EA
  8
0
 10
160.73559774668371
 20
155.94604584762141
 30
0.0
 40
1.5
 50
0.0000000000000509
 51
90.000000000000057
  0
LINE
  5
EB
  8
0
 10
160.73559774668371
 20
157.44604584762141
 30
0.0
 11
160.73699773335039
 21
157.44604584762141
 31
0.0
  0
LINE
  5
EC
  8
0
 10
158.23559774668371
 20
154.44604584762141
 30
0.0
 11
160.23559774668371
 21
154.44604584762141
 31
0.0
  0
LINE
  5
ED
  8
0
 10
160.73559774668371
 20
157.44604584762141
 30
0.0
 11
158.73559774668371
 21
157.44604584762141
 31
0.0
  0
LINE
  5
EE
  8
0
 10
160.23559774668371
 20
154.44604584762141
 30
0.0
 11
160.23559774668371
 21
153.94604584762141
 31
0.0
  0
ARC
  5
EF
  8
0
 10
157.73559774668371
 20
153.94604584762141
 30
0.0
 40
2.5
 50
270.00000000000011
 51
0.0000000000000509
  0
LINE
  5
F0
  8
0
 10
132.2355977466836
 20
176.94604584762141
 30
0.0
 11
132.23559774668371
 21
175.6291519106282
 31
0.0
  0
LINE
  5
F1
  8
0
 10
133.71987028933779
 20
172.0739218975821
 30
0.0
 11
135.3713258586705
 21
170.44081583457509
 31
0.0
  0
ARC
  5
F2
  8
0
 10
138.88705331601639
 20
173.9960458476213
 30
0.0
 40
5.0
 50
225.32008482377921
 51
270.00000000000011
  0
ARC
  5
F3
  8
0
 10
137.23559774668371
 20
175.62915191062831
 30
0.0
 40
5.0
 50
180.00000000000131
 51
225.32008482378001
  0
ARC
  5
F4
  8
0
 10
134.7355977466836
 20
176.94604584762141
 30
0.0
 40
2.5
 50
90.000000000000057
 51
180.0
  0
LINE
  5
F5
  8
0
 10
135.2355977466836
 20
179.44604584762141
 30
0.0
 11
134.7355977466836
 21
179.44604584762141
 31
0.0
  0
LINE
  5
F6
  8
0
 10
138.2355977466836
 20
179.94604584762141
 30
0.0
 11
138.2355977466836
 21
177.94604584762141
 31
0.0
  0
LINE
  5
F7
  8
0
 10
137.2355977466836
 20
176.94604584762141
 30
0.0
 11
135.7355977466836
 21
176.94604584762141
 31
0.0
  0
LINE
  5
F8
  8
0
 10
135.2355977466836
 20
177.44604584762141
 30
0.0
 11
135.2355977466836
 21
179.44604584762141
 31
0.0
  0
LINE
  5
F9
  8
0
 10
138.2355977466836
 20
179.94604584762141
 30
0.0
 11
138.2355977466836
 21
179.94744583428809
 31
0.0
  0
ARC
  5
FA
  8
0
 10
136.7355977466836
 20
179.94604584762141
 30
0.0
 40
1.5
 50
0.0000000000000509
 51
90.000000000000057
  0
ARC
  5
FB
  8
0
 10
137.2355977466836
 20
177.94604584762141
 30
0.0
 40
1.0
 50
270.00000000000011
 51
359.99999999999972
  0
ARC
  5
FC
  8
0
 10
135.7355977466836
 20
177.44604584762141
 30
0.0
 40
0.5
 50
180.0
 51
270.0
  0
LINE
  5
FD
  8
0
 10
147.7355977466836
 20
181.44604584762129
 30
0.0
 11
158.23559774668371
 21
181.44604584762129
 31
0.0
  0
LINE
  5
FE
  8
0
 10
162.2355977466836
 20
166.94604584762129
 30
0.0
 11
162.2355977466836
 21
177.44604584762141
 31
0.0
  0
ARC
  5
FF
  8
0
 10
158.2355977466836
 20
177.44604584762141
 30
0.0
 40
4.0
 50
0.0000000000000254
 51
90.000000000000014
  0
LINE
  5
100
  8
0
 10
158.2355977466836
 20
179.64604584762139
 30
0.0
 11
154.03559774668369
 21
179.64604584762131
 31
0.0
  0
LINE
  5
101
  8
0
 10
154.03559774668369
 20
179.64604584762131
 30
0.0
 11
154.03559774668369
 21
173.2460458476213
 31
0.0
  0
LINE
  5
102
  8
0
 10
154.03559774668369
 20
173.2460458476213
 30
0.0
 11
160.4355977466837
 21
173.2460458476213
 31
0.0
  0
LINE
  5
103
  8
0
 10
160.4355977466837
 20
173.2460458476213
 30
0.0
 11
160.4355977466837
 21
177.44604584762129
 31
0.0
  0
LINE
  5
104
  8
0
 10
150.75132520402951
 20
172.07392189758201
 30
0.0
 11
149.0998696346968
 21
170.44081583457509
 31
0.0
  0
ARC
  5
105
  8
0
 10
148.7355977466836
 20
177.44604584762141
 30
0.0
 40
0.5
 50
270.00000000000011
 51
0.0000000000000254
  0
ARC
  5
106
  8
0
 10
147.2355977466836
 20
177.94604584762141
 30
0.0
 40
1.0
 50
180.00000000000031
 51
270.0
  0
ARC
  5
107
  8
0
 10
147.7355977466836
 20
179.94604584762141
 30
0.0
 40
1.5
 50
90.000000000000014
 51
180.0
  0
LINE
  5
108
  8
0
 10
152.2355977466836
 20
176.94604584762141
 30
0.0
 11
152.2355977466836
 21
175.62915191062811
 31
0.0
  0
LINE
  5
109
  8
0
 10
146.2355977466836
 20
179.94604584762141
 30
0.0
 11
146.2355977466836
 21
179.94744583428809
 31
0.0
  0
LINE
  5
10A
  8
0
 10
149.2355977466836
 20
177.44604584762141
 30
0.0
 11
149.2355977466836
 21
179.44604584762141
 31
0.0
  0
LINE
  5
10B
  8
0
 10
147.2355977466836
 20
176.94604584762141
 30
0.0
 11
148.7355977466836
 21
176.94604584762141
 31
0.0
  0
LINE
  5
10C
  8
0
 10
146.2355977466836
 20
179.94604584762141
 30
0.0
 11
146.2355977466836
 21
177.94604584762141
 31
0.0
  0
LINE
  5
10D
  8
0
 10
149.2355977466836
 20
179.44604584762141
 30
0.0
 11
149.7355977466836
 21
179.44604584762141
 31
0.0
  0
ARC
  5
10E
  8
0
 10
149.7355977466836
 20
176.94604584762141
 30
0.0
 40
2.5
 50
0.0000000000000254
 51
90.000000000000014
  0
LINE
  5
10F
  8
0
 10
145.58414217735091
 20
168.9960458476213
 30
0.0
 11
138.88705331601639
 21
168.9960458476213
 31
0.0
  0
LINE
  5
110
  8
0
 10
152.8634737966444
 20
169.96177330496721
 30
0.0
 11
151.23036773363731
 21
168.31031773563419
 31
0.0
  0
ARC
  5
111
  8
0
 10
157.73559774668371
 20
168.94604584762141
 30
0.0
 40
2.5
 50
0.0000000000000254
 51
90.000000000000014
  0
LINE
  5
112
  8
0
 10
160.23559774668371
 20
168.44604584762141
 30
0.0
 11
160.23559774668371
 21
168.94604584762141
 31
0.0
  0
LINE
  5
113
  8
0
 10
160.73559774668371
 20
165.44604584762129
 30
0.0
 11
158.73559774668371
 21
165.44604584762141
 31
0.0
  0
LINE
  5
114
  8
0
 10
157.73559774668371
 20
166.44604584762141
 30
0.0
 11
157.73559774668371
 21
167.94604584762141
 31
0.0
  0
LINE
  5
115
  8
0
 10
158.23559774668371
 20
168.44604584762141
 30
0.0
 11
160.23559774668371
 21
168.44604584762141
 31
0.0
  0
LINE
  5
116
  8
0
 10
160.73559774668371
 20
165.44604584762141
 30
0.0
 11
160.73699773335039
 21
165.44604584762141
 31
0.0
  0
LINE
  5
117
  8
0
 10
157.73559774668371
 20
171.44604584762141
 30
0.0
 11
156.41870380969041
 21
171.44604584762141
 31
0.0
  0
ARC
  5
118
  8
0
 10
160.73559774668371
 20
166.94604584762129
 30
0.0
 40
1.5
 50
270.0
 51
0.0000000000000254
  0
ARC
  5
119
  8
0
 10
158.73559774668371
 20
166.44604584762141
 30
0.0
 40
1.0
 50
180.0
 51
269.99999999999972
  0
ARC
  5
11A
  8
0
 10
158.23559774668371
 20
167.94604584762141
 30
0.0
 40
0.5
 50
90.000000000000014
 51
180.0
  0
ARC
  5
11B
  8
0
 10
156.41870380969061
 20
166.44604584762129
 30
0.0
 40
5.0
 50
90.000000000002316
 51
135.32008482378041
  0
ARC
  5
11C
  8
0
 10
154.78559774668349
 20
164.7945902782883
 30
0.0
 40
5.0
 50
135.32008482378109
 51
180.0
  0
ARC
  5
11D
  8
0
 10
145.58414217735091
 20
173.9960458476213
 30
0.0
 40
5.0
 50
270.00000000000011
 51
314.67991517622011
  0
ARC
  5
11E
  8
0
 10
147.2355977466836
 20
175.6291519106282
 30
0.0
 40
5.0
 50
314.67991517622079
 51
359.99999999999881
  0
ARC
  5
11F
  8
0
 10
158.2355977466836
 20
177.44604584762129
 30
0.0
 40
2.2000000000000002
 50
0.0000000000000509
 51
90.0
  0
LINE
  5
126
  8
0
 10
106.20132649922191
 20
153.69604584762129
 30
0.0
 11
109.98559774668379
 21
157.48031709508319
 31
0.0
  0
ARC
  5
12A
  8
0
 10
86.235597746683766
 20
177.44604584762129
 30
0.0
 40
2.2000000000000002
 50
90.0
 51
179.99999999999989
  0
ARC
  5
12B
  8
0
 10
97.235597746683837
 20
175.6291519106282
 30
0.0
 40
5.0
 50
180.00000000000111
 51
225.32008482377921
  0
ARC
  5
12C
  8
0
 10
98.887053316016491
 20
173.9960458476213
 30
0.0
 40
5.0
 50
225.32008482378001
 51
269.99999999999989
  0
ARC
  5
12D
  8
0
 10
89.685597746683882
 20
164.7945902782883
 30
0.0
 40
5.0
 50
0.0
 51
44.679915176218877
  0
ARC
  5
12E
  8
0
 10
88.05249168367682
 20
166.44604584762129
 30
0.0
 40
5.0
 50
44.679915176219531
 51
89.999999999997684
  0
ARC
  5
12F
  8
0
 10
105.5841421773509
 20
173.9960458476213
 30
0.0
 40
5.0
 50
270.0
 51
314.6799151762209
  0
ARC
  5
130
  8
0
 10
107.23559774668369
 20
175.62915191062831
 30
0.0
 40
5.0
 50
314.67991517621999
 51
359.99999999999881
  0
LINE
  5
131
  8
0
 10
94.685597746683882
 20
158.0007699473735
 30
0.0
 11
94.685597746683882
 21
164.7945902782883
 31
0.0
  0
ARC
  5
132
  8
0
 10
86.735597746683723
 20
153.94604584762141
 30
0.0
 40
2.5
 50
180.0
 51
270.0
  0
LINE
  5
133
  8
0
 10
84.235597746683723
 20
154.44604584762141
 30
0.0
 11
84.235597746683723
 21
153.94604584762141
 31
0.0
  0
LINE
  5
134
  8
0
 10
83.735597746683723
 20
157.44604584762141
 30
0.0
 11
85.735597746683723
 21
157.44604584762141
 31
0.0
  0
LINE
  5
135
  8
0
 10
86.735597746683723
 20
156.44604584762141
 30
0.0
 11
86.735597746683723
 21
154.94604584762141
 31
0.0
  0
LINE
  5
136
  8
0
 10
86.235597746683723
 20
154.44604584762141
 30
0.0
 11
84.235597746683723
 21
154.44604584762141
 31
0.0
  0
LINE
  5
137
  8
0
 10
83.735597746683723
 20
157.44604584762141
 30
0.0
 11
83.734197760017025
 21
157.44604584762141
 31
0.0
  0
LINE
  5
138
  8
0
 10
86.735597746683723
 20
151.44604584762141
 30
0.0
 11
88.148148359151222
 21
151.44604584762141
 31
0.0
  0
ARC
  5
139
  8
0
 10
83.735597746683723
 20
155.94604584762141
 30
0.0
 40
1.5
 50
89.999999999999986
 51
180.0
  0
ARC
  5
13A
  8
0
 10
85.735597746683723
 20
156.44604584762141
 30
0.0
 40
1.0
 50
360.0
 51
89.999999999999687
  0
ARC
  5
13B
  8
0
 10
86.235597746683723
 20
154.94604584762141
 30
0.0
 40
0.5
 50
270.0
 51
360.0
  0
ARC
  5
13C
  8
0
 10
88.148148359151222
 20
156.44604584762141
 30
0.0
 40
5.0
 50
270.0
 51
315.32008482377978
  0
ARC
  5
13D
  8
0
 10
89.685597746683882
 20
158.0007699473735
 30
0.0
 40
5.0
 50
315.32008482377989
 51
360.0
  0
ARC
  5
13E
  8
0
 10
86.235597746683723
 20
167.94604584762141
 30
0.0
 40
0.5
 50
0.0000000000000368
 51
89.999999999999986
  0
ARC
  5
13F
  8
0
 10
85.735597746683752
 20
166.44604584762141
 30
0.0
 40
1.0
 50
270.00000000000028
 51
360.0
  0
ARC
  5
140
  8
0
 10
83.735597746683723
 20
166.94604584762129
 30
0.0
 40
1.5
 50
180.0
 51
270.0
  0
LINE
  5
141
  8
0
 10
86.735597746683737
 20
171.44604584762141
 30
0.0
 11
88.052491683677005
 21
171.44604584762141
 31
0.0
  0
LINE
  5
142
  8
0
 10
83.735597746683752
 20
165.44604584762141
 30
0.0
 11
83.734197760017068
 21
165.44604584762141
 31
0.0
  0
LINE
  5
143
  8
0
 10
86.235597746683723
 20
168.44604584762141
 30
0.0
 11
84.235597746683737
 21
168.44604584762141
 31
0.0
  0
LINE
  5
144
  8
0
 10
86.735597746683737
 20
166.44604584762141
 30
0.0
 11
86.735597746683723
 21
167.94604584762141
 31
0.0
  0
LINE
  5
145
  8
0
 10
83.735597746683723
 20
165.44604584762129
 30
0.0
 11
85.735597746683752
 21
165.44604584762141
 31
0.0
  0
LINE
  5
146
  8
0
 10
84.235597746683737
 20
168.44604584762141
 30
0.0
 11
84.235597746683737
 21
168.94604584762141
 31
0.0
  0
ARC
  5
147
  8
0
 10
86.735597746683737
 20
168.94604584762141
 30
0.0
 40
2.5
 50
89.999999999999986
 51
180.0
  0
LINE
  5
148
  8
0
 10
91.607721696723004
 20
169.96177330496721
 30
0.0
 11
93.240827759730124
 21
168.31031773563419
 31
0.0
  0
LINE
  5
149
  8
0
 10
91.703378372197349
 20
152.93031839027549
 30
0.0
 11
93.240827759730024
 21
154.48504249002761
 31
0.0
  0
LINE
  5
14A
  8
0
 10
98.887053316016491
 20
168.9960458476213
 30
0.0
 11
105.5841421773509
 21
168.9960458476213
 31
0.0
  0
ARC
  5
14B
  8
0
 10
94.735597746683794
 20
176.94604584762141
 30
0.0
 40
2.5
 50
89.999999999999986
 51
180.0
  0
LINE
  5
14C
  8
0
 10
95.235597746683808
 20
179.44604584762141
 30
0.0
 11
94.735597746683794
 21
179.44604584762141
 31
0.0
  0
LINE
  5
14D
  8
0
 10
98.235597746683837
 20
179.94604584762141
 30
0.0
 11
98.235597746683823
 21
177.94604584762141
 31
0.0
  0
LINE
  5
14E
  8
0
 10
97.235597746683794
 20
176.94604584762141
 30
0.0
 11
95.735597746683794
 21
176.94604584762141
 31
0.0
  0
LINE
  5
14F
  8
0
 10
95.235597746683808
 20
177.44604584762141
 30
0.0
 11
95.235597746683808
 21
179.44604584762141
 31
0.0
  0
LINE
  5
150
  8
0
 10
98.235597746683823
 20
179.94604584762141
 30
0.0
 11
98.235597746683823
 21
179.94744583428809
 31
0.0
  0
LINE
  5
151
  8
0
 10
92.235597746683794
 20
176.94604584762141
 30
0.0
 11
92.235597746683837
 21
175.62915191062811
 31
0.0
  0
ARC
  5
152
  8
0
 10
96.735597746683837
 20
179.94604584762141
 30
0.0
 40
1.5
 50
360.0
 51
89.999999999999986
  0
ARC
  5
153
  8
0
 10
97.235597746683794
 20
177.94604584762141
 30
0.0
 40
1.0
 50
270.0
 51
359.99999999999972
  0
ARC
  5
154
  8
0
 10
95.735597746683794
 20
177.44604584762141
 30
0.0
 40
0.5
 50
180.0
 51
269.99999999999989
  0
ARC
  5
155
  8
0
 10
108.73559774668379
 20
177.44604584762141
 30
0.0
 40
0.5
 50
270.00000000000011
 51
360.0
  0
ARC
  5
156
  8
0
 10
107.23559774668379
 20
177.94604584762141
 30
0.0
 40
1.0
 50
180.00000000000031
 51
270.0
  0
ARC
  5
157
  8
0
 10
107.73559774668369
 20
179.94604584762141
 30
0.0
 40
1.5
 50
89.999999999999986
 51
180.0
  0
LINE
  5
158
  8
0
 10
112.23559774668379
 20
176.94604584762141
 30
0.0
 11
112.23559774668369
 21
175.6291519106282
 31
0.0
  0
LINE
  5
159
  8
0
 10
106.23559774668379
 20
179.94604584762141
 30
0.0
 11
106.23559774668379
 21
179.94744583428809
 31
0.0
  0
LINE
  5
15A
  8
0
 10
109.23559774668379
 20
177.44604584762141
 30
0.0
 11
109.23559774668379
 21
179.44604584762141
 31
0.0
  0
LINE
  5
15B
  8
0
 10
107.23559774668379
 20
176.94604584762141
 30
0.0
 11
108.73559774668379
 21
176.94604584762141
 31
0.0
  0
LINE
  5
15C
  8
0
 10
106.23559774668379
 20
179.94604584762141
 30
0.0
 11
106.23559774668379
 21
177.94604584762141
 31
0.0
  0
LINE
  5
15D
  8
0
 10
109.23559774668379
 20
179.44604584762141
 30
0.0
 11
109.73559774668379
 21
179.44604584762141
 31
0.0
  0
ARC
  5
15E
  8
0
 10
109.73559774668379
 20
176.94604584762141
 30
0.0
 40
2.5
 50
360.0
 51
89.999999999999986
  0
LINE
  5
15F
  8
0
 10
110.7513252040296
 20
172.0739218975821
 30
0.0
 11
109.0998696346968
 21
170.44081583457509
 31
0.0
  0
LINE
  5
160
  8
0
 10
93.719870289337919
 20
172.07392189758201
 30
0.0
 11
95.37132585867063
 21
170.44081583457509
 31
0.0
  0
LINE
  5
161
  8
0
 10
84.035597746683763
 20
173.2460458476213
 30
0.0
 11
84.035597746683763
 21
177.44604584762129
 31
0.0
  0
LINE
  5
162
  8
0
 10
90.435597746683726
 20
173.2460458476213
 30
0.0
 11
84.035597746683763
 21
173.2460458476213
 31
0.0
  0
LINE
  5
163
  8
0
 10
90.435597746683726
 20
179.64604584762131
 30
0.0
 11
90.435597746683726
 21
173.2460458476213
 31
0.0
  0
LINE
  5
164
  8
0
 10
86.235597746683766
 20
179.64604584762139
 30
0.0
 11
90.435597746683726
 21
179.64604584762131
 31
0.0
  0
CIRCLE
  5
165
  8
0
 10
102.23559774668379
 20
161.44604584762129
 30
0.0
 40
3.399999999999999
  0
ARC
  5
167
  8
0
 10
86.235597746683808
 20
177.44604584762141
 30
0.0
 40
4.0
 50
89.999999999999986
 51
180.0
  0
LINE
  5
168
  8
0
 10
82.235597746683794
 20
166.94604584762129
 30
0.0
 11
82.235597746683794
 21
177.44604584762141
 31
0.0
  0
LINE
  5
169
  8
0
 10
96.735597746683837
 20
181.44604584762129
 30
0.0
 11
86.235597746683723
 21
181.44604584762129
 31
0.0
  0
LINE
  5
16A
  8
0
 10
107.73559774668369
 20
181.44604584762129
 30
0.0
 11
136.7355977466836
 21
181.44604584762129
 31
0.0
  0
LINE
  5
16D
  8
0
 10
82.235597746683794
 20
155.94604584762129
 30
0.0
 11
82.235597746683794
 21
126.94604584762141
 31
0.0
  0
LINE
  5
16F
  8
0
 10
138.2698689941455
 20
153.69604584762129
 30
0.0
 11
134.4855977466836
 21
157.48031709508319
 31
0.0
  0
LINE
  5
176
  8
1
 10
142.23559774668371
 20
96.446045847621406
 30
0.0
 11
142.23559774668371
 21
186.44604584762129
 31
0.0
  0
LINE
  5
178
  8
1
 10
77.23559774668378
 20
121.44604584762131
 30
0.0
 11
167.23559774668371
 21
121.44604584762131
 31
0.0
  0
LINE
  5
179
  8
1
 10
77.23559774668378
 20
161.44604584762129
 30
0.0
 11
167.23559774668371
 21
161.44604584762129
 31
0.0
  0
LINE
  5
17A
  8
0
 10
162.23559774668371
 20
155.94604584762129
 30
0.0
 11
162.23559774668371
 21
126.94604584762141
 31
0.0
  0
CIRCLE
  5
17F
  8
0
 10
142.23559774668371
 20
161.44604584762129
 30
0.0
 40
3.399999999999999
  0
LINE
  5
180
  8
1
 10
72.23559774668378
 20
141.44604584762129
 30
0.0
 11
172.23559774668371
 21
141.44604584762129
 31
0.0
  0
LINE
  5
181
  8
1
 10
102.23559774668379
 20
96.446045847621406
 30
0.0
 11
102.23559774668379
 21
186.44604584762129
 31
0.0
  0
LINE
  5
183
  8
0
 10
138.2698689941455
 20
153.69604584762129
 30
0.0
 11
145.7932095912457
 21
153.69604584762129
 31
0.0
  0
ARC
  5
3FB
  8
0
 10
155.73559774668371
 20
136.94604584762121
 30
0.0
 40
2.5
 50
270.0
 51
0.0
  0
ARC
  5
3FC
  8
0
 10
155.7355977466836
 20
145.94604584762141
 30
0.0
 40
2.5
 50
0.0
 51
90.00000000000081
  0
ARC
  5
431
  8
0
 10
145.7932095912459
 20
134.19604584762129
 30
0.0
 40
5.0
 50
270.0
 51
314.99999999999949
  0
ARC
  5
435
  8
0
 10
155.18534521497671
 20
129.44604584762121
 30
0.0
 40
5.0
 50
90.0
 51
134.9999999999994
  0
LINE
  5
437
  8
0
 10
149.32874349717861
 20
130.66051194168841
 30
0.0
 11
151.649811309044
 21
132.98157975355389
 31
0.0
  0
LINE
  5
438
  8
0
 10
155.18534521497671
 20
134.44604584762109
 30
0.0
 11
155.73559774668371
 21
134.44604584762109
 31
0.0
  0
LINE
  5
439
  8
0
 10
155.73559774668371
 20
134.44604584762109
 30
0.0
 11
155.08762480552431
 21
134.44604584762121
 31
0.0
  0
ARC
  5
43A
  8
0
 10
145.7932095912457
 20
148.69604584762109
 30
0.0
 40
5.0
 50
45.000000000000568
 51
90.00000000000081
  0
ARC
  5
43B
  8
0
 10
155.18534521497651
 20
153.44604584762141
 30
0.0
 40
5.0
 50
225.0000000000006
 51
270.0000000000008
  0
LINE
  5
43C
  8
0
 10
155.7355977466836
 20
148.44604584762129
 30
0.0
 11
155.0876248055242
 21
148.44604584762129
 31
0.0
  0
LINE
  5
43D
  8
0
 10
155.18534521497671
 20
148.44604584762129
 30
0.0
 11
155.7355977466836
 21
148.44604584762129
 31
0.0
  0
LINE
  5
441
  8
0
 10
149.32874349717841
 20
152.23157975355389
 30
0.0
 11
151.64981130904391
 21
149.91051194168861
 31
0.0
  0
LINE
  5
44E
  8
0
 10
158.23559774668371
 20
136.94604584762109
 30
0.0
 11
158.23559774668371
 21
141.44604584762129
 31
0.0
  0
LINE
  5
45D
  8
0
 10
158.2355977466836
 20
145.94604584762149
 30
0.0
 11
158.23559774668371
 21
141.44604584762129
 31
0.0
  0
LINE
  5
4A5
  8
0
 10
106.20132649922201
 20
129.19604584762129
 30
0.0
 11
98.677985902121634
 21
129.19604584762129
 31
0.0
  0
ARC
  5
4A6
  8
0
 10
98.677985902121634
 20
134.19604584762129
 30
0.0
 40
5.0
 50
225.0000000000006
 51
270.0
  0
ARC
  5
4A7
  8
0
 10
88.735597746683823
 20
136.94604584762121
 30
0.0
 40
2.5
 50
180.0
 51
270.0
  0
LINE
  5
4A8
  8
0
 10
95.142451996188925
 20
130.66051194168841
 30
0.0
 11
92.821384184323506
 21
132.98157975355389
 31
0.0
  0
ARC
  5
4A9
  8
0
 10
89.285850278390797
 20
129.44604584762121
 30
0.0
 40
5.0
 50
45.00000000000059
 51
90.0
  0
LINE
  5
4AA
  8
0
 10
89.285850278390797
 20
134.44604584762109
 30
0.0
 11
88.735597746683823
 21
134.44604584762109
 31
0.0
  0
LINE
  5
4AB
  8
0
 10
88.735597746683766
 20
134.44604584762109
 30
0.0
 11
89.383570687843246
 21
134.44604584762121
 31
0.0
  0
LINE
  5
4AC
  8
0
 10
86.235597746683879
 20
145.94604584762149
 30
0.0
 11
86.235597746683823
 21
141.44604584762129
 31
0.0
  0
ARC
  5
4AD
  8
0
 10
88.735597746683879
 20
145.94604584762141
 30
0.0
 40
2.5
 50
89.999999999999204
 51
180.0
  0
ARC
  5
4AE
  8
0
 10
89.285850278390967
 20
153.44604584762141
 30
0.0
 40
5.0
 50
269.9999999999992
 51
314.99999999999937
  0
LINE
  5
4AF
  8
0
 10
88.735597746683879
 20
148.44604584762129
 30
0.0
 11
89.38357068784336
 21
148.44604584762129
 31
0.0
  0
LINE
  5
4B0
  8
0
 10
89.285850278390853
 20
148.44604584762129
 30
0.0
 11
88.735597746683879
 21
148.44604584762129
 31
0.0
  0
LINE
  5
4B1
  8
0
 10
86.235597746683823
 20
136.94604584762109
 30
0.0
 11
86.235597746683823
 21
141.44604584762129
 31
0.0
  0
LINE
  5
4B2
  8
0
 10
106.20132649922201
 20
153.69604584762129
 30
0.0
 11
98.677985902121733
 21
153.69604584762129
 31
0.0
  0
LINE
  5
4B3
  8
0
 10
95.142451996189095
 20
152.23157975355389
 30
0.0
 11
92.82138418432362
 21
149.91051194168861
 31
0.0
  0
ARC
  5
4B4
  8
0
 10
98.677985902121733
 20
148.69604584762109
 30
0.0
 40
5.0
 50
89.999999999999204
 51
134.9999999999994
  0
LINE
  5
4B5
  8
0
 10
117.7355977466836
 20
105.44604584762151
 30
0.0
 11
122.23559774668379
 21
105.44604584762141
 31
0.0
  0
LINE
  5
4B6
  8
0
 10
117.7355977466836
 20
177.44604584762121
 30
0.0
 11
122.23559774668379
 21
177.44604584762129
 31
0.0
  0
LINE
  5
4C0
  8
0
 10
134.48559774668371
 20
125.4117746001596
 30
0.0
 11
134.48559774668371
 21
117.8884340030592
 31
0.0
  0
LINE
  5
4EC
  8
0
 10
133.02113165261659
 20
114.35290009712649
 30
0.0
 11
130.7000638407512
 21
112.0318322852611
 31
0.0
  0
ARC
  5
4F4
  8
0
 10
129.48559774668379
 20
117.8884340030592
 30
0.0
 40
5.0
 50
315.00000000000063
 51
0.0
  0
ARC
  5
4F5
  8
0
 10
134.23559774668391
 20
108.49629837932839
 30
0.0
 40
5.0
 50
135.0000000000006
 51
180.0
  0
LINE
  5
4F6
  8
0
 10
126.73559774668399
 20
105.44604584762141
 30
0.0
 11
122.23559774668379
 21
105.44604584762141
 31
0.0
  0
ARC
  5
4F7
  8
0
 10
126.73559774668389
 20
107.94604584762141
 30
0.0
 40
2.5
 50
270.0
 51
0.0
  0
LINE
  5
4F8
  8
0
 10
129.23559774668399
 20
107.94604584762131
 30
0.0
 11
129.23559774668391
 21
108.5940187887808
 31
0.0
  0
LINE
  5
4F9
  8
0
 10
129.23559774668399
 20
108.49629837932839
 30
0.0
 11
129.23559774668399
 21
107.94604584762141
 31
0.0
  0
ARC
  5
518
  8
0
 10
126.73559774668389
 20
174.94604584762129
 30
0.0
 40
2.5
 50
0.0
 51
90.0
  0
LINE
  5
541
  8
0
 10
134.48559774668371
 20
157.48031709508311
 30
0.0
 11
134.48559774668371
 21
165.00365769218351
 31
0.0
  0
LINE
  5
544
  8
0
 10
133.02113165261659
 20
168.53919159811619
 30
0.0
 11
130.7000638407512
 21
170.86025940998161
 31
0.0
  0
ARC
  5
546
  8
0
 10
129.48559774668379
 20
165.00365769218351
 30
0.0
 40
5.0
 50
0.0
 51
44.999999999999439
  0
ARC
  5
54A
  8
0
 10
134.23559774668391
 20
174.39579331591429
 30
0.0
 40
5.0
 50
180.0
 51
224.9999999999994
  0
LINE
  5
54B
  8
0
 10
129.23559774668399
 20
174.39579331591429
 30
0.0
 11
129.23559774668399
 21
174.94604584762129
 31
0.0
  0
LINE
  5
54C
  8
0
 10
129.23559774668399
 20
174.94604584762141
 30
0.0
 11
129.23559774668391
 21
174.2980729064619
 31
0.0
  0
LINE
  5
55B
  8
0
 10
126.73559774668399
 20
177.44604584762129
 30
0.0
 11
122.23559774668379
 21
177.44604584762129
 31
0.0
  0
LINE
  5
55F
  8
0
 10
109.98559774668369
 20
125.4117746001596
 30
0.0
 11
109.98559774668369
 21
117.8884340030593
 31
0.0
  0
ARC
  5
56B
  8
0
 10
110.23559774668369
 20
108.49629837932849
 30
0.0
 40
5.0
 50
359.9999999999992
 51
44.999999999999361
  0
ARC
  5
56C
  8
0
 10
117.73559774668369
 20
107.94604584762151
 30
0.0
 40
2.5
 50
179.9999999999992
 51
270.0
  0
LINE
  5
56D
  8
0
 10
115.23559774668369
 20
108.49629837932849
 30
0.0
 11
115.23559774668369
 21
107.94604584762151
 31
0.0
  0
LINE
  5
56E
  8
0
 10
115.23559774668369
 20
107.94604584762151
 30
0.0
 11
115.23559774668369
 21
108.594018788781
 31
0.0
  0
ARC
  5
571
  8
0
 10
114.98559774668389
 20
117.8884340030593
 30
0.0
 40
5.0
 50
179.9999999999992
 51
224.9999999999994
  0
LINE
  5
572
  8
0
 10
111.4500638407512
 20
114.35290009712671
 30
0.0
 11
113.7711316526165
 21
112.0318322852612
 31
0.0
  0
ARC
  5
5AF
  8
0
 10
117.73559774668369
 20
174.94604584762121
 30
0.0
 40
2.5
 50
90.0
 51
180.0000000000008
  0
LINE
  5
5B9
  8
0
 10
109.98559774668369
 20
157.48031709508311
 30
0.0
 11
109.98559774668369
 21
165.0036576921834
 31
0.0
  0
LINE
  5
5BD
  8
0
 10
111.4500638407512
 20
168.53919159811599
 30
0.0
 11
113.7711316526165
 21
170.8602594099815
 31
0.0
  0
ARC
  5
5BE
  8
0
 10
114.98559774668389
 20
165.0036576921834
 30
0.0
 40
5.0
 50
135.0000000000006
 51
180.0000000000008
  0
ARC
  5
5BF
  8
0
 10
110.23559774668369
 20
174.39579331591409
 30
0.0
 40
5.0
 50
315.00000000000063
 51
0.0000000000007994
  0
LINE
  5
5C0
  8
0
 10
115.23559774668369
 20
174.94604584762121
 30
0.0
 11
115.23559774668369
 21
174.2980729064617
 31
0.0
  0
LINE
  5
5C1
  8
0
 10
115.23559774668369
 20
174.39579331591429
 30
0.0
 11
115.23559774668369
 21
174.94604584762121
 31
0.0
  0
LINE
  5
5F9
  8
1
 10
122.23559774668379
 20
91.446045847621406
 30
0.0
 11
122.23559774668379
 21
191.44604584762129
 31
0.0
  0
TEXT
  5
69B
  8
0
 62
     3
 10
0.0
 20
0.0
 30
0.0
 40
10.0
  1
SPL8080N
  7
STANDARD1
  0
ENDSEC
  0
EOF
