  0
SECTION
  2
HEADER
  9
$ACADVER
  1
AC1009
  9
$INSBASE
 10
0.0
 20
0.0
 30
0.0
  9
$EXTMIN
 10
0.0
 20
-2.960436562073669
 30
0.0
  9
$EXTMAX
 10
290.91599395503511
 20
243.84826363810271
 30
0.0
  9
$LIMMIN
 10
0.0
 20
0.0
  9
$LIMMAX
 10
375.0
 20
278.0
  9
$ORTHOMODE
 70
     1
  9
$REGENMODE
 70
     1
  9
$FILLMODE
 70
     1
  9
$QTEXTMODE
 70
     0
  9
$MIRRTEXT
 70
     0
  9
$DRAGMODE
 70
     2
  9
$LTSCALE
 40
10.0
  9
$OSMODE
 70
    55
  9
$ATTMODE
 70
     1
  9
$TEXTSIZE
 40
0.2
  9
$TRACEWID
 40
0.05
  9
$TEXTSTYLE
  7
STANDARD
  9
$CLAYER
  8
0
  9
$CELTYPE
  6
BYLAYER
  9
$CECOLOR
 62
   256
  9
$DIMSCALE
 40
1.0
  9
$DIMASZ
 40
3.0
  9
$DIMEXO
 40
1.0
  9
$DIMDLI
 40
6.0
  9
$DIMRND
 40
0.0
  9
$DIMDLE
 40
0.0
  9
$DIMEXE
 40
1.0
  9
$DIMTP
 40
495.0
  9
$DIMTM
 40
0.0
  9
$DIMTXT
 40
3.0
  9
$DIMCEN
 40
0.0
  9
$DIMTSZ
 40
0.0
  9
$DIMTOL
 70
     0
  9
$DIMLIM
 70
     0
  9
$DIMTIH
 70
     0
  9
$DIMTOH
 70
     0
  9
$DIMSE1
 70
     0
  9
$DIMSE2
 70
     0
  9
$DIMTAD
 70
     1
  9
$DIMZIN
 70
     0
  9
$DIMBLK
  1

  9
$DIMASO
 70
     0
  9
$DIMSHO
 70
     0
  9
$DIMPOST
  1

  9
$DIMAPOST
  1

  9
$DIMALT
 70
     0
  9
$DIMALTD
 70
     2
  9
$DIMALTF
 40
25.399999999999999
  9
$DIMLFAC
 40
1.0
  9
$DIMTOFL
 70
     1
  9
$DIMTVP
 40
0.0
  9
$DIMTIX
 70
     1
  9
$DIMSOXD
 70
     0
  9
$DIMSAH
 70
     0
  9
$DIMBLK1
  1

  9
$DIMBLK2
  1

  9
$DIMSTYLE
  2
STANDARD
  9
$DIMCLRD
 70
     0
  9
$DIMCLRE
 70
     0
  9
$DIMCLRT
 70
     4
  9
$DIMTFAC
 40
1.0
  9
$DIMGAP
 40
1.0
  9
$LUNITS
 70
     2
  9
$LUPREC
 70
     4
  9
$SKETCHINC
 40
0.1
  9
$FILLETRAD
 40
0.0
  9
$AUNITS
 70
     0
  9
$AUPREC
 70
     0
  9
$MENU
  1
C:\R13\WIN\SUPPORT\ACAD-I
  9
$ELEVATION
 40
0.0
  9
$PELEVATION
 40
0.0
  9
$THICKNESS
 40
0.0
  9
$LIMCHECK
 70
     0
  9
$BLIPMODE
 70
     0
  9
$CHAMFERA
 40
0.0
  9
$CHAMFERB
 40
0.0
  9
$SKPOLY
 70
     0
  9
$TDCREATE
 40
2450834.4199027782
  9
$TDUPDATE
 40
2456598.5504133571
  9
$TDINDWG
 40
0.0400231134
  9
$TDUSRTIMER
 40
0.0400231134
  9
$USRTIMER
 70
     1
  9
$ANGBASE
 50
0.0
  9
$ANGDIR
 70
     0
  9
$PDMODE
 70
     0
  9
$PDSIZE
 40
0.0
  9
$PLINEWID
 40
0.0
  9
$COORDS
 70
     1
  9
$SPLFRAME
 70
     0
  9
$SPLINETYPE
 70
     6
  9
$SPLINESEGS
 70
     8
  9
$ATTDIA
 70
     0
  9
$ATTREQ
 70
     1
  9
$HANDLING
 70
     1
  9
$HANDSEED
  5
C5A
  9
$SURFTAB1
 70
     6
  9
$SURFTAB2
 70
     6
  9
$SURFTYPE
 70
     6
  9
$SURFU
 70
     6
  9
$SURFV
 70
     6
  9
$UCSNAME
  2

  9
$UCSORG
 10
0.0
 20
0.0
 30
0.0
  9
$UCSXDIR
 10
1.0
 20
0.0
 30
0.0
  9
$UCSYDIR
 10
0.0
 20
1.0
 30
0.0
  9
$PUCSNAME
  2

  9
$PUCSORG
 10
0.0
 20
0.0
 30
0.0
  9
$PUCSXDIR
 10
1.0
 20
0.0
 30
0.0
  9
$PUCSYDIR
 10
0.0
 20
1.0
 30
0.0
  9
$USERI1
 70
     4
  9
$USERI2
 70
     1
  9
$USERI3
 70
     0
  9
$USERI4
 70
     0
  9
$USERI5
 70
     0
  9
$USERR1
 40
1.0
  9
$USERR2
 40
3.0
  9
$USERR3
 40
3.0
  9
$USERR4
 40
3.0
  9
$USERR5
 40
10.0
  9
$WORLDVIEW
 70
     1
  9
$SHADEDGE
 70
     3
  9
$SHADEDIF
 70
    70
  9
$TILEMODE
 70
     1
  9
$MAXACTVP
 70
    16
  9
$PLIMCHECK
 70
     0
  9
$PEXTMIN
 10
1.0000000000000000E+020
 20
1.0000000000000000E+020
 30
1.0000000000000000E+020
  9
$PEXTMAX
 10
-1.0000000000000000E+020
 20
-1.0000000000000000E+020
 30
-1.0000000000000000E+020
  9
$PLIMMIN
 10
0.0
 20
0.0
  9
$PLIMMAX
 10
12.0
 20
9.0
  9
$UNITMODE
 70
     0
  9
$VISRETAIN
 70
     0
  9
$PLINEGEN
 70
     0
  9
$PSLTSCALE
 70
     0
  0
ENDSEC
  0
SECTION
  2
TABLES
  0
TABLE
  2
VPORT
 70
     1
  0
VPORT
  2
*ACTIVE
 70
     0
 10
0.0
 20
0.0
 11
1.0
 21
1.0
 12
187.49427839065231
 22
180.1290430320056
 13
0.0
 23
0.0
 14
10.0
 24
10.0
 15
10.0
 25
10.0
 16
0.0
 26
0.0
 36
1.0
 17
0.0
 27
0.0
 37
0.0
 40
369.4434036391122
 41
1.7807262569832401
 42
50.0
 43
0.0
 44
0.0
 50
0.0
 51
0.0
 71
     0
 72
   100
 73
     1
 74
     0
 75
     0
 76
     0
 77
     0
 78
     0
  0
ENDTAB
  0
TABLE
  2
LTYPE
 70
     3
  0
LTYPE
  2
CONTINUOUS
 70
     0
  3
Solid Line
 72
    65
 73
     0
 40
0.0
  0
LTYPE
  2
CENTER
 70
     0
  3
____ _ ____ _ ____ _ ____ _ ____ _ ____ _ ____
 72
    65
 73
     4
 40
2.0
 49
1.25
 49
-0.25
 49
0.25
 49
-0.25
  0
LTYPE
  2
PHANTOM2
 70
     0
  3
___ _ _ ___ _ _ ___ _ _ ___ _ _
 72
    65
 73
     6
 40
1.25
 49
0.625
 49
-0.125
 49
0.125
 49
-0.125
 49
0.125
 49
-0.125
  0
ENDTAB
  0
TABLE
  2
LAYER
 70
     2
  0
LAYER
  2
0
 70
     0
 62
     7
  6
CONTINUOUS
  0
LAYER
  2
1
 70
     0
 62
     1
  6
CENTER
  0
ENDTAB
  0
TABLE
  2
STYLE
 70
     2
  0
STYLE
  2
STANDARD
 70
     0
 40
0.0
 41
1.0
 50
0.0
 71
     0
 42
0.2
  3
SIMPLEX
  4
BIGFONT
  0
STYLE
  2
STANDARD1
 70
     0
 40
0.0
 41
1.0
 50
0.0
 71
     0
 42
3.0
  3
txt
  4

  0
ENDTAB
  0
TABLE
  2
VIEW
 70
     0
  0
ENDTAB
  0
TABLE
  2
UCS
 70
     0
  0
ENDTAB
  0
TABLE
  2
APPID
 70
     5
  0
APPID
  2
ACAD
 70
     0
  0
APPID
  2
GENIUS_GENODEF_13
 70
     0
  0
APPID
  2
GENIUS_GENOBJ-N-FIL_13
 70
     0
  0
APPID
  2
ACAD_MLEADERVER
 70
     0
  0
APPID
  2
ACAD_NAV_VCDISPLAY
 70
     0
  0
ENDTAB
  0
TABLE
  2
DIMSTYLE
 70
     1
  0
DIMSTYLE
  2
STANDARD
 70
     0
  3

  4

  5

  6

  7

 40
1.0
 41
0.18
 42
0.0625
 43
0.38
 44
0.18
 45
0.0
 46
0.0
 47
0.0
 48
0.0
140
0.18
141
0.09
142
0.0
143
25.399999999999999
144
1.0
145
0.0
146
1.0
147
0.09
 71
     0
 72
     0
 73
     1
 74
     1
 75
     0
 76
     0
 77
     0
 78
     0
170
     0
171
     2
172
     0
173
     0
174
     0
175
     0
176
     0
177
     0
178
     0
  0
ENDTAB
  0
ENDSEC
  0
SECTION
  2
BLOCKS
  0
BLOCK
  8
0
  2
$MODEL_SPACE
 70
     0
 10
0.0
 20
0.0
 30
0.0
  3
$MODEL_SPACE
  1

  0
ENDBLK
  5
B1D
  8
0
  0
BLOCK
 67
     1
  8
0
  2
$PAPER_SPACE
 70
     0
 10
0.0
 20
0.0
 30
0.0
  3
$PAPER_SPACE
  1

  0
ENDBLK
  5
B1B
 67
     1
  8
0
  0
BLOCK
  8
0
  2
STDGX5
 70
     0
 10
0.0
 20
0.0
 30
0.0
  3
STDGX5
  1

  0
ENDBLK
  5
4F
  8
0
  0
ENDSEC
  0
SECTION
  2
ENTITIES
  0
INSERT
  5
DE
  8
0
  2
STDGX5
 10
0.0
 20
0.0
 30
0.0
  0
INSERT
  5
DF
  8
0
  2
STDGX5
 10
0.0
 20
0.0
 30
0.0
  0
INSERT
  5
15C
  8
0
  2
STDGX5
 10
275.0
 20
0.0
 30
0.0
  0
INSERT
  5
15D
  8
0
  2
STDGX5
 10
275.0
 20
0.0
 30
0.0
  0
INSERT
  5
314
  8
0
  2
STDGX5
 10
0.0
 20
0.0
 30
0.0
  0
INSERT
  5
315
  8
0
  2
STDGX5
 10
0.0
 20
0.0
 30
0.0
  0
INSERT
  5
316
  8
0
  2
STDGX5
 10
275.0
 20
0.0
 30
0.0
  0
INSERT
  5
317
  8
0
  2
STDGX5
 10
275.0
 20
0.0
 30
0.0
  0
LINE
  5
5AB
  8
0
 10
163.2253476940306
 20
155.55264009759051
 30
0.0
 11
166.9253476940282
 21
155.55264009759051
 31
0.0
  0
LINE
  5
5AC
  8
0
 10
156.40649551110829
 20
153.75295602544529
 30
0.0
 11
166.87507520625039
 21
153.75295602544529
 31
0.0
  0
LINE
  5
5AD
  8
0
 10
165.1177358494572
 20
163.7526400975897
 30
0.0
 11
166.4253476940201
 21
163.7526400975897
 31
0.0
  0
LINE
  5
5AE
  8
0
 10
168.62534769402819
 20
161.95264009759211
 30
0.0
 11
163.22534769402819
 21
161.95264009759279
 31
0.0
  0
LINE
  5
5AF
  8
0
 10
165.1177358494449
 20
183.75264009760789
 30
0.0
 11
166.4253476939989
 21
183.7526400976115
 31
0.0
  0
ARC
  5
5B0
  8
0
 10
164.42534769403261
 20
189.25264009760591
 30
0.0
 40
2.5
 50
270.00000000016132
 51
0.0
1001
GENIUS_GENODEF_13
1002
{
1000
HIER
1070
     0
1002
}
1002
{
1000
MANEDIT
1070
     0
1002
}
1002
{
1000
NOSEL
1070
     0
1002
}
1002
{
1000
BEHIND
1070
     0
1002
}
1002
{
1000
REACTOR
1002
}
1001
GENIUS_GENOBJ-N-FIL_13
1002
{
1000
OWNER
1000
GEN
1002
}
  0
LINE
  5
5B1
  8
0
 10
165.1177358494449
 20
203.7526400975716
 30
0.0
 11
166.4253476939989
 21
203.75264009756791
 31
0.0
  0
ARC
  5
5B2
  8
0
 10
164.42534769403261
 20
198.2526400975735
 30
0.0
 40
2.5
 50
0.0
 51
89.99999999983909
1001
GENIUS_GENODEF_13
1002
{
1000
HIER
1070
     0
1002
}
1002
{
1000
MANEDIT
1070
     0
1002
}
1002
{
1000
NOSEL
1070
     0
1002
}
1002
{
1000
BEHIND
1070
     0
1002
}
1002
{
1000
REACTOR
1002
}
1001
GENIUS_GENOBJ-N-FIL_13
1002
{
1000
OWNER
1000
GEN
1002
}
  0
LINE
  5
5B3
  8
0
 10
165.1177358494572
 20
223.7526400975897
 30
0.0
 11
166.4253476940201
 21
223.7526400975897
 31
0.0
  0
LINE
  5
5B4
  8
0
 10
163.2253476940306
 20
231.9526400975889
 30
0.0
 11
166.9253476940282
 21
231.95264009758901
 31
0.0
  0
LINE
  5
5B6
  8
0
 10
168.62534769402819
 20
225.5526400975873
 30
0.0
 11
163.22534769402819
 21
225.5526400975867
 31
0.0
  0
ARC
  5
5B7
  8
0
 10
163.87509516233649
 20
181.7526400976044
 30
0.0
 40
5.0
 50
90.000000000161393
 51
135.00000000000091
1001
GENIUS_GENODEF_13
1002
{
1000
HIER
1070
     0
1002
}
1002
{
1000
MANEDIT
1070
     0
1002
}
1002
{
1000
NOSEL
1070
     0
1002
}
1002
{
1000
BEHIND
1070
     0
1002
}
1002
{
1000
REACTOR
1002
}
1001
GENIUS_GENOBJ-N-FIL_13
1002
{
1000
OWNER
1000
GEN
1002
}
  0
ARC
  5
5B8
  8
0
 10
97.425347694023515
 20
189.25264009760591
 30
0.0
 40
2.5
 50
180.0
 51
269.99999999983879
1001
GENIUS_GENODEF_13
1002
{
1000
HIER
1070
     0
1002
}
1002
{
1000
MANEDIT
1070
     0
1002
}
1002
{
1000
NOSEL
1070
     0
1002
}
1002
{
1000
BEHIND
1070
     0
1002
}
1002
{
1000
REACTOR
1002
}
1001
GENIUS_GENOBJ-N-FIL_13
1002
{
1000
OWNER
1000
GEN
1002
}
  0
ARC
  5
5BA
  8
0
 10
97.975600225719575
 20
181.7526400976044
 30
0.0
 40
5.0
 50
44.999999999999119
 51
89.999999999838607
1001
GENIUS_GENODEF_13
1002
{
1000
HIER
1070
     0
1002
}
1002
{
1000
MANEDIT
1070
     0
1002
}
1002
{
1000
NOSEL
1070
     0
1002
}
1002
{
1000
BEHIND
1070
     0
1002
}
1002
{
1000
REACTOR
1002
}
1001
GENIUS_GENOBJ-N-FIL_13
1002
{
1000
OWNER
1000
GEN
1002
}
  0
ARC
  5
5BB
  8
0
 10
97.975600225719575
 20
205.7526400975751
 30
0.0
 40
5.0
 50
270.00000000016138
 51
315.00000000000091
1001
GENIUS_GENODEF_13
1002
{
1000
HIER
1070
     0
1002
}
1002
{
1000
MANEDIT
1070
     0
1002
}
1002
{
1000
NOSEL
1070
     0
1002
}
1002
{
1000
BEHIND
1070
     0
1002
}
1002
{
1000
REACTOR
1002
}
1001
GENIUS_GENOBJ-N-FIL_13
1002
{
1000
OWNER
1000
GEN
1002
}
  0
ARC
  5
5BC
  8
0
 10
96.732959538597072
 20
208.7526400975716
 30
0.0
 40
5.0
 50
270.00000000016138
 51
315.00000000000603
1001
GENIUS_GENODEF_13
1002
{
1000
HIER
1070
     0
1002
}
1002
{
1000
MANEDIT
1070
     0
1002
}
1002
{
1000
NOSEL
1070
     0
1002
}
1002
{
1000
BEHIND
1070
     0
1002
}
1002
{
1000
REACTOR
1002
}
1001
GENIUS_GENOBJ-N-FIL_13
1002
{
1000
OWNER
1000
GEN
1002
}
  0
ARC
  5
5BD
  8
0
 10
98.62534769402788
 20
226.0526400975867
 30
0.0
 40
0.5
 50
269.99999999999289
 51
0.0000000000254197
1001
GENIUS_GENODEF_13
1002
{
1000
HIER
1070
     0
1002
}
1002
{
1000
MANEDIT
1070
     0
1002
}
1002
{
1000
NOSEL
1070
     0
1002
}
1002
{
1000
BEHIND
1070
     0
1002
}
1002
{
1000
REACTOR
1002
}
1001
GENIUS_GENOBJ-N-FIL_13
1002
{
1000
OWNER
1000
GEN
1002
}
  0
ARC
  5
5BE
  8
0
 10
98.625347694025507
 20
231.4526400975889
 30
0.0
 40
0.5
 50
0.0000000000254197
 51
89.999999999999602
1001
GENIUS_GENODEF_13
1002
{
1000
HIER
1070
     0
1002
}
1002
{
1000
MANEDIT
1070
     0
1002
}
1002
{
1000
NOSEL
1070
     0
1002
}
1002
{
1000
BEHIND
1070
     0
1002
}
1002
{
1000
REACTOR
1002
}
1001
GENIUS_GENOBJ-N-FIL_13
1002
{
1000
OWNER
1000
GEN
1002
}
  0
LINE
  5
5BF
  8
0
 10
166.8750752038336
 20
233.75232416969729
 30
0.0
 11
94.975620181798661
 21
233.752324169736
 31
0.0
  0
ARC
  5
5C0
  8
0
 10
96.732959538598905
 20
218.7526400975897
 30
0.0
 40
5.0
 50
44.999999999996078
 51
90.0
1001
GENIUS_GENODEF_13
1002
{
1000
HIER
1070
     0
1002
}
1002
{
1000
MANEDIT
1070
     0
1002
}
1002
{
1000
NOSEL
1070
     0
1002
}
1002
{
1000
BEHIND
1070
     0
1002
}
1002
{
1000
REACTOR
1002
}
1001
GENIUS_GENOBJ-N-FIL_13
1002
{
1000
OWNER
1000
GEN
1002
}
  0
ARC
  5
5C1
  8
0
 10
95.42534769403602
 20
221.2526400975897
 30
0.0
 40
2.5
 50
90.0
 51
180.00000000050019
1001
GENIUS_GENODEF_13
1002
{
1000
HIER
1070
     0
1002
}
1002
{
1000
MANEDIT
1070
     0
1002
}
1002
{
1000
NOSEL
1070
     0
1002
}
1002
{
1000
BEHIND
1070
     0
1002
}
1002
{
1000
REACTOR
1002
}
1001
GENIUS_GENOBJ-N-FIL_13
1002
{
1000
OWNER
1000
GEN
1002
}
  0
LINE
  5
5C2
  8
0
 10
90.925663621892497
 20
219.2337879146738
 30
0.0
 11
90.925663621892497
 21
229.7023676098211
 31
0.0
  0
ARC
  5
5C3
  8
0
 10
94.925347694002596
 20
229.7526400975897
 30
0.0
 40
3.9999999999708962
 50
89.279880697313232
 51
180.72011930267459
  0
LINE
  5
5C4
  8
0
 10
92.725347694027903
 20
229.75264009758899
 30
0.0
 11
92.725347694027903
 21
226.0526400975873
 31
0.0
  0
ARC
  5
5C5
  8
0
 10
94.925347694027934
 20
229.75264009758899
 30
0.0
 40
2.2000000000000002
 50
89.999999999999758
 51
180.0
1001
GENIUS_GENODEF_13
1002
{
1000
HIER
1070
     0
1002
}
1002
{
1000
MANEDIT
1070
     0
1002
}
1002
{
1000
NOSEL
1070
     0
1002
}
1002
{
1000
BEHIND
1070
     0
1002
}
1002
{
1000
REACTOR
1002
}
1001
GENIUS_GENOBJ-N-FIL_13
1002
{
1000
OWNER
1000
GEN
1002
}
  0
LINE
  5
5C6
  8
0
 10
98.625347694025507
 20
231.9526400975889
 30
0.0
 11
94.925347694027934
 21
231.95264009758901
 31
0.0
  0
LINE
  5
5C7
  8
0
 10
93.225347694027917
 20
225.5526400975873
 30
0.0
 11
98.625347694027781
 21
225.5526400975867
 31
0.0
  0
ARC
  5
5C8
  8
0
 10
93.225347694027917
 20
226.0526400975873
 30
0.0
 40
0.5
 50
180.0
 51
269.99999999999312
1001
GENIUS_GENODEF_13
1002
{
1000
HIER
1070
     0
1002
}
1002
{
1000
MANEDIT
1070
     0
1002
}
1002
{
1000
NOSEL
1070
     0
1002
}
1002
{
1000
BEHIND
1070
     0
1002
}
1002
{
1000
REACTOR
1002
}
1001
GENIUS_GENOBJ-N-FIL_13
1002
{
1000
OWNER
1000
GEN
1002
}
  0
LINE
  5
5C9
  8
0
 10
96.732959538598905
 20
223.7526400975897
 30
0.0
 11
95.42534769403602
 21
223.7526400975897
 31
0.0
  0
ARC
  5
5CA
  8
0
 10
94.425347694036915
 20
218.75264009759411
 30
0.0
 40
1.0
 50
270.00000000016678
 51
0.0000000001215827
1001
GENIUS_GENODEF_13
1002
{
1000
HIER
1070
     0
1002
}
1002
{
1000
MANEDIT
1070
     0
1002
}
1002
{
1000
NOSEL
1070
     0
1002
}
1002
{
1000
BEHIND
1070
     0
1002
}
1002
{
1000
REACTOR
1002
}
1001
GENIUS_GENOBJ-N-FIL_13
1002
{
1000
OWNER
1000
GEN
1002
}
  0
LINE
  5
5CB
  8
0
 10
93.42534769404034
 20
220.75264009757231
 30
0.0
 11
94.925347694029426
 21
220.7526400975853
 31
0.0
  0
LINE
  5
5CC
  8
0
 10
92.557125927635582
 20
217.7526400975888
 30
0.0
 11
94.425347694039885
 21
217.75264009759411
 31
0.0
  0
ARC
  5
5CD
  8
0
 10
93.42534769403602
 20
221.25264009757231
 30
0.0
 40
0.5
 50
180.0000000005015
 51
270.00000000049499
1001
GENIUS_GENODEF_13
1002
{
1000
HIER
1070
     0
1002
}
1002
{
1000
MANEDIT
1070
     0
1002
}
1002
{
1000
NOSEL
1070
     0
1002
}
1002
{
1000
BEHIND
1070
     0
1002
}
1002
{
1000
REACTOR
1002
}
1001
GENIUS_GENOBJ-N-FIL_13
1002
{
1000
OWNER
1000
GEN
1002
}
  0
ARC
  5
5CE
  8
0
 10
92.538819141354622
 20
219.3715650935637
 30
0.0
 40
1.61902849913654
 50
184.88169904815399
 51
270.64787243910803
1001
GENIUS_GENODEF_13
1002
{
1000
HIER
1070
     0
1002
}
1002
{
1000
MANEDIT
1070
     0
1002
}
1002
{
1000
NOSEL
1070
     0
1002
}
1002
{
1000
BEHIND
1070
     0
1002
}
1002
{
1000
REACTOR
1002
}
1001
GENIUS_GENOBJ-N-FIL_13
1002
{
1000
OWNER
1000
GEN
1002
}
  0
ARC
  5
5CF
  8
0
 10
94.925347694033746
 20
220.25264009758541
 30
0.0
 40
0.5
 50
0.000000000123741
 51
90.000000000500236
1001
GENIUS_GENODEF_13
1002
{
1000
HIER
1070
     0
1002
}
1002
{
1000
MANEDIT
1070
     0
1002
}
1002
{
1000
NOSEL
1070
     0
1002
}
1002
{
1000
BEHIND
1070
     0
1002
}
1002
{
1000
REACTOR
1002
}
1001
GENIUS_GENOBJ-N-FIL_13
1002
{
1000
OWNER
1000
GEN
1002
}
  0
LINE
  5
5D0
  8
0
 10
95.425347694036915
 20
218.75264009759621
 30
0.0
 11
95.425347694033746
 21
220.25264009758641
 31
0.0
  0
ARC
  5
5D1
  8
0
 10
97.425347694023515
 20
198.2526400975735
 30
0.0
 40
2.5
 50
90.000000000160924
 51
180.0
1001
GENIUS_GENODEF_13
1002
{
1000
HIER
1070
     0
1002
}
1002
{
1000
MANEDIT
1070
     0
1002
}
1002
{
1000
NOSEL
1070
     0
1002
}
1002
{
1000
BEHIND
1070
     0
1002
}
1002
{
1000
REACTOR
1002
}
1001
GENIUS_GENOBJ-N-FIL_13
1002
{
1000
OWNER
1000
GEN
1002
}
  0
LINE
  5
5D2
  8
0
 10
90.925663621892497
 20
208.2677150938022
 30
0.0
 11
90.926044507673765
 21
179.23339600987021
 31
0.0
  0
ARC
  5
5D3
  8
0
 10
95.425347694050117
 20
206.25264009756791
 30
0.0
 40
2.5
 50
179.99999999937461
 51
270.00000000016149
  0
LINE
  5
5D4
  8
0
 10
93.425347694050103
 20
206.7526400975897
 30
0.0
 11
94.925347694038976
 21
206.7526400975897
 31
0.0
  0
ARC
  5
5D5
  8
0
 10
94.425347694038976
 20
208.7526400975897
 30
0.0
 40
1.0
 50
0.0
 51
90.0
1001
GENIUS_GENODEF_13
1002
{
1000
HIER
1070
     0
1002
}
1002
{
1000
MANEDIT
1070
     0
1002
}
1002
{
1000
NOSEL
1070
     0
1002
}
1002
{
1000
BEHIND
1070
     0
1002
}
1002
{
1000
REACTOR
1002
}
1001
GENIUS_GENOBJ-N-FIL_13
1002
{
1000
OWNER
1000
GEN
1002
}
  0
ARC
  5
5D6
  8
0
 10
93.425347694050103
 20
206.2526400975897
 30
0.0
 40
0.5
 50
90.0
 51
179.99999999937461
1001
GENIUS_GENODEF_13
1002
{
1000
HIER
1070
     0
1002
}
1002
{
1000
MANEDIT
1070
     0
1002
}
1002
{
1000
NOSEL
1070
     0
1002
}
1002
{
1000
BEHIND
1070
     0
1002
}
1002
{
1000
REACTOR
1002
}
1001
GENIUS_GENOBJ-N-FIL_13
1002
{
1000
OWNER
1000
GEN
1002
}
  0
LINE
  5
5D7
  8
0
 10
92.570650724334044
 20
209.7526400975897
 30
0.0
 11
94.425347694038976
 21
209.7526400975897
 31
0.0
  0
ARC
  5
5D8
  8
0
 10
92.550476592550254
 20
208.12137506785669
 30
0.0
 40
1.6313897734211129
 50
89.291449481947083
 51
174.85349758658899
1001
GENIUS_GENODEF_13
1002
{
1000
HIER
1070
     0
1002
}
1002
{
1000
MANEDIT
1070
     0
1002
}
1002
{
1000
NOSEL
1070
     0
1002
}
1002
{
1000
BEHIND
1070
     0
1002
}
1002
{
1000
REACTOR
1002
}
1001
GENIUS_GENOBJ-N-FIL_13
1002
{
1000
OWNER
1000
GEN
1002
}
  0
ARC
  5
5D9
  8
0
 10
94.925347694038976
 20
207.2526400975897
 30
0.0
 40
0.5
 50
270.0
 51
0.0
1001
GENIUS_GENODEF_13
1002
{
1000
HIER
1070
     0
1002
}
1002
{
1000
MANEDIT
1070
     0
1002
}
1002
{
1000
NOSEL
1070
     0
1002
}
1002
{
1000
BEHIND
1070
     0
1002
}
1002
{
1000
REACTOR
1002
}
1001
GENIUS_GENOBJ-N-FIL_13
1002
{
1000
OWNER
1000
GEN
1002
}
  0
LINE
  5
5DA
  8
0
 10
95.425347694038976
 20
208.7526400975897
 30
0.0
 11
95.425347694038976
 21
207.2526400975897
 31
0.0
  0
LINE
  5
5DB
  8
0
 10
97.975600225733672
 20
200.7526400975751
 30
0.0
 11
97.425347694016466
 21
200.7526400975735
 31
0.0
  0
LINE
  5
5DC
  8
0
 10
96.732959538611169
 20
203.7526400975716
 30
0.0
 11
95.425347694057166
 21
203.75264009756791
 31
0.0
  0
LINE
  5
5DD
  8
0
 10
94.925347694023515
 20
189.25264009760591
 30
0.0
 11
94.925347694023515
 21
198.2526400975735
 31
0.0
  0
LINE
  5
5DF
  8
0
 10
126.42534769404079
 20
229.7526400975897
 30
0.0
 11
135.42534769401561
 21
229.75264009758979
 31
0.0
  0
LINE
  5
5E0
  8
0
 10
118.6753476940326
 20
209.78691134506369
 30
0.0
 11
118.6753476940322
 21
217.31025194216389
 31
0.0
  0
LINE
  5
5E1
  8
0
 10
103.1753476940326
 20
210.19502825300739
 30
0.0
 11
103.1753476940326
 21
217.3102519421557
 31
0.0
  0
CIRCLE
  5
5E2
  8
0
 10
110.9253476940172
 20
213.7526400975897
 30
0.0
 40
3.399999999999999
  0
ARC
  5
5E3
  8
0
 10
115.9253476940244
 20
230.25264009758251
 30
0.0
 40
1.0
 50
180.0
 51
270.0
1001
GENIUS_GENODEF_13
1002
{
1000
HIER
1070
     0
1002
}
1002
{
1000
MANEDIT
1070
     0
1002
}
1002
{
1000
NOSEL
1070
     0
1002
}
1002
{
1000
BEHIND
1070
     0
1002
}
1002
{
1000
REACTOR
1002
}
1001
GENIUS_GENOBJ-N-FIL_13
1002
{
1000
OWNER
1000
GEN
1002
}
  0
ARC
  5
5E4
  8
0
 10
114.48295953860681
 20
226.5026400975888
 30
0.0
 40
5.0
 50
270.0
 51
314.99999999999397
1001
GENIUS_GENODEF_13
1002
{
1000
HIER
1070
     0
1002
}
1002
{
1000
MANEDIT
1070
     0
1002
}
1002
{
1000
NOSEL
1070
     0
1002
}
1002
{
1000
BEHIND
1070
     0
1002
}
1002
{
1000
REACTOR
1002
}
1001
GENIUS_GENOBJ-N-FIL_13
1002
{
1000
OWNER
1000
GEN
1002
}
  0
LINE
  5
5E6
  8
0
 10
103.8322019435262
 20
222.96710619165569
 30
0.0
 11
102.389813788092
 21
224.40949434708961
 31
0.0
  0
ARC
  5
5E7
  8
0
 10
105.9253476940201
 20
230.2526400975845
 30
0.0
 40
1.0
 50
269.99999999987841
 51
359.99999999983322
1001
GENIUS_GENODEF_13
1002
{
1000
HIER
1070
     0
1002
}
1002
{
1000
MANEDIT
1070
     0
1002
}
1002
{
1000
NOSEL
1070
     0
1002
}
1002
{
1000
BEHIND
1070
     0
1002
}
1002
{
1000
REACTOR
1002
}
1001
GENIUS_GENOBJ-N-FIL_13
1002
{
1000
OWNER
1000
GEN
1002
}
  0
ARC
  5
5E8
  8
0
 10
107.4253476940228
 20
231.2526400975693
 30
0.0
 40
0.5
 50
90.000000000149399
 51
179.99999999983271
1001
GENIUS_GENODEF_13
1002
{
1000
HIER
1070
     0
1002
}
1002
{
1000
MANEDIT
1070
     0
1002
}
1002
{
1000
NOSEL
1070
     0
1002
}
1002
{
1000
BEHIND
1070
     0
1002
}
1002
{
1000
REACTOR
1002
}
1001
GENIUS_GENOBJ-N-FIL_13
1002
{
1000
OWNER
1000
GEN
1002
}
  0
LINE
  5
5E9
  8
0
 10
100.9253476940244
 20
227.9450282530226
 30
0.0
 11
100.9253476940244
 21
229.25264009758541
 31
0.0
  0
LINE
  5
5EA
  8
0
 10
99.125347694027894
 20
226.0526400975869
 30
0.0
 11
99.125347694025493
 21
231.4526400975891
 31
0.0
  0
ARC
  5
5EB
  8
0
 10
103.4253476940244
 20
229.25264009758541
 30
0.0
 40
2.5
 50
89.999999999499764
 51
180.0
1001
GENIUS_GENODEF_13
1002
{
1000
HIER
1070
     0
1002
}
1002
{
1000
MANEDIT
1070
     0
1002
}
1002
{
1000
NOSEL
1070
     0
1002
}
1002
{
1000
BEHIND
1070
     0
1002
}
1002
{
1000
REACTOR
1002
}
1001
GENIUS_GENOBJ-N-FIL_13
1002
{
1000
OWNER
1000
GEN
1002
}
  0
LINE
  5
5EC
  8
0
 10
105.925347694018
 20
229.2526400975845
 30
0.0
 11
104.42534769402759
 21
229.25264009758769
 31
0.0
  0
ARC
  5
5ED
  8
0
 10
104.4253476940287
 20
229.75264009758769
 30
0.0
 40
0.5
 50
179.99999999949969
 51
269.9999999998762
1001
GENIUS_GENODEF_13
1002
{
1000
HIER
1070
     0
1002
}
1002
{
1000
MANEDIT
1070
     0
1002
}
1002
{
1000
NOSEL
1070
     0
1002
}
1002
{
1000
BEHIND
1070
     0
1002
}
1002
{
1000
REACTOR
1002
}
1001
GENIUS_GENOBJ-N-FIL_13
1002
{
1000
OWNER
1000
GEN
1002
}
  0
ARC
  5
5EE
  8
0
 10
103.4253476940419
 20
231.25264009758541
 30
0.0
 40
0.5
 50
359.99999999950489
 51
89.999999999498414
1001
GENIUS_GENODEF_13
1002
{
1000
HIER
1070
     0
1002
}
1002
{
1000
MANEDIT
1070
     0
1002
}
1002
{
1000
NOSEL
1070
     0
1002
}
1002
{
1000
BEHIND
1070
     0
1002
}
1002
{
1000
REACTOR
1002
}
1001
GENIUS_GENOBJ-N-FIL_13
1002
{
1000
OWNER
1000
GEN
1002
}
  0
LINE
  5
5EF
  8
0
 10
106.9253476940228
 20
231.25264009757061
 30
0.0
 11
106.9253476940201
 21
230.25264009758149
 31
0.0
  0
LINE
  5
5F0
  8
0
 10
103.9253476940419
 20
231.25264009758109
 30
0.0
 11
103.9253476940287
 21
229.75264009759201
 31
0.0
  0
ARC
  5
5F1
  8
0
 10
105.9253476940244
 20
227.9450282530226
 30
0.0
 40
5.0
 50
180.0
 51
225.00000000000389
1001
GENIUS_GENODEF_13
1002
{
1000
HIER
1070
     0
1002
}
1002
{
1000
MANEDIT
1070
     0
1002
}
1002
{
1000
NOSEL
1070
     0
1002
}
1002
{
1000
BEHIND
1070
     0
1002
}
1002
{
1000
REACTOR
1002
}
1001
GENIUS_GENOBJ-N-FIL_13
1002
{
1000
OWNER
1000
GEN
1002
}
  0
LINE
  5
5F2
  8
0
 10
114.4253476940231
 20
231.75264009758749
 30
0.0
 11
107.4253476940217
 21
231.7526400975693
 31
0.0
  0
ARC
  5
5F3
  8
0
 10
114.4253476940244
 20
231.25264009758749
 30
0.0
 40
0.5
 50
0.0
 51
90.000000000149811
1001
GENIUS_GENODEF_13
1002
{
1000
HIER
1070
     0
1002
}
1002
{
1000
MANEDIT
1070
     0
1002
}
1002
{
1000
NOSEL
1070
     0
1002
}
1002
{
1000
BEHIND
1070
     0
1002
}
1002
{
1000
REACTOR
1002
}
1001
GENIUS_GENOBJ-N-FIL_13
1002
{
1000
OWNER
1000
GEN
1002
}
  0
LINE
  5
5F4
  8
0
 10
114.9253476940244
 20
231.25264009758749
 30
0.0
 11
114.9253476940244
 21
230.25264009758251
 31
0.0
  0
ARC
  5
5F5
  8
0
 10
107.3677358494584
 20
226.5026400975888
 30
0.0
 40
5.0
 50
225.00000000000591
 51
270.0
1001
GENIUS_GENODEF_13
1002
{
1000
HIER
1070
     0
1002
}
1002
{
1000
MANEDIT
1070
     0
1002
}
1002
{
1000
NOSEL
1070
     0
1002
}
1002
{
1000
BEHIND
1070
     0
1002
}
1002
{
1000
REACTOR
1002
}
1001
GENIUS_GENOBJ-N-FIL_13
1002
{
1000
OWNER
1000
GEN
1002
}
  0
ARC
  5
5F6
  8
0
 10
98.17534769403261
 20
217.3102519421557
 30
0.0
 40
5.0
 50
0.0
 51
44.999999999994081
1001
GENIUS_GENODEF_13
1002
{
1000
HIER
1070
     0
1002
}
1002
{
1000
MANEDIT
1070
     0
1002
}
1002
{
1000
NOSEL
1070
     0
1002
}
1002
{
1000
BEHIND
1070
     0
1002
}
1002
{
1000
REACTOR
1002
}
1001
GENIUS_GENOBJ-N-FIL_13
1002
{
1000
OWNER
1000
GEN
1002
}
  0
LINE
  5
5F7
  8
0
 10
101.7108815999657
 20
220.84578584808801
 30
0.0
 11
100.2684934445317
 21
222.28817400352219
 31
0.0
  0
LINE
  5
5F8
  8
0
 10
114.48295953860681
 20
221.5026400975888
 30
0.0
 11
107.3677358494584
 21
221.5026400975888
 31
0.0
  0
ARC
  5
5F9
  8
0
 10
118.9253476940392
 20
226.7023875659016
 30
0.0
 40
5.0
 50
314.99999999999312
 51
359.99999999984232
1001
GENIUS_GENODEF_13
1002
{
1000
HIER
1070
     0
1002
}
1002
{
1000
MANEDIT
1070
     0
1002
}
1002
{
1000
NOSEL
1070
     0
1002
}
1002
{
1000
BEHIND
1070
     0
1002
}
1002
{
1000
REACTOR
1002
}
1001
GENIUS_GENOBJ-N-FIL_13
1002
{
1000
OWNER
1000
GEN
1002
}
  0
LINE
  5
5FA
  8
0
 10
120.1398137881
 20
220.84578584809751
 30
0.0
 11
122.4608815999716
 21
223.16685365996841
 31
0.0
  0
LINE
  5
5FB
  8
0
 10
118.018493444539
 20
222.96710619165569
 30
0.0
 11
119.460881599975
 21
224.40949434709151
 31
0.0
  0
ARC
  5
5FC
  8
0
 10
126.42534769404079
 20
227.2526400975897
 30
0.0
 40
2.5
 50
90.000000000000313
 51
179.999999999842
1001
GENIUS_GENODEF_13
1002
{
1000
HIER
1070
     0
1002
}
1002
{
1000
MANEDIT
1070
     0
1002
}
1002
{
1000
NOSEL
1070
     0
1002
}
1002
{
1000
BEHIND
1070
     0
1002
}
1002
{
1000
REACTOR
1002
}
1001
GENIUS_GENOBJ-N-FIL_13
1002
{
1000
OWNER
1000
GEN
1002
}
  0
LINE
  5
5FD
  8
0
 10
120.9253476940426
 20
227.94502825301029
 30
0.0
 11
120.92534769404629
 21
229.25264009756421
 31
0.0
  0
ARC
  5
5FE
  8
0
 10
118.42534769404629
 20
229.25264009757129
 30
0.0
 40
2.5
 50
359.99999999983839
 51
90.000000000625334
  0
ARC
  5
5FF
  8
0
 10
117.4253476940244
 20
229.7526400975824
 30
0.0
 40
0.5
 50
270.0
 51
0.0
1001
GENIUS_GENODEF_13
1002
{
1000
HIER
1070
     0
1002
}
1002
{
1000
MANEDIT
1070
     0
1002
}
1002
{
1000
NOSEL
1070
     0
1002
}
1002
{
1000
BEHIND
1070
     0
1002
}
1002
{
1000
REACTOR
1002
}
1001
GENIUS_GENOBJ-N-FIL_13
1002
{
1000
OWNER
1000
GEN
1002
}
  0
ARC
  5
600
  8
0
 10
118.4253476940244
 20
231.25264009757129
 30
0.0
 40
0.5
 50
90.000000000625334
 51
180.0
1001
GENIUS_GENODEF_13
1002
{
1000
HIER
1070
     0
1002
}
1002
{
1000
MANEDIT
1070
     0
1002
}
1002
{
1000
NOSEL
1070
     0
1002
}
1002
{
1000
BEHIND
1070
     0
1002
}
1002
{
1000
REACTOR
1002
}
1001
GENIUS_GENOBJ-N-FIL_13
1002
{
1000
OWNER
1000
GEN
1002
}
  0
LINE
  5
601
  8
0
 10
117.9253476940244
 20
231.25264009757129
 30
0.0
 11
117.9253476940244
 21
229.7526400975824
 31
0.0
  0
LINE
  5
602
  8
0
 10
115.9253476940244
 20
229.25264009758251
 30
0.0
 11
117.4253476940244
 21
229.25264009758251
 31
0.0
  0
ARC
  5
603
  8
0
 10
115.9253476940426
 20
227.94502825302439
 30
0.0
 40
5.0
 50
314.99999999999397
 51
359.99999999983862
1001
GENIUS_GENODEF_13
1002
{
1000
HIER
1070
     0
1002
}
1002
{
1000
MANEDIT
1070
     0
1002
}
1002
{
1000
NOSEL
1070
     0
1002
}
1002
{
1000
BEHIND
1070
     0
1002
}
1002
{
1000
REACTOR
1002
}
1001
GENIUS_GENOBJ-N-FIL_13
1002
{
1000
OWNER
1000
GEN
1002
}
  0
LINE
  5
606
  8
0
 10
123.9253476940392
 20
226.70238756588779
 30
0.0
 11
123.92534769404079
 21
227.25264009759661
 31
0.0
  0
ARC
  5
607
  8
0
 10
123.6753476940322
 20
217.3102519421642
 30
0.0
 40
5.0
 50
134.9999999999913
 51
180.0000000000035
1001
GENIUS_GENODEF_13
1002
{
1000
HIER
1070
     0
1002
}
1002
{
1000
MANEDIT
1070
     0
1002
}
1002
{
1000
NOSEL
1070
     0
1002
}
1002
{
1000
BEHIND
1070
     0
1002
}
1002
{
1000
REACTOR
1002
}
1001
GENIUS_GENOBJ-N-FIL_13
1002
{
1000
OWNER
1000
GEN
1002
}
  0
LINE
  5
608
  8
0
 10
114.8910764465632
 20
206.0026400975888
 30
0.0
 11
118.6753476940326
 21
209.7869113450582
 31
0.0
  0
ARC
  5
609
  8
0
 10
107.3677358494643
 20
201.0026400975888
 30
0.0
 40
5.0
 50
90.0
 51
135.00000000000171
1001
GENIUS_GENODEF_13
1002
{
1000
HIER
1070
     0
1002
}
1002
{
1000
MANEDIT
1070
     0
1002
}
1002
{
1000
NOSEL
1070
     0
1002
}
1002
{
1000
BEHIND
1070
     0
1002
}
1002
{
1000
REACTOR
1002
}
1001
GENIUS_GENOBJ-N-FIL_13
1002
{
1000
OWNER
1000
GEN
1002
}
  0
ARC
  5
60A
  8
0
 10
98.17534769403261
 20
210.19502825300739
 30
0.0
 40
5.0
 50
315.00000000000603
 51
0.0
1001
GENIUS_GENODEF_13
1002
{
1000
HIER
1070
     0
1002
}
1002
{
1000
MANEDIT
1070
     0
1002
}
1002
{
1000
NOSEL
1070
     0
1002
}
1002
{
1000
BEHIND
1070
     0
1002
}
1002
{
1000
REACTOR
1002
}
1001
GENIUS_GENOBJ-N-FIL_13
1002
{
1000
OWNER
1000
GEN
1002
}
  0
LINE
  5
60B
  8
0
 10
101.7108815999657
 20
206.65949434707511
 30
0.0
 11
100.26849344452989
 21
205.2171061916392
 31
0.0
  0
LINE
  5
60C
  8
0
 10
103.8322019435314
 20
204.53817400352139
 30
0.0
 11
101.5111341316524
 21
202.21710619164239
 31
0.0
  0
LINE
  5
60D
  8
0
 10
114.8910764465641
 20
206.0026400975888
 30
0.0
 11
107.3677358494643
 21
206.0026400975888
 31
0.0
  0
LINE
  5
60E
  8
0
 10
158.67534769402349
 20
210.19502825300739
 30
0.0
 11
158.67534769402349
 21
217.3102519421557
 31
0.0
  0
LINE
  5
60F
  8
0
 10
143.17534769402349
 20
209.78691134506369
 30
0.0
 11
143.17534769402391
 21
217.3102519421731
 31
0.0
  0
CIRCLE
  5
610
  8
0
 10
150.92534769401081
 20
213.75264009759701
 30
0.0
 40
3.399999999999999
  0
LINE
  5
611
  8
0
 10
147.367735849442
 20
221.5026400975888
 30
0.0
 11
154.48295953859051
 21
221.5026400975888
 31
0.0
  0
LINE
  5
612
  8
0
 10
147.42534769402579
 20
231.75264009758749
 30
0.0
 11
154.4253476940271
 21
231.7526400975693
 31
0.0
  0
LINE
  5
613
  8
0
 10
143.8322019435098
 20
222.96710619165569
 30
0.0
 11
142.38981378807381
 21
224.40949434709151
 31
0.0
  0
ARC
  5
614
  8
0
 10
142.92534769401689
 20
226.7023875659016
 30
0.0
 40
5.0
 50
180.00000000015771
 51
225.00000000000691
1001
GENIUS_GENODEF_13
1002
{
1000
HIER
1070
     0
1002
}
1002
{
1000
MANEDIT
1070
     0
1002
}
1002
{
1000
NOSEL
1070
     0
1002
}
1002
{
1000
BEHIND
1070
     0
1002
}
1002
{
1000
REACTOR
1002
}
1001
GENIUS_GENOBJ-N-FIL_13
1002
{
1000
OWNER
1000
GEN
1002
}
  0
LINE
  5
615
  8
0
 10
141.7108815999558
 20
220.84578584809771
 30
0.0
 11
139.3898137880845
 21
223.16685365996841
 31
0.0
  0
ARC
  5
616
  8
0
 10
135.42534769401561
 20
227.25264009758979
 30
0.0
 40
2.5
 50
0.0000000001580336
 51
90.0
1001
GENIUS_GENODEF_13
1002
{
1000
HIER
1070
     0
1002
}
1002
{
1000
MANEDIT
1070
     0
1002
}
1002
{
1000
NOSEL
1070
     0
1002
}
1002
{
1000
BEHIND
1070
     0
1002
}
1002
{
1000
REACTOR
1002
}
1001
GENIUS_GENOBJ-N-FIL_13
1002
{
1000
OWNER
1000
GEN
1002
}
  0
LINE
  5
617
  8
0
 10
137.92534769401689
 20
226.70238756588779
 30
0.0
 11
137.92534769401561
 21
227.2526400975967
 31
0.0
  0
ARC
  5
618
  8
0
 10
145.9253476940244
 20
230.25264009758251
 30
0.0
 40
1.0
 50
270.0
 51
0.0
1001
GENIUS_GENODEF_13
1002
{
1000
HIER
1070
     0
1002
}
1002
{
1000
MANEDIT
1070
     0
1002
}
1002
{
1000
NOSEL
1070
     0
1002
}
1002
{
1000
BEHIND
1070
     0
1002
}
1002
{
1000
REACTOR
1002
}
1001
GENIUS_GENOBJ-N-FIL_13
1002
{
1000
OWNER
1000
GEN
1002
}
  0
LINE
  5
619
  8
0
 10
140.92534769400621
 20
227.94502825301029
 30
0.0
 11
140.9253476940026
 21
229.25264009756421
 31
0.0
  0
ARC
  5
61A
  8
0
 10
144.4253476940244
 20
229.7526400975824
 30
0.0
 40
0.5
 50
180.0
 51
270.0
1001
GENIUS_GENODEF_13
1002
{
1000
HIER
1070
     0
1002
}
1002
{
1000
MANEDIT
1070
     0
1002
}
1002
{
1000
NOSEL
1070
     0
1002
}
1002
{
1000
BEHIND
1070
     0
1002
}
1002
{
1000
REACTOR
1002
}
1001
GENIUS_GENOBJ-N-FIL_13
1002
{
1000
OWNER
1000
GEN
1002
}
  0
ARC
  5
61B
  8
0
 10
143.4253476940244
 20
231.25264009757129
 30
0.0
 40
0.5
 50
0.0
 51
89.999999999374666
1001
GENIUS_GENODEF_13
1002
{
1000
HIER
1070
     0
1002
}
1002
{
1000
MANEDIT
1070
     0
1002
}
1002
{
1000
NOSEL
1070
     0
1002
}
1002
{
1000
BEHIND
1070
     0
1002
}
1002
{
1000
REACTOR
1002
}
1001
GENIUS_GENOBJ-N-FIL_13
1002
{
1000
OWNER
1000
GEN
1002
}
  0
LINE
  5
61C
  8
0
 10
143.9253476940244
 20
231.25264009757129
 30
0.0
 11
143.9253476940244
 21
229.7526400975824
 31
0.0
  0
ARC
  5
61D
  8
0
 10
143.4253476940026
 20
229.25264009757129
 30
0.0
 40
2.5
 50
89.999999999374666
 51
180.00000000016149
  0
LINE
  5
61E
  8
0
 10
145.9253476940244
 20
229.25264009758251
 30
0.0
 11
144.4253476940244
 21
229.25264009758251
 31
0.0
  0
ARC
  5
61F
  8
0
 10
147.4253476940244
 20
231.25264009758749
 30
0.0
 40
0.5
 50
89.999999999850189
 51
180.0
1001
GENIUS_GENODEF_13
1002
{
1000
HIER
1070
     0
1002
}
1002
{
1000
MANEDIT
1070
     0
1002
}
1002
{
1000
NOSEL
1070
     0
1002
}
1002
{
1000
BEHIND
1070
     0
1002
}
1002
{
1000
REACTOR
1002
}
1001
GENIUS_GENOBJ-N-FIL_13
1002
{
1000
OWNER
1000
GEN
1002
}
  0
LINE
  5
620
  8
0
 10
146.9253476940244
 20
231.25264009758749
 30
0.0
 11
146.9253476940244
 21
230.25264009758251
 31
0.0
  0
ARC
  5
621
  8
0
 10
145.92534769400621
 20
227.94502825302439
 30
0.0
 40
5.0
 50
180.00000000016141
 51
225.00000000000591
1001
GENIUS_GENODEF_13
1002
{
1000
HIER
1070
     0
1002
}
1002
{
1000
MANEDIT
1070
     0
1002
}
1002
{
1000
NOSEL
1070
     0
1002
}
1002
{
1000
BEHIND
1070
     0
1002
}
1002
{
1000
REACTOR
1002
}
1001
GENIUS_GENOBJ-N-FIL_13
1002
{
1000
OWNER
1000
GEN
1002
}
  0
ARC
  5
622
  8
0
 10
147.367735849442
 20
226.5026400975888
 30
0.0
 40
5.0
 50
225.00000000000591
 51
270.0
1001
GENIUS_GENODEF_13
1002
{
1000
HIER
1070
     0
1002
}
1002
{
1000
MANEDIT
1070
     0
1002
}
1002
{
1000
NOSEL
1070
     0
1002
}
1002
{
1000
BEHIND
1070
     0
1002
}
1002
{
1000
REACTOR
1002
}
1001
GENIUS_GENOBJ-N-FIL_13
1002
{
1000
OWNER
1000
GEN
1002
}
  0
ARC
  5
623
  8
0
 10
138.17534769402479
 20
217.31025194216559
 30
0.0
 40
5.0
 50
359.99999999998857
 51
45.000000000010552
1001
GENIUS_GENODEF_13
1002
{
1000
HIER
1070
     0
1002
}
1002
{
1000
MANEDIT
1070
     0
1002
}
1002
{
1000
NOSEL
1070
     0
1002
}
1002
{
1000
BEHIND
1070
     0
1002
}
1002
{
1000
REACTOR
1002
}
1001
GENIUS_GENOBJ-N-FIL_13
1002
{
1000
OWNER
1000
GEN
1002
}
  0
ARC
  5
624
  8
0
 10
165.1177358494572
 20
218.7526400975897
 30
0.0
 40
5.0
 50
90.0
 51
135.00000000000389
1001
GENIUS_GENODEF_13
1002
{
1000
HIER
1070
     0
1002
}
1002
{
1000
MANEDIT
1070
     0
1002
}
1002
{
1000
NOSEL
1070
     0
1002
}
1002
{
1000
BEHIND
1070
     0
1002
}
1002
{
1000
REACTOR
1002
}
1001
GENIUS_GENOBJ-N-FIL_13
1002
{
1000
OWNER
1000
GEN
1002
}
  0
LINE
  5
625
  8
0
 10
158.0184934445227
 20
222.96710619165569
 30
0.0
 11
159.46088159995679
 21
224.40949434708961
 31
0.0
  0
LINE
  5
626
  8
0
 10
155.92534769403079
 20
229.2526400975845
 30
0.0
 11
157.42534769402121
 21
229.25264009758769
 31
0.0
  0
ARC
  5
627
  8
0
 10
155.92534769402869
 20
230.2526400975845
 30
0.0
 40
1.0
 50
180.00000000016669
 51
270.00000000012159
1001
GENIUS_GENODEF_13
1002
{
1000
HIER
1070
     0
1002
}
1002
{
1000
MANEDIT
1070
     0
1002
}
1002
{
1000
NOSEL
1070
     0
1002
}
1002
{
1000
BEHIND
1070
     0
1002
}
1002
{
1000
REACTOR
1002
}
1001
GENIUS_GENOBJ-N-FIL_13
1002
{
1000
OWNER
1000
GEN
1002
}
  0
ARC
  5
628
  8
0
 10
154.42534769402599
 20
231.2526400975693
 30
0.0
 40
0.5
 50
0.0000000001673062
 51
89.999999999850601
1001
GENIUS_GENODEF_13
1002
{
1000
HIER
1070
     0
1002
}
1002
{
1000
MANEDIT
1070
     0
1002
}
1002
{
1000
NOSEL
1070
     0
1002
}
1002
{
1000
BEHIND
1070
     0
1002
}
1002
{
1000
REACTOR
1002
}
1001
GENIUS_GENOBJ-N-FIL_13
1002
{
1000
OWNER
1000
GEN
1002
}
  0
LINE
  5
629
  8
0
 10
154.92534769402599
 20
231.25264009757061
 30
0.0
 11
154.92534769402869
 21
230.25264009758149
 31
0.0
  0
LINE
  5
62A
  8
0
 10
160.9253476940244
 20
227.9450282530226
 30
0.0
 11
160.9253476940244
 21
229.25264009758541
 31
0.0
  0
LINE
  5
62B
  8
0
 10
162.72534769402819
 20
226.0526400975869
 30
0.0
 11
162.7253476940306
 21
231.4526400975891
 31
0.0
  0
ARC
  5
62C
  8
0
 10
158.4253476940244
 20
229.25264009758541
 30
0.0
 40
2.5
 50
0.0
 51
90.000000000500236
1001
GENIUS_GENODEF_13
1002
{
1000
HIER
1070
     0
1002
}
1002
{
1000
MANEDIT
1070
     0
1002
}
1002
{
1000
NOSEL
1070
     0
1002
}
1002
{
1000
BEHIND
1070
     0
1002
}
1002
{
1000
REACTOR
1002
}
1001
GENIUS_GENOBJ-N-FIL_13
1002
{
1000
OWNER
1000
GEN
1002
}
  0
ARC
  5
62D
  8
0
 10
157.4253476940201
 20
229.75264009758769
 30
0.0
 40
0.5
 50
270.00000000012369
 51
0.0000000005003198
1001
GENIUS_GENODEF_13
1002
{
1000
HIER
1070
     0
1002
}
1002
{
1000
MANEDIT
1070
     0
1002
}
1002
{
1000
NOSEL
1070
     0
1002
}
1002
{
1000
BEHIND
1070
     0
1002
}
1002
{
1000
REACTOR
1002
}
1001
GENIUS_GENOBJ-N-FIL_13
1002
{
1000
OWNER
1000
GEN
1002
}
  0
ARC
  5
62E
  8
0
 10
158.42534769400689
 20
231.25264009758541
 30
0.0
 40
0.5
 50
90.000000000501601
 51
180.00000000049499
1001
GENIUS_GENODEF_13
1002
{
1000
HIER
1070
     0
1002
}
1002
{
1000
MANEDIT
1070
     0
1002
}
1002
{
1000
NOSEL
1070
     0
1002
}
1002
{
1000
BEHIND
1070
     0
1002
}
1002
{
1000
REACTOR
1002
}
1001
GENIUS_GENOBJ-N-FIL_13
1002
{
1000
OWNER
1000
GEN
1002
}
  0
LINE
  5
62F
  8
0
 10
157.92534769400689
 20
231.25264009758109
 30
0.0
 11
157.9253476940201
 21
229.75264009759201
 31
0.0
  0
ARC
  5
630
  8
0
 10
163.2253476940306
 20
231.4526400975889
 30
0.0
 40
0.5
 50
90.000000000000398
 51
179.99999999997459
1001
GENIUS_GENODEF_13
1002
{
1000
HIER
1070
     0
1002
}
1002
{
1000
MANEDIT
1070
     0
1002
}
1002
{
1000
NOSEL
1070
     0
1002
}
1002
{
1000
BEHIND
1070
     0
1002
}
1002
{
1000
REACTOR
1002
}
1001
GENIUS_GENOBJ-N-FIL_13
1002
{
1000
OWNER
1000
GEN
1002
}
  0
ARC
  5
631
  8
0
 10
155.9253476940244
 20
227.9450282530226
 30
0.0
 40
5.0
 50
314.99999999999608
 51
0.0
1001
GENIUS_GENODEF_13
1002
{
1000
HIER
1070
     0
1002
}
1002
{
1000
MANEDIT
1070
     0
1002
}
1002
{
1000
NOSEL
1070
     0
1002
}
1002
{
1000
BEHIND
1070
     0
1002
}
1002
{
1000
REACTOR
1002
}
1001
GENIUS_GENOBJ-N-FIL_13
1002
{
1000
OWNER
1000
GEN
1002
}
  0
ARC
  5
632
  8
0
 10
163.22534769402819
 20
226.0526400975867
 30
0.0
 40
0.5
 50
179.99999999997459
 51
270.00000000000711
1001
GENIUS_GENODEF_13
1002
{
1000
HIER
1070
     0
1002
}
1002
{
1000
MANEDIT
1070
     0
1002
}
1002
{
1000
NOSEL
1070
     0
1002
}
1002
{
1000
BEHIND
1070
     0
1002
}
1002
{
1000
REACTOR
1002
}
1001
GENIUS_GENOBJ-N-FIL_13
1002
{
1000
OWNER
1000
GEN
1002
}
  0
ARC
  5
633
  8
0
 10
154.48295953859051
 20
226.5026400975888
 30
0.0
 40
5.0
 50
270.0
 51
314.99999999999397
1001
GENIUS_GENODEF_13
1002
{
1000
HIER
1070
     0
1002
}
1002
{
1000
MANEDIT
1070
     0
1002
}
1002
{
1000
NOSEL
1070
     0
1002
}
1002
{
1000
BEHIND
1070
     0
1002
}
1002
{
1000
REACTOR
1002
}
1001
GENIUS_GENOBJ-N-FIL_13
1002
{
1000
OWNER
1000
GEN
1002
}
  0
LINE
  5
634
  8
0
 10
160.13981378809041
 20
220.84578584808801
 30
0.0
 11
161.5822019435243
 21
222.28817400352219
 31
0.0
  0
ARC
  5
635
  8
0
 10
163.67534769402349
 20
217.3102519421557
 30
0.0
 40
5.0
 50
135.00000000000591
 51
180.0
1001
GENIUS_GENODEF_13
1002
{
1000
HIER
1070
     0
1002
}
1002
{
1000
MANEDIT
1070
     0
1002
}
1002
{
1000
NOSEL
1070
     0
1002
}
1002
{
1000
BEHIND
1070
     0
1002
}
1002
{
1000
REACTOR
1002
}
1001
GENIUS_GENOBJ-N-FIL_13
1002
{
1000
OWNER
1000
GEN
1002
}
  0
LINE
  5
636
  8
0
 10
146.95961894149201
 20
206.0026400975888
 30
0.0
 11
154.4829595385952
 21
206.0026400975888
 31
0.0
  0
LINE
  5
637
  8
0
 10
146.95961894149289
 20
206.0026400975888
 30
0.0
 11
143.17534769402349
 21
209.7869113450582
 31
0.0
  0
ARC
  5
638
  8
0
 10
154.48295953859389
 20
201.00264009759249
 30
0.0
 40
5.0
 50
44.999999999984809
 51
90.000000000022794
1001
GENIUS_GENODEF_13
1002
{
1000
HIER
1070
     0
1002
}
1002
{
1000
MANEDIT
1070
     0
1002
}
1002
{
1000
NOSEL
1070
     0
1002
}
1002
{
1000
BEHIND
1070
     0
1002
}
1002
{
1000
REACTOR
1002
}
1001
GENIUS_GENOBJ-N-FIL_13
1002
{
1000
OWNER
1000
GEN
1002
}
  0
ARC
  5
639
  8
0
 10
165.117735849459
 20
208.7526400975716
 30
0.0
 40
5.0
 50
224.999999999994
 51
269.99999999983862
1001
GENIUS_GENODEF_13
1002
{
1000
HIER
1070
     0
1002
}
1002
{
1000
MANEDIT
1070
     0
1002
}
1002
{
1000
NOSEL
1070
     0
1002
}
1002
{
1000
BEHIND
1070
     0
1002
}
1002
{
1000
REACTOR
1002
}
1001
GENIUS_GENOBJ-N-FIL_13
1002
{
1000
OWNER
1000
GEN
1002
}
  0
LINE
  5
63A
  8
0
 10
160.13981378809041
 20
206.65949434707511
 30
0.0
 11
161.58220194352609
 21
205.2171061916392
 31
0.0
  0
ARC
  5
63B
  8
0
 10
163.67534769402349
 20
210.19502825300739
 30
0.0
 40
5.0
 50
180.0
 51
224.999999999994
1001
GENIUS_GENODEF_13
1002
{
1000
HIER
1070
     0
1002
}
1002
{
1000
MANEDIT
1070
     0
1002
}
1002
{
1000
NOSEL
1070
     0
1002
}
1002
{
1000
BEHIND
1070
     0
1002
}
1002
{
1000
REACTOR
1002
}
1001
GENIUS_GENOBJ-N-FIL_13
1002
{
1000
OWNER
1000
GEN
1002
}
  0
ARC
  5
63C
  8
0
 10
163.87509516233649
 20
205.7526400975751
 30
0.0
 40
5.0
 50
224.99999999999909
 51
269.99999999983862
1001
GENIUS_GENODEF_13
1002
{
1000
HIER
1070
     0
1002
}
1002
{
1000
MANEDIT
1070
     0
1002
}
1002
{
1000
NOSEL
1070
     0
1002
}
1002
{
1000
BEHIND
1070
     0
1002
}
1002
{
1000
REACTOR
1002
}
1001
GENIUS_GENOBJ-N-FIL_13
1002
{
1000
OWNER
1000
GEN
1002
}
  0
LINE
  5
63D
  8
0
 10
158.01849344452469
 20
204.53817400352139
 30
0.0
 11
160.33956125640361
 21
202.21710619164239
 31
0.0
  0
LINE
  5
63E
  8
0
 10
163.8750951623224
 20
200.7526400975751
 30
0.0
 11
164.4253476940396
 21
200.7526400975735
 31
0.0
  0
ARC
  5
63F
  8
0
 10
98.625347694025507
 20
156.05264009759051
 30
0.0
 40
0.5
 50
270.0000000000004
 51
359.99999999997459
1001
GENIUS_GENODEF_13
1002
{
1000
HIER
1070
     0
1002
}
1002
{
1000
MANEDIT
1070
     0
1002
}
1002
{
1000
NOSEL
1070
     0
1002
}
1002
{
1000
BEHIND
1070
     0
1002
}
1002
{
1000
REACTOR
1002
}
1001
GENIUS_GENOBJ-N-FIL_13
1002
{
1000
OWNER
1000
GEN
1002
}
  0
ARC
  5
640
  8
0
 10
98.62534769402788
 20
161.45264009759279
 30
0.0
 40
0.5
 50
359.99999999997459
 51
90.000000000007105
1001
GENIUS_GENODEF_13
1002
{
1000
HIER
1070
     0
1002
}
1002
{
1000
MANEDIT
1070
     0
1002
}
1002
{
1000
NOSEL
1070
     0
1002
}
1002
{
1000
BEHIND
1070
     0
1002
}
1002
{
1000
REACTOR
1002
}
1001
GENIUS_GENOBJ-N-FIL_13
1002
{
1000
OWNER
1000
GEN
1002
}
  0
ARC
  5
641
  8
0
 10
96.732959538598905
 20
168.7526400975897
 30
0.0
 40
5.0
 50
270.0
 51
315.00000000000392
1001
GENIUS_GENODEF_13
1002
{
1000
HIER
1070
     0
1002
}
1002
{
1000
MANEDIT
1070
     0
1002
}
1002
{
1000
NOSEL
1070
     0
1002
}
1002
{
1000
BEHIND
1070
     0
1002
}
1002
{
1000
REACTOR
1002
}
1001
GENIUS_GENOBJ-N-FIL_13
1002
{
1000
OWNER
1000
GEN
1002
}
  0
LINE
  5
642
  8
0
 10
105.4441998769403
 20
153.7394739479374
 30
0.0
 11
94.975620181795477
 21
153.75295602544281
 31
0.0
  0
ARC
  5
643
  8
0
 10
96.732959538597072
 20
178.75264009760781
 30
0.0
 40
5.0
 50
44.999999999994081
 51
89.999999999838607
1001
GENIUS_GENODEF_13
1002
{
1000
HIER
1070
     0
1002
}
1002
{
1000
MANEDIT
1070
     0
1002
}
1002
{
1000
NOSEL
1070
     0
1002
}
1002
{
1000
BEHIND
1070
     0
1002
}
1002
{
1000
REACTOR
1002
}
1001
GENIUS_GENOBJ-N-FIL_13
1002
{
1000
OWNER
1000
GEN
1002
}
  0
LINE
  5
644
  8
0
 10
90.925663621882777
 20
168.2714922805061
 30
0.0
 11
90.925663621882734
 21
157.8029125853692
 31
0.0
  0
ARC
  5
645
  8
0
 10
93.425347694050103
 20
181.2526400975897
 30
0.0
 40
0.5
 50
180.00000000062531
 51
270.0
1001
GENIUS_GENODEF_13
1002
{
1000
HIER
1070
     0
1002
}
1002
{
1000
MANEDIT
1070
     0
1002
}
1002
{
1000
NOSEL
1070
     0
1002
}
1002
{
1000
BEHIND
1070
     0
1002
}
1002
{
1000
REACTOR
1002
}
1001
GENIUS_GENOBJ-N-FIL_13
1002
{
1000
OWNER
1000
GEN
1002
}
  0
ARC
  5
646
  8
0
 10
95.425347694050117
 20
181.25264009761159
 30
0.0
 40
2.5
 50
89.999999999838451
 51
180.00000000062531
  0
LINE
  5
647
  8
0
 10
96.732959538611169
 20
183.75264009760789
 30
0.0
 11
95.425347694057166
 21
183.7526400976115
 31
0.0
  0
LINE
  5
648
  8
0
 10
97.975600225733672
 20
186.7526400976044
 30
0.0
 11
97.425347694016466
 21
186.75264009760591
 31
0.0
  0
ARC
  5
649
  8
0
 10
94.425347694038976
 20
178.7526400975897
 30
0.0
 40
1.0
 50
270.0
 51
0.0
1001
GENIUS_GENODEF_13
1002
{
1000
HIER
1070
     0
1002
}
1002
{
1000
MANEDIT
1070
     0
1002
}
1002
{
1000
NOSEL
1070
     0
1002
}
1002
{
1000
BEHIND
1070
     0
1002
}
1002
{
1000
REACTOR
1002
}
1001
GENIUS_GENOBJ-N-FIL_13
1002
{
1000
OWNER
1000
GEN
1002
}
  0
LINE
  5
64A
  8
0
 10
93.425347694050103
 20
180.7526400975897
 30
0.0
 11
94.925347694038976
 21
180.7526400975897
 31
0.0
  0
LINE
  5
64B
  8
0
 10
92.570650724334044
 20
177.7526400975897
 30
0.0
 11
94.425347694038976
 21
177.7526400975897
 31
0.0
  0
ARC
  5
64C
  8
0
 10
92.550476592550737
 20
179.3839051273192
 30
0.0
 40
1.631389773417677
 50
185.14650241330099
 51
270.70855051803738
1001
GENIUS_GENODEF_13
1002
{
1000
HIER
1070
     0
1002
}
1002
{
1000
MANEDIT
1070
     0
1002
}
1002
{
1000
NOSEL
1070
     0
1002
}
1002
{
1000
BEHIND
1070
     0
1002
}
1002
{
1000
REACTOR
1002
}
1001
GENIUS_GENOBJ-N-FIL_13
1002
{
1000
OWNER
1000
GEN
1002
}
  0
ARC
  5
64D
  8
0
 10
94.925347694038976
 20
180.2526400975897
 30
0.0
 40
0.5
 50
0.0
 51
90.0
1001
GENIUS_GENODEF_13
1002
{
1000
HIER
1070
     0
1002
}
1002
{
1000
MANEDIT
1070
     0
1002
}
1002
{
1000
NOSEL
1070
     0
1002
}
1002
{
1000
BEHIND
1070
     0
1002
}
1002
{
1000
REACTOR
1002
}
1001
GENIUS_GENOBJ-N-FIL_13
1002
{
1000
OWNER
1000
GEN
1002
}
  0
LINE
  5
64E
  8
0
 10
95.425347694038976
 20
178.7526400975897
 30
0.0
 11
95.425347694038976
 21
180.2526400975897
 31
0.0
  0
ARC
  5
64F
  8
0
 10
94.425347694036915
 20
168.7526400975853
 30
0.0
 40
1.0
 50
359.99999999987841
 51
89.99999999983325
1001
GENIUS_GENODEF_13
1002
{
1000
HIER
1070
     0
1002
}
1002
{
1000
MANEDIT
1070
     0
1002
}
1002
{
1000
NOSEL
1070
     0
1002
}
1002
{
1000
BEHIND
1070
     0
1002
}
1002
{
1000
REACTOR
1002
}
1001
GENIUS_GENOBJ-N-FIL_13
1002
{
1000
OWNER
1000
GEN
1002
}
  0
ARC
  5
650
  8
0
 10
92.538819141354224
 20
168.13371510161289
 30
0.0
 40
1.6190284991393209
 50
89.352127560879055
 51
175.1183009517556
1001
GENIUS_GENODEF_13
1002
{
1000
HIER
1070
     0
1002
}
1002
{
1000
MANEDIT
1070
     0
1002
}
1002
{
1000
NOSEL
1070
     0
1002
}
1002
{
1000
BEHIND
1070
     0
1002
}
1002
{
1000
REACTOR
1002
}
1001
GENIUS_GENOBJ-N-FIL_13
1002
{
1000
OWNER
1000
GEN
1002
}
  0
LINE
  5
651
  8
0
 10
92.557125927635582
 20
169.75264009759059
 30
0.0
 11
94.425347694039885
 21
169.7526400975853
 31
0.0
  0
LINE
  5
652
  8
0
 10
93.42534769404034
 20
166.75264009760721
 30
0.0
 11
94.925347694029426
 21
166.75264009759411
 31
0.0
  0
ARC
  5
653
  8
0
 10
95.42534769403602
 20
166.2526400975897
 30
0.0
 40
2.5
 50
179.99999999949969
 51
270.0
1001
GENIUS_GENODEF_13
1002
{
1000
HIER
1070
     0
1002
}
1002
{
1000
MANEDIT
1070
     0
1002
}
1002
{
1000
NOSEL
1070
     0
1002
}
1002
{
1000
BEHIND
1070
     0
1002
}
1002
{
1000
REACTOR
1002
}
1001
GENIUS_GENOBJ-N-FIL_13
1002
{
1000
OWNER
1000
GEN
1002
}
  0
ARC
  5
654
  8
0
 10
93.42534769403602
 20
166.25264009760721
 30
0.0
 40
0.5
 50
89.999999999504936
 51
179.99999999949841
1001
GENIUS_GENODEF_13
1002
{
1000
HIER
1070
     0
1002
}
1002
{
1000
MANEDIT
1070
     0
1002
}
1002
{
1000
NOSEL
1070
     0
1002
}
1002
{
1000
BEHIND
1070
     0
1002
}
1002
{
1000
REACTOR
1002
}
1001
GENIUS_GENOBJ-N-FIL_13
1002
{
1000
OWNER
1000
GEN
1002
}
  0
ARC
  5
655
  8
0
 10
94.925347694033746
 20
167.25264009759411
 30
0.0
 40
0.5
 50
269.99999999949978
 51
359.9999999998762
1001
GENIUS_GENODEF_13
1002
{
1000
HIER
1070
     0
1002
}
1002
{
1000
MANEDIT
1070
     0
1002
}
1002
{
1000
NOSEL
1070
     0
1002
}
1002
{
1000
BEHIND
1070
     0
1002
}
1002
{
1000
REACTOR
1002
}
1001
GENIUS_GENOBJ-N-FIL_13
1002
{
1000
OWNER
1000
GEN
1002
}
  0
LINE
  5
656
  8
0
 10
96.732959538598905
 20
163.7526400975897
 30
0.0
 11
95.42534769403602
 21
163.7526400975897
 31
0.0
  0
LINE
  5
657
  8
0
 10
95.425347694036915
 20
168.7526400975832
 30
0.0
 11
95.425347694033746
 21
167.252640097593
 31
0.0
  0
ARC
  5
658
  8
0
 10
94.925347694023515
 20
157.7526400975824
 30
0.0
 40
4.0
 50
180.0
 51
270.0
  0
ARC
  5
659
  8
0
 10
94.925347694027934
 20
157.7526400975905
 30
0.0
 40
2.2000000000000002
 50
180.0
 51
270.00000000000023
1001
GENIUS_GENODEF_13
1002
{
1000
HIER
1070
     0
1002
}
1002
{
1000
MANEDIT
1070
     0
1002
}
1002
{
1000
NOSEL
1070
     0
1002
}
1002
{
1000
BEHIND
1070
     0
1002
}
1002
{
1000
REACTOR
1002
}
1001
GENIUS_GENOBJ-N-FIL_13
1002
{
1000
OWNER
1000
GEN
1002
}
  0
LINE
  5
65A
  8
0
 10
93.225347694027917
 20
161.95264009759211
 30
0.0
 11
98.625347694027781
 21
161.95264009759279
 31
0.0
  0
ARC
  5
65B
  8
0
 10
93.225347694027917
 20
161.45264009759211
 30
0.0
 40
0.5
 50
90.000000000006963
 51
180.0
1001
GENIUS_GENODEF_13
1002
{
1000
HIER
1070
     0
1002
}
1002
{
1000
MANEDIT
1070
     0
1002
}
1002
{
1000
NOSEL
1070
     0
1002
}
1002
{
1000
BEHIND
1070
     0
1002
}
1002
{
1000
REACTOR
1002
}
1001
GENIUS_GENOBJ-N-FIL_13
1002
{
1000
OWNER
1000
GEN
1002
}
  0
LINE
  5
65C
  8
0
 10
92.725347694027903
 20
157.7526400975905
 30
0.0
 11
92.725347694027903
 21
161.45264009759211
 31
0.0
  0
LINE
  5
65D
  8
0
 10
98.625347694025507
 20
155.55264009759051
 30
0.0
 11
94.925347694027934
 21
155.55264009759051
 31
0.0
  0
LINE
  5
65E
  8
0
 10
145.4404226902368
 20
153.75295602544529
 30
0.0
 11
116.4061036061873
 21
153.75333691123481
 31
0.0
  0
LINE
  5
65F
  8
0
 10
126.42534769404079
 20
157.7526400975897
 30
0.0
 11
135.4253476940153
 21
157.7526400975897
 31
0.0
  0
ARC
  5
660
  8
0
 10
118.9253476940392
 20
160.80289262927789
 30
0.0
 40
5.0
 50
0.0000000001577138
 51
45.000000000006878
1001
GENIUS_GENODEF_13
1002
{
1000
HIER
1070
     0
1002
}
1002
{
1000
MANEDIT
1070
     0
1002
}
1002
{
1000
NOSEL
1070
     0
1002
}
1002
{
1000
BEHIND
1070
     0
1002
}
1002
{
1000
REACTOR
1002
}
1001
GENIUS_GENOBJ-N-FIL_13
1002
{
1000
OWNER
1000
GEN
1002
}
  0
ARC
  5
661
  8
0
 10
115.9253476940426
 20
159.56025194215511
 30
0.0
 40
5.0
 50
0.0000000001613909
 51
45.000000000005919
1001
GENIUS_GENODEF_13
1002
{
1000
HIER
1070
     0
1002
}
1002
{
1000
MANEDIT
1070
     0
1002
}
1002
{
1000
NOSEL
1070
     0
1002
}
1002
{
1000
BEHIND
1070
     0
1002
}
1002
{
1000
REACTOR
1002
}
1001
GENIUS_GENOBJ-N-FIL_13
1002
{
1000
OWNER
1000
GEN
1002
}
  0
ARC
  5
662
  8
0
 10
105.9253476940244
 20
159.5602519421569
 30
0.0
 40
5.0
 50
134.99999999999611
 51
180.0
1001
GENIUS_GENODEF_13
1002
{
1000
HIER
1070
     0
1002
}
1002
{
1000
MANEDIT
1070
     0
1002
}
1002
{
1000
NOSEL
1070
     0
1002
}
1002
{
1000
BEHIND
1070
     0
1002
}
1002
{
1000
REACTOR
1002
}
1001
GENIUS_GENOBJ-N-FIL_13
1002
{
1000
OWNER
1000
GEN
1002
}
  0
ARC
  5
663
  8
0
 10
114.48295953860681
 20
161.00264009759059
 30
0.0
 40
5.0
 50
45.000000000005919
 51
90.0
1001
GENIUS_GENODEF_13
1002
{
1000
HIER
1070
     0
1002
}
1002
{
1000
MANEDIT
1070
     0
1002
}
1002
{
1000
NOSEL
1070
     0
1002
}
1002
{
1000
BEHIND
1070
     0
1002
}
1002
{
1000
REACTOR
1002
}
1001
GENIUS_GENOBJ-N-FIL_13
1002
{
1000
OWNER
1000
GEN
1002
}
  0
LINE
  5
664
  8
0
 10
114.8910764465632
 20
181.50264009759059
 30
0.0
 11
118.6753476940326
 21
177.71836885012121
 31
0.0
  0
CIRCLE
  5
665
  8
0
 10
110.9253476940172
 20
173.7526400975897
 30
0.0
 40
3.399999999999999
  0
LINE
  5
666
  8
0
 10
103.1753476940326
 20
177.31025194217199
 30
0.0
 11
103.1753476940326
 21
170.19502825302379
 31
0.0
  0
ARC
  5
667
  8
0
 10
107.3677358494643
 20
186.50264009759059
 30
0.0
 40
5.0
 50
224.99999999999829
 51
270.0
1001
GENIUS_GENODEF_13
1002
{
1000
HIER
1070
     0
1002
}
1002
{
1000
MANEDIT
1070
     0
1002
}
1002
{
1000
NOSEL
1070
     0
1002
}
1002
{
1000
BEHIND
1070
     0
1002
}
1002
{
1000
REACTOR
1002
}
1001
GENIUS_GENOBJ-N-FIL_13
1002
{
1000
OWNER
1000
GEN
1002
}
  0
LINE
  5
668
  8
0
 10
101.7108815999657
 20
180.8457858481043
 30
0.0
 11
100.26849344452989
 21
182.28817400354029
 31
0.0
  0
LINE
  5
669
  8
0
 10
103.8322019435314
 20
182.96710619165799
 30
0.0
 11
101.5111341316524
 21
185.28817400353711
 31
0.0
  0
ARC
  5
66A
  8
0
 10
98.17534769403261
 20
177.31025194217199
 30
0.0
 40
5.0
 50
0.0
 51
44.999999999994081
1001
GENIUS_GENODEF_13
1002
{
1000
HIER
1070
     0
1002
}
1002
{
1000
MANEDIT
1070
     0
1002
}
1002
{
1000
NOSEL
1070
     0
1002
}
1002
{
1000
BEHIND
1070
     0
1002
}
1002
{
1000
REACTOR
1002
}
1001
GENIUS_GENOBJ-N-FIL_13
1002
{
1000
OWNER
1000
GEN
1002
}
  0
LINE
  5
66B
  8
0
 10
114.8910764465641
 20
181.50264009759059
 30
0.0
 11
107.3677358494643
 21
181.50264009759059
 31
0.0
  0
ARC
  5
66C
  8
0
 10
107.3677358494584
 20
161.00264009759059
 30
0.0
 40
5.0
 50
90.0
 51
134.99999999999409
1001
GENIUS_GENODEF_13
1002
{
1000
HIER
1070
     0
1002
}
1002
{
1000
MANEDIT
1070
     0
1002
}
1002
{
1000
NOSEL
1070
     0
1002
}
1002
{
1000
BEHIND
1070
     0
1002
}
1002
{
1000
REACTOR
1002
}
1001
GENIUS_GENOBJ-N-FIL_13
1002
{
1000
OWNER
1000
GEN
1002
}
  0
ARC
  5
66D
  8
0
 10
98.17534769403261
 20
170.19502825302379
 30
0.0
 40
5.0
 50
315.00000000000603
 51
0.0
1001
GENIUS_GENODEF_13
1002
{
1000
HIER
1070
     0
1002
}
1002
{
1000
MANEDIT
1070
     0
1002
}
1002
{
1000
NOSEL
1070
     0
1002
}
1002
{
1000
BEHIND
1070
     0
1002
}
1002
{
1000
REACTOR
1002
}
1001
GENIUS_GENOBJ-N-FIL_13
1002
{
1000
OWNER
1000
GEN
1002
}
  0
LINE
  5
66E
  8
0
 10
103.8322019435262
 20
164.53817400352369
 30
0.0
 11
102.389813788092
 21
163.0957858480898
 31
0.0
  0
LINE
  5
66F
  8
0
 10
101.7108815999657
 20
166.6594943470914
 30
0.0
 11
100.2684934445317
 21
165.21710619165719
 31
0.0
  0
LINE
  5
670
  8
0
 10
114.48295953860681
 20
166.00264009759059
 30
0.0
 11
107.3677358494584
 21
166.00264009759059
 31
0.0
  0
LINE
  5
671
  8
0
 10
118.6753476940326
 20
177.71836885011581
 30
0.0
 11
118.6753476940322
 21
170.19502825301561
 31
0.0
  0
ARC
  5
672
  8
0
 10
123.6753476940322
 20
170.19502825301529
 30
0.0
 40
5.0
 50
179.9999999999965
 51
225.00000000000861
1001
GENIUS_GENODEF_13
1002
{
1000
HIER
1070
     0
1002
}
1002
{
1000
MANEDIT
1070
     0
1002
}
1002
{
1000
NOSEL
1070
     0
1002
}
1002
{
1000
BEHIND
1070
     0
1002
}
1002
{
1000
REACTOR
1002
}
1001
GENIUS_GENOBJ-N-FIL_13
1002
{
1000
OWNER
1000
GEN
1002
}
  0
LINE
  5
673
  8
0
 10
118.018493444539
 20
164.53817400352369
 30
0.0
 11
119.460881599975
 21
163.09578584808801
 31
0.0
  0
LINE
  5
674
  8
0
 10
120.1398137881
 20
166.65949434708199
 30
0.0
 11
122.4608815999716
 21
164.338426535211
 31
0.0
  0
ARC
  5
675
  8
0
 10
115.9253476940244
 20
157.25264009759701
 30
0.0
 40
1.0
 50
90.0
 51
180.0
1001
GENIUS_GENODEF_13
1002
{
1000
HIER
1070
     0
1002
}
1002
{
1000
MANEDIT
1070
     0
1002
}
1002
{
1000
NOSEL
1070
     0
1002
}
1002
{
1000
BEHIND
1070
     0
1002
}
1002
{
1000
REACTOR
1002
}
1001
GENIUS_GENOBJ-N-FIL_13
1002
{
1000
OWNER
1000
GEN
1002
}
  0
ARC
  5
676
  8
0
 10
116.5566127237599
 20
155.37776899610819
 30
0.0
 40
1.631389773423561
 50
179.2914494819363
 51
264.85349758650528
1001
GENIUS_GENODEF_13
1002
{
1000
HIER
1070
     0
1002
}
1002
{
1000
MANEDIT
1070
     0
1002
}
1002
{
1000
NOSEL
1070
     0
1002
}
1002
{
1000
BEHIND
1070
     0
1002
}
1002
{
1000
REACTOR
1002
}
1001
GENIUS_GENOBJ-N-FIL_13
1002
{
1000
OWNER
1000
GEN
1002
}
  0
ARC
  5
677
  8
0
 10
105.29368220625391
 20
155.36430660891139
 30
0.0
 40
1.6317894304587359
 50
275.29253565842868
 51
0.706185467099667
1001
GENIUS_GENODEF_13
1002
{
1000
HIER
1070
     0
1002
}
1002
{
1000
MANEDIT
1070
     0
1002
}
1002
{
1000
NOSEL
1070
     0
1002
}
1002
{
1000
BEHIND
1070
     0
1002
}
1002
{
1000
REACTOR
1002
}
1001
GENIUS_GENOBJ-N-FIL_13
1002
{
1000
OWNER
1000
GEN
1002
}
  0
ARC
  5
678
  8
0
 10
105.9253476940201
 20
157.25264009759491
 30
0.0
 40
1.0
 50
0.0000000001668266
 51
90.000000000121588
1001
GENIUS_GENODEF_13
1002
{
1000
HIER
1070
     0
1002
}
1002
{
1000
MANEDIT
1070
     0
1002
}
1002
{
1000
NOSEL
1070
     0
1002
}
1002
{
1000
BEHIND
1070
     0
1002
}
1002
{
1000
REACTOR
1002
}
1001
GENIUS_GENOBJ-N-FIL_13
1002
{
1000
OWNER
1000
GEN
1002
}
  0
LINE
  5
679
  8
0
 10
106.92534769402511
 20
155.3844183311935
 30
0.0
 11
106.9253476940201
 21
157.25264009759789
 31
0.0
  0
LINE
  5
67A
  8
0
 10
103.9253476940419
 20
156.2526400975984
 30
0.0
 11
103.9253476940287
 21
157.7526400975874
 31
0.0
  0
ARC
  5
67B
  8
0
 10
103.4253476940244
 20
158.252640097594
 30
0.0
 40
2.5
 50
180.0
 51
270.00000000050022
1001
GENIUS_GENODEF_13
1002
{
1000
HIER
1070
     0
1002
}
1002
{
1000
MANEDIT
1070
     0
1002
}
1002
{
1000
NOSEL
1070
     0
1002
}
1002
{
1000
BEHIND
1070
     0
1002
}
1002
{
1000
REACTOR
1002
}
1001
GENIUS_GENOBJ-N-FIL_13
1002
{
1000
OWNER
1000
GEN
1002
}
  0
LINE
  5
67C
  8
0
 10
99.125347694027894
 20
161.45264009759251
 30
0.0
 11
99.125347694025493
 21
156.05264009759031
 31
0.0
  0
LINE
  5
67D
  8
0
 10
100.9253476940244
 20
159.5602519421569
 30
0.0
 11
100.9253476940244
 21
158.252640097594
 31
0.0
  0
ARC
  5
67E
  8
0
 10
104.4253476940287
 20
157.75264009759181
 30
0.0
 40
0.5
 50
90.000000000123734
 51
180.00000000050019
1001
GENIUS_GENODEF_13
1002
{
1000
HIER
1070
     0
1002
}
1002
{
1000
MANEDIT
1070
     0
1002
}
1002
{
1000
NOSEL
1070
     0
1002
}
1002
{
1000
BEHIND
1070
     0
1002
}
1002
{
1000
REACTOR
1002
}
1001
GENIUS_GENOBJ-N-FIL_13
1002
{
1000
OWNER
1000
GEN
1002
}
  0
LINE
  5
67F
  8
0
 10
105.925347694018
 20
158.25264009759491
 30
0.0
 11
104.42534769402759
 21
158.25264009759181
 31
0.0
  0
ARC
  5
680
  8
0
 10
103.4253476940419
 20
156.252640097594
 30
0.0
 40
0.5
 50
270.00000000050159
 51
0.000000000495044
1001
GENIUS_GENODEF_13
1002
{
1000
HIER
1070
     0
1002
}
1002
{
1000
MANEDIT
1070
     0
1002
}
1002
{
1000
NOSEL
1070
     0
1002
}
1002
{
1000
BEHIND
1070
     0
1002
}
1002
{
1000
REACTOR
1002
}
1001
GENIUS_GENOBJ-N-FIL_13
1002
{
1000
OWNER
1000
GEN
1002
}
  0
LINE
  5
681
  8
0
 10
114.9253476940244
 20
155.39794312789229
 30
0.0
 11
114.9253476940244
 21
157.25264009759701
 31
0.0
  0
ARC
  5
682
  8
0
 10
126.42534769404079
 20
160.2526400975897
 30
0.0
 40
2.5
 50
180.000000000158
 51
270.0
1001
GENIUS_GENODEF_13
1002
{
1000
HIER
1070
     0
1002
}
1002
{
1000
MANEDIT
1070
     0
1002
}
1002
{
1000
NOSEL
1070
     0
1002
}
1002
{
1000
BEHIND
1070
     0
1002
}
1002
{
1000
REACTOR
1002
}
1001
GENIUS_GENOBJ-N-FIL_13
1002
{
1000
OWNER
1000
GEN
1002
}
  0
ARC
  5
684
  8
0
 10
118.42534769404629
 20
158.25264009760809
 30
0.0
 40
2.5
 50
269.99999999937461
 51
0.0000000001616307
  0
LINE
  5
685
  8
0
 10
117.9253476940244
 20
156.25264009760809
 30
0.0
 11
117.9253476940244
 21
157.75264009759701
 31
0.0
  0
ARC
  5
686
  8
0
 10
117.4253476940244
 20
157.75264009759701
 30
0.0
 40
0.5
 50
0.0
 51
90.0
1001
GENIUS_GENODEF_13
1002
{
1000
HIER
1070
     0
1002
}
1002
{
1000
MANEDIT
1070
     0
1002
}
1002
{
1000
NOSEL
1070
     0
1002
}
1002
{
1000
BEHIND
1070
     0
1002
}
1002
{
1000
REACTOR
1002
}
1001
GENIUS_GENOBJ-N-FIL_13
1002
{
1000
OWNER
1000
GEN
1002
}
  0
LINE
  5
687
  8
0
 10
115.9253476940244
 20
158.25264009759701
 30
0.0
 11
117.4253476940244
 21
158.25264009759701
 31
0.0
  0
LINE
  5
688
  8
0
 10
120.9253476940426
 20
159.5602519421692
 30
0.0
 11
120.92534769404629
 21
158.2526400976152
 31
0.0
  0
ARC
  5
689
  8
0
 10
118.4253476940244
 20
156.25264009760809
 30
0.0
 40
0.5
 50
180.0
 51
269.99999999937461
1001
GENIUS_GENODEF_13
1002
{
1000
HIER
1070
     0
1002
}
1002
{
1000
MANEDIT
1070
     0
1002
}
1002
{
1000
NOSEL
1070
     0
1002
}
1002
{
1000
BEHIND
1070
     0
1002
}
1002
{
1000
REACTOR
1002
}
1001
GENIUS_GENOBJ-N-FIL_13
1002
{
1000
OWNER
1000
GEN
1002
}
  0
LINE
  5
68A
  8
0
 10
123.9253476940392
 20
160.80289262929159
 30
0.0
 11
123.92534769404079
 21
160.2526400975828
 31
0.0
  0
ARC
  5
68C
  8
0
 10
155.9253476940244
 20
159.5602519421569
 30
0.0
 40
5.0
 50
0.0
 51
45.000000000003908
1001
GENIUS_GENODEF_13
1002
{
1000
HIER
1070
     0
1002
}
1002
{
1000
MANEDIT
1070
     0
1002
}
1002
{
1000
NOSEL
1070
     0
1002
}
1002
{
1000
BEHIND
1070
     0
1002
}
1002
{
1000
REACTOR
1002
}
1001
GENIUS_GENOBJ-N-FIL_13
1002
{
1000
OWNER
1000
GEN
1002
}
  0
ARC
  5
68D
  8
0
 10
142.92534769401689
 20
160.80289262927789
 30
0.0
 40
5.0
 50
134.99999999999309
 51
179.9999999998422
1001
GENIUS_GENODEF_13
1002
{
1000
HIER
1070
     0
1002
}
1002
{
1000
MANEDIT
1070
     0
1002
}
1002
{
1000
NOSEL
1070
     0
1002
}
1002
{
1000
BEHIND
1070
     0
1002
}
1002
{
1000
REACTOR
1002
}
1001
GENIUS_GENOBJ-N-FIL_13
1002
{
1000
OWNER
1000
GEN
1002
}
  0
ARC
  5
68E
  8
0
 10
145.92534769400621
 20
159.56025194215511
 30
0.0
 40
5.0
 50
134.99999999999409
 51
179.99999999983859
1001
GENIUS_GENODEF_13
1002
{
1000
HIER
1070
     0
1002
}
1002
{
1000
MANEDIT
1070
     0
1002
}
1002
{
1000
NOSEL
1070
     0
1002
}
1002
{
1000
BEHIND
1070
     0
1002
}
1002
{
1000
REACTOR
1002
}
1001
GENIUS_GENOBJ-N-FIL_13
1002
{
1000
OWNER
1000
GEN
1002
}
  0
LINE
  5
68F
  8
0
 10
147.367735849442
 20
166.00264009759059
 30
0.0
 11
154.48295953859051
 21
166.00264009759059
 31
0.0
  0
LINE
  5
690
  8
0
 10
146.95961894149201
 20
181.50264009759059
 30
0.0
 11
154.48295953859181
 21
181.50264009759059
 31
0.0
  0
CIRCLE
  5
691
  8
0
 10
150.92534769401081
 20
173.75264009759701
 30
0.0
 40
3.399999999999999
  0
LINE
  5
692
  8
0
 10
143.17534769402349
 20
177.71836885011581
 30
0.0
 11
143.17534769402391
 21
170.19502825301561
 31
0.0
  0
LINE
  5
693
  8
0
 10
146.95961894149289
 20
181.50264009759059
 30
0.0
 11
143.17534769402349
 21
177.71836885012121
 31
0.0
  0
LINE
  5
694
  8
0
 10
141.71088159995611
 20
166.65949434708199
 30
0.0
 11
139.3898137880845
 21
164.338426535211
 31
0.0
  0
ARC
  5
695
  8
0
 10
138.175347694024
 20
170.19502825301529
 30
0.0
 40
5.0
 50
314.99999999999142
 51
0.0000000000034373
1001
GENIUS_GENODEF_13
1002
{
1000
HIER
1070
     0
1002
}
1002
{
1000
MANEDIT
1070
     0
1002
}
1002
{
1000
NOSEL
1070
     0
1002
}
1002
{
1000
BEHIND
1070
     0
1002
}
1002
{
1000
REACTOR
1002
}
1001
GENIUS_GENOBJ-N-FIL_13
1002
{
1000
OWNER
1000
GEN
1002
}
  0
ARC
  5
696
  8
0
 10
147.367735849442
 20
161.00264009759059
 30
0.0
 40
5.0
 50
90.0
 51
134.99999999999409
1001
GENIUS_GENODEF_13
1002
{
1000
HIER
1070
     0
1002
}
1002
{
1000
MANEDIT
1070
     0
1002
}
1002
{
1000
NOSEL
1070
     0
1002
}
1002
{
1000
BEHIND
1070
     0
1002
}
1002
{
1000
REACTOR
1002
}
1001
GENIUS_GENOBJ-N-FIL_13
1002
{
1000
OWNER
1000
GEN
1002
}
  0
LINE
  5
697
  8
0
 10
143.8322019435098
 20
164.53817400352369
 30
0.0
 11
142.38981378807381
 21
163.09578584808801
 31
0.0
  0
LINE
  5
698
  8
0
 10
158.67534769402349
 20
177.31025194217199
 30
0.0
 11
158.67534769402349
 21
170.19502825302379
 31
0.0
  0
ARC
  5
699
  8
0
 10
154.48295953859181
 20
186.50264009759059
 30
0.0
 40
5.0
 50
270.0
 51
315.00000000000171
1001
GENIUS_GENODEF_13
1002
{
1000
HIER
1070
     0
1002
}
1002
{
1000
MANEDIT
1070
     0
1002
}
1002
{
1000
NOSEL
1070
     0
1002
}
1002
{
1000
BEHIND
1070
     0
1002
}
1002
{
1000
REACTOR
1002
}
1001
GENIUS_GENOBJ-N-FIL_13
1002
{
1000
OWNER
1000
GEN
1002
}
  0
LINE
  5
69A
  8
0
 10
160.13981378809041
 20
180.8457858481043
 30
0.0
 11
161.58220194352609
 21
182.28817400354029
 31
0.0
  0
LINE
  5
69B
  8
0
 10
158.01849344452469
 20
182.96710619165799
 30
0.0
 11
160.33956125640361
 21
185.28817400353711
 31
0.0
  0
ARC
  5
69C
  8
0
 10
165.117735849459
 20
178.75264009760781
 30
0.0
 40
5.0
 50
90.000000000161393
 51
135.00000000000591
1001
GENIUS_GENODEF_13
1002
{
1000
HIER
1070
     0
1002
}
1002
{
1000
MANEDIT
1070
     0
1002
}
1002
{
1000
NOSEL
1070
     0
1002
}
1002
{
1000
BEHIND
1070
     0
1002
}
1002
{
1000
REACTOR
1002
}
1001
GENIUS_GENOBJ-N-FIL_13
1002
{
1000
OWNER
1000
GEN
1002
}
  0
LINE
  5
69D
  8
0
 10
163.8750951623224
 20
186.7526400976044
 30
0.0
 11
164.4253476940396
 21
186.75264009760591
 31
0.0
  0
ARC
  5
69E
  8
0
 10
163.67534769402349
 20
177.31025194217199
 30
0.0
 40
5.0
 50
135.00000000000591
 51
180.0
1001
GENIUS_GENODEF_13
1002
{
1000
HIER
1070
     0
1002
}
1002
{
1000
MANEDIT
1070
     0
1002
}
1002
{
1000
NOSEL
1070
     0
1002
}
1002
{
1000
BEHIND
1070
     0
1002
}
1002
{
1000
REACTOR
1002
}
1001
GENIUS_GENOBJ-N-FIL_13
1002
{
1000
OWNER
1000
GEN
1002
}
  0
ARC
  5
69F
  8
0
 10
154.48295953859051
 20
161.00264009759059
 30
0.0
 40
5.0
 50
45.000000000005919
 51
90.0
1001
GENIUS_GENODEF_13
1002
{
1000
HIER
1070
     0
1002
}
1002
{
1000
MANEDIT
1070
     0
1002
}
1002
{
1000
NOSEL
1070
     0
1002
}
1002
{
1000
BEHIND
1070
     0
1002
}
1002
{
1000
REACTOR
1002
}
1001
GENIUS_GENOBJ-N-FIL_13
1002
{
1000
OWNER
1000
GEN
1002
}
  0
ARC
  5
6A0
  8
0
 10
163.67534769402349
 20
170.19502825302379
 30
0.0
 40
5.0
 50
180.0
 51
224.999999999994
1001
GENIUS_GENODEF_13
1002
{
1000
HIER
1070
     0
1002
}
1002
{
1000
MANEDIT
1070
     0
1002
}
1002
{
1000
NOSEL
1070
     0
1002
}
1002
{
1000
BEHIND
1070
     0
1002
}
1002
{
1000
REACTOR
1002
}
1001
GENIUS_GENOBJ-N-FIL_13
1002
{
1000
OWNER
1000
GEN
1002
}
  0
LINE
  5
6A1
  8
0
 10
160.13981378809041
 20
166.6594943470914
 30
0.0
 11
161.5822019435243
 21
165.21710619165719
 31
0.0
  0
LINE
  5
6A2
  8
0
 10
158.0184934445227
 20
164.53817400352369
 30
0.0
 11
159.46088159995679
 21
163.0957858480898
 31
0.0
  0
ARC
  5
6A3
  8
0
 10
165.1177358494572
 20
168.7526400975897
 30
0.0
 40
5.0
 50
224.99999999999611
 51
270.0
1001
GENIUS_GENODEF_13
1002
{
1000
HIER
1070
     0
1002
}
1002
{
1000
MANEDIT
1070
     0
1002
}
1002
{
1000
NOSEL
1070
     0
1002
}
1002
{
1000
BEHIND
1070
     0
1002
}
1002
{
1000
REACTOR
1002
}
1001
GENIUS_GENOBJ-N-FIL_13
1002
{
1000
OWNER
1000
GEN
1002
}
  0
ARC
  5
6A4
  8
0
 10
135.4253476940153
 20
160.2526400975897
 30
0.0
 40
2.5
 50
270.0
 51
359.99999999984198
1001
GENIUS_GENODEF_13
1002
{
1000
HIER
1070
     0
1002
}
1002
{
1000
MANEDIT
1070
     0
1002
}
1002
{
1000
NOSEL
1070
     0
1002
}
1002
{
1000
BEHIND
1070
     0
1002
}
1002
{
1000
REACTOR
1002
}
1001
GENIUS_GENOBJ-N-FIL_13
1002
{
1000
OWNER
1000
GEN
1002
}
  0
LINE
  5
6A5
  8
0
 10
137.92534769401689
 20
160.80289262929159
 30
0.0
 11
137.9253476940153
 21
160.2526400975828
 31
0.0
  0
LINE
  5
6A6
  8
0
 10
146.9253476940244
 20
155.397943127893
 30
0.0
 11
146.9253476940244
 21
157.25264009759701
 31
0.0
  0
LINE
  5
6A7
  8
0
 10
143.9253476940244
 20
156.25264009760809
 30
0.0
 11
143.9253476940244
 21
157.75264009759701
 31
0.0
  0
ARC
  5
6A8
  8
0
 10
143.4253476940026
 20
158.25264009760809
 30
0.0
 40
2.5
 50
179.99999999983839
 51
270.00000000062528
  0
ARC
  5
6A9
  8
0
 10
144.4253476940244
 20
157.75264009759701
 30
0.0
 40
0.5
 50
90.0
 51
180.0
1001
GENIUS_GENODEF_13
1002
{
1000
HIER
1070
     0
1002
}
1002
{
1000
MANEDIT
1070
     0
1002
}
1002
{
1000
NOSEL
1070
     0
1002
}
1002
{
1000
BEHIND
1070
     0
1002
}
1002
{
1000
REACTOR
1002
}
1001
GENIUS_GENOBJ-N-FIL_13
1002
{
1000
OWNER
1000
GEN
1002
}
  0
LINE
  5
6AA
  8
0
 10
140.92534769400621
 20
159.5602519421692
 30
0.0
 11
140.9253476940026
 21
158.2526400976152
 31
0.0
  0
ARC
  5
6AB
  8
0
 10
145.9253476940244
 20
157.25264009759701
 30
0.0
 40
1.0
 50
0.0
 51
90.0
1001
GENIUS_GENODEF_13
1002
{
1000
HIER
1070
     0
1002
}
1002
{
1000
MANEDIT
1070
     0
1002
}
1002
{
1000
NOSEL
1070
     0
1002
}
1002
{
1000
BEHIND
1070
     0
1002
}
1002
{
1000
REACTOR
1002
}
1001
GENIUS_GENOBJ-N-FIL_13
1002
{
1000
OWNER
1000
GEN
1002
}
  0
LINE
  5
6AC
  8
0
 10
145.9253476940244
 20
158.25264009759701
 30
0.0
 11
144.4253476940244
 21
158.25264009759701
 31
0.0
  0
ARC
  5
6AD
  8
0
 10
143.4253476940244
 20
156.25264009760809
 30
0.0
 40
0.5
 50
270.00000000062528
 51
0.0
1001
GENIUS_GENODEF_13
1002
{
1000
HIER
1070
     0
1002
}
1002
{
1000
MANEDIT
1070
     0
1002
}
1002
{
1000
NOSEL
1070
     0
1002
}
1002
{
1000
BEHIND
1070
     0
1002
}
1002
{
1000
REACTOR
1002
}
1001
GENIUS_GENOBJ-N-FIL_13
1002
{
1000
OWNER
1000
GEN
1002
}
  0
ARC
  5
6AE
  8
0
 10
145.29408266428899
 20
155.3777689961089
 30
0.0
 40
1.631389773423559
 50
275.14650241349722
 51
0.7085505180638574
1001
GENIUS_GENODEF_13
1002
{
1000
HIER
1070
     0
1002
}
1002
{
1000
MANEDIT
1070
     0
1002
}
1002
{
1000
NOSEL
1070
     0
1002
}
1002
{
1000
BEHIND
1070
     0
1002
}
1002
{
1000
REACTOR
1002
}
1001
GENIUS_GENOBJ-N-FIL_13
1002
{
1000
OWNER
1000
GEN
1002
}
  0
LINE
  5
6AF
  8
0
 10
155.92534769403079
 20
158.25264009759491
 30
0.0
 11
157.42534769402121
 21
158.25264009759181
 31
0.0
  0
LINE
  5
6B0
  8
0
 10
154.92534769402349
 20
155.38441833119629
 30
0.0
 11
154.92534769402869
 21
157.25264009759789
 31
0.0
  0
ARC
  5
6B1
  8
0
 10
155.92534769402869
 20
157.25264009759491
 30
0.0
 40
1.0
 50
89.999999999878398
 51
179.99999999983319
1001
GENIUS_GENODEF_13
1002
{
1000
HIER
1070
     0
1002
}
1002
{
1000
MANEDIT
1070
     0
1002
}
1002
{
1000
NOSEL
1070
     0
1002
}
1002
{
1000
BEHIND
1070
     0
1002
}
1002
{
1000
REACTOR
1002
}
1001
GENIUS_GENOBJ-N-FIL_13
1002
{
1000
OWNER
1000
GEN
1002
}
  0
ARC
  5
6B2
  8
0
 10
156.54427268999959
 20
155.36611154491541
 30
0.0
 40
1.6190284991376851
 50
179.3521275608895
 51
265.11830095181682
1001
GENIUS_GENODEF_13
1002
{
1000
HIER
1070
     0
1002
}
1002
{
1000
MANEDIT
1070
     0
1002
}
1002
{
1000
NOSEL
1070
     0
1002
}
1002
{
1000
BEHIND
1070
     0
1002
}
1002
{
1000
REACTOR
1002
}
1001
GENIUS_GENOBJ-N-FIL_13
1002
{
1000
OWNER
1000
GEN
1002
}
  0
LINE
  5
6B3
  8
0
 10
157.92534769400689
 20
156.2526400975984
 30
0.0
 11
157.9253476940201
 21
157.7526400975874
 31
0.0
  0
ARC
  5
6B4
  8
0
 10
158.4253476940244
 20
158.252640097594
 30
0.0
 40
2.5
 50
269.99999999949978
 51
0.0
1001
GENIUS_GENODEF_13
1002
{
1000
HIER
1070
     0
1002
}
1002
{
1000
MANEDIT
1070
     0
1002
}
1002
{
1000
NOSEL
1070
     0
1002
}
1002
{
1000
BEHIND
1070
     0
1002
}
1002
{
1000
REACTOR
1002
}
1001
GENIUS_GENOBJ-N-FIL_13
1002
{
1000
OWNER
1000
GEN
1002
}
  0
LINE
  5
6B5
  8
0
 10
162.72534769402819
 20
161.45264009759251
 30
0.0
 11
162.7253476940306
 21
156.05264009759031
 31
0.0
  0
LINE
  5
6B6
  8
0
 10
160.9253476940244
 20
159.5602519421569
 30
0.0
 11
160.9253476940244
 21
158.252640097594
 31
0.0
  0
ARC
  5
6B7
  8
0
 10
157.4253476940201
 20
157.75264009759181
 30
0.0
 40
0.5
 50
359.99999999949978
 51
89.999999999876266
1001
GENIUS_GENODEF_13
1002
{
1000
HIER
1070
     0
1002
}
1002
{
1000
MANEDIT
1070
     0
1002
}
1002
{
1000
NOSEL
1070
     0
1002
}
1002
{
1000
BEHIND
1070
     0
1002
}
1002
{
1000
REACTOR
1002
}
1001
GENIUS_GENOBJ-N-FIL_13
1002
{
1000
OWNER
1000
GEN
1002
}
  0
ARC
  5
6B8
  8
0
 10
163.22534769402819
 20
161.45264009759279
 30
0.0
 40
0.5
 50
89.999999999992895
 51
180.00000000002541
1001
GENIUS_GENODEF_13
1002
{
1000
HIER
1070
     0
1002
}
1002
{
1000
MANEDIT
1070
     0
1002
}
1002
{
1000
NOSEL
1070
     0
1002
}
1002
{
1000
BEHIND
1070
     0
1002
}
1002
{
1000
REACTOR
1002
}
1001
GENIUS_GENOBJ-N-FIL_13
1002
{
1000
OWNER
1000
GEN
1002
}
  0
ARC
  5
6B9
  8
0
 10
158.42534769400689
 20
156.252640097594
 30
0.0
 40
0.5
 50
179.99999999950489
 51
269.99999999949841
1001
GENIUS_GENODEF_13
1002
{
1000
HIER
1070
     0
1002
}
1002
{
1000
MANEDIT
1070
     0
1002
}
1002
{
1000
NOSEL
1070
     0
1002
}
1002
{
1000
BEHIND
1070
     0
1002
}
1002
{
1000
REACTOR
1002
}
1001
GENIUS_GENOBJ-N-FIL_13
1002
{
1000
OWNER
1000
GEN
1002
}
  0
ARC
  5
6BA
  8
0
 10
163.2253476940306
 20
156.05264009759051
 30
0.0
 40
0.5
 50
180.00000000002541
 51
269.99999999999972
1001
GENIUS_GENODEF_13
1002
{
1000
HIER
1070
     0
1002
}
1002
{
1000
MANEDIT
1070
     0
1002
}
1002
{
1000
NOSEL
1070
     0
1002
}
1002
{
1000
BEHIND
1070
     0
1002
}
1002
{
1000
REACTOR
1002
}
1001
GENIUS_GENOBJ-N-FIL_13
1002
{
1000
OWNER
1000
GEN
1002
}
  0
LINE
  5
6BC
  8
0
 10
168.92534769402209
 20
210.25264009759101
 30
0.0
 11
168.9253476940039
 21
217.2526400975926
 31
0.0
  0
ARC
  5
6BE
  8
0
 10
166.4253476940201
 20
221.2526400975897
 30
0.0
 40
2.5
 50
359.99999999949978
 51
90.0
1001
GENIUS_GENODEF_13
1002
{
1000
HIER
1070
     0
1002
}
1002
{
1000
MANEDIT
1070
     0
1002
}
1002
{
1000
NOSEL
1070
     0
1002
}
1002
{
1000
BEHIND
1070
     0
1002
}
1002
{
1000
REACTOR
1002
}
1001
GENIUS_GENOBJ-N-FIL_13
1002
{
1000
OWNER
1000
GEN
1002
}
  0
LINE
  5
6C0
  8
0
 10
169.12534769402811
 20
229.75264009758899
 30
0.0
 11
169.12534769402811
 21
226.0526400975873
 31
0.0
  0
ARC
  5
6C1
  8
0
 10
166.9253476940282
 20
229.75264009758899
 30
0.0
 40
2.2000000000000002
 50
0.0
 51
90.000000000000242
1001
GENIUS_GENODEF_13
1002
{
1000
HIER
1070
     0
1002
}
1002
{
1000
MANEDIT
1070
     0
1002
}
1002
{
1000
NOSEL
1070
     0
1002
}
1002
{
1000
BEHIND
1070
     0
1002
}
1002
{
1000
REACTOR
1002
}
1001
GENIUS_GENOBJ-N-FIL_13
1002
{
1000
OWNER
1000
GEN
1002
}
  0
ARC
  5
6C2
  8
0
 10
166.9253476940317
 20
229.7526400975897
 30
0.0
 40
3.9999999999918141
 50
359.2798806973164
 51
90.720119302680615
  0
ARC
  5
6C3
  8
0
 10
168.62534769402811
 20
226.0526400975873
 30
0.0
 40
0.5
 50
270.00000000000688
 51
0.0
1001
GENIUS_GENODEF_13
1002
{
1000
HIER
1070
     0
1002
}
1002
{
1000
MANEDIT
1070
     0
1002
}
1002
{
1000
NOSEL
1070
     0
1002
}
1002
{
1000
BEHIND
1070
     0
1002
}
1002
{
1000
REACTOR
1002
}
1001
GENIUS_GENOBJ-N-FIL_13
1002
{
1000
OWNER
1000
GEN
1002
}
  0
ARC
  5
6C4
  8
0
 10
168.4253476940039
 20
217.2526400975913
 30
0.0
 40
0.5
 50
0.0000000001494005
 51
89.999999999832795
1001
GENIUS_GENODEF_13
1002
{
1000
HIER
1070
     0
1002
}
1002
{
1000
MANEDIT
1070
     0
1002
}
1002
{
1000
NOSEL
1070
     0
1002
}
1002
{
1000
BEHIND
1070
     0
1002
}
1002
{
1000
REACTOR
1002
}
1001
GENIUS_GENOBJ-N-FIL_13
1002
{
1000
OWNER
1000
GEN
1002
}
  0
ARC
  5
6C5
  8
0
 10
167.42534769401919
 20
218.75264009759411
 30
0.0
 40
1.0
 50
179.9999999998785
 51
269.99999999983322
1001
GENIUS_GENODEF_13
1002
{
1000
HIER
1070
     0
1002
}
1002
{
1000
MANEDIT
1070
     0
1002
}
1002
{
1000
NOSEL
1070
     0
1002
}
1002
{
1000
BEHIND
1070
     0
1002
}
1002
{
1000
REACTOR
1002
}
1001
GENIUS_GENOBJ-N-FIL_13
1002
{
1000
OWNER
1000
GEN
1002
}
  0
LINE
  5
6C6
  8
0
 10
168.4253476940053
 20
217.7526400975913
 30
0.0
 11
167.42534769401621
 21
217.75264009759411
 31
0.0
  0
ARC
  5
6C7
  8
0
 10
168.4253476940201
 20
221.25264009757231
 30
0.0
 40
0.5
 50
269.99999999950489
 51
359.99999999949841
1001
GENIUS_GENODEF_13
1002
{
1000
HIER
1070
     0
1002
}
1002
{
1000
MANEDIT
1070
     0
1002
}
1002
{
1000
NOSEL
1070
     0
1002
}
1002
{
1000
BEHIND
1070
     0
1002
}
1002
{
1000
REACTOR
1002
}
1001
GENIUS_GENOBJ-N-FIL_13
1002
{
1000
OWNER
1000
GEN
1002
}
  0
ARC
  5
6C8
  8
0
 10
166.92534769402241
 20
220.25264009758541
 30
0.0
 40
0.5
 50
89.999999999499764
 51
179.9999999998762
1001
GENIUS_GENODEF_13
1002
{
1000
HIER
1070
     0
1002
}
1002
{
1000
MANEDIT
1070
     0
1002
}
1002
{
1000
NOSEL
1070
     0
1002
}
1002
{
1000
BEHIND
1070
     0
1002
}
1002
{
1000
REACTOR
1002
}
1001
GENIUS_GENOBJ-N-FIL_13
1002
{
1000
OWNER
1000
GEN
1002
}
  0
LINE
  5
6C9
  8
0
 10
168.42534769401581
 20
220.75264009757231
 30
0.0
 11
166.9253476940267
 21
220.7526400975853
 31
0.0
  0
LINE
  5
6CA
  8
0
 10
166.42534769401919
 20
218.75264009759621
 30
0.0
 11
166.42534769402229
 21
220.25264009758641
 31
0.0
  0
ARC
  5
6CB
  8
0
 10
166.42534769400601
 20
206.25264009756791
 30
0.0
 40
2.5
 50
269.99999999983851
 51
0.0000000006253398
  0
ARC
  5
6CC
  8
0
 10
168.42534769400601
 20
206.2526400975897
 30
0.0
 40
0.5
 50
0.0000000006253398
 51
90.0
1001
GENIUS_GENODEF_13
1002
{
1000
HIER
1070
     0
1002
}
1002
{
1000
MANEDIT
1070
     0
1002
}
1002
{
1000
NOSEL
1070
     0
1002
}
1002
{
1000
BEHIND
1070
     0
1002
}
1002
{
1000
REACTOR
1002
}
1001
GENIUS_GENOBJ-N-FIL_13
1002
{
1000
OWNER
1000
GEN
1002
}
  0
ARC
  5
6CD
  8
0
 10
168.42534769402209
 20
210.2526400975897
 30
0.0
 40
0.5
 50
270.0
 51
0.0000000001498002
1001
GENIUS_GENODEF_13
1002
{
1000
HIER
1070
     0
1002
}
1002
{
1000
MANEDIT
1070
     0
1002
}
1002
{
1000
NOSEL
1070
     0
1002
}
1002
{
1000
BEHIND
1070
     0
1002
}
1002
{
1000
REACTOR
1002
}
1001
GENIUS_GENOBJ-N-FIL_13
1002
{
1000
OWNER
1000
GEN
1002
}
  0
ARC
  5
6CE
  8
0
 10
166.92534769401709
 20
207.2526400975897
 30
0.0
 40
0.5
 50
180.0
 51
270.0
1001
GENIUS_GENODEF_13
1002
{
1000
HIER
1070
     0
1002
}
1002
{
1000
MANEDIT
1070
     0
1002
}
1002
{
1000
NOSEL
1070
     0
1002
}
1002
{
1000
BEHIND
1070
     0
1002
}
1002
{
1000
REACTOR
1002
}
1001
GENIUS_GENOBJ-N-FIL_13
1002
{
1000
OWNER
1000
GEN
1002
}
  0
ARC
  5
6CF
  8
0
 10
167.42534769401709
 20
208.7526400975897
 30
0.0
 40
1.0
 50
90.0
 51
180.0
1001
GENIUS_GENODEF_13
1002
{
1000
HIER
1070
     0
1002
}
1002
{
1000
MANEDIT
1070
     0
1002
}
1002
{
1000
NOSEL
1070
     0
1002
}
1002
{
1000
BEHIND
1070
     0
1002
}
1002
{
1000
REACTOR
1002
}
1001
GENIUS_GENOBJ-N-FIL_13
1002
{
1000
OWNER
1000
GEN
1002
}
  0
LINE
  5
6D0
  8
0
 10
166.42534769401709
 20
208.7526400975897
 30
0.0
 11
166.42534769401709
 21
207.2526400975897
 31
0.0
  0
LINE
  5
6D1
  8
0
 10
168.42534769400601
 20
206.7526400975897
 30
0.0
 11
166.92534769401709
 21
206.7526400975897
 31
0.0
  0
LINE
  5
6D2
  8
0
 10
168.42534769402209
 20
209.7526400975897
 30
0.0
 11
167.42534769401709
 21
209.7526400975897
 31
0.0
  0
LINE
  5
6D3
  8
0
 10
166.92534769403261
 20
189.25264009760591
 30
0.0
 11
166.92534769403261
 21
198.2526400975735
 31
0.0
  0
LINE
  5
6D5
  8
0
 10
170.91117775220479
 20
230.0890308633746
 30
0.0
 11
170.92503176616879
 21
157.8029125853638
 31
0.0
  0
LINE
  5
6D6
  8
0
 10
168.92534769402209
 20
177.2526400975884
 30
0.0
 11
168.9253476940039
 21
170.25264009758689
 31
0.0
  0
ARC
  5
6D7
  8
0
 10
168.42534769400601
 20
181.2526400975897
 30
0.0
 40
0.5
 50
270.0
 51
359.99999999937472
1001
GENIUS_GENODEF_13
1002
{
1000
HIER
1070
     0
1002
}
1002
{
1000
MANEDIT
1070
     0
1002
}
1002
{
1000
NOSEL
1070
     0
1002
}
1002
{
1000
BEHIND
1070
     0
1002
}
1002
{
1000
REACTOR
1002
}
1001
GENIUS_GENOBJ-N-FIL_13
1002
{
1000
OWNER
1000
GEN
1002
}
  0
ARC
  5
6D8
  8
0
 10
166.42534769400601
 20
181.25264009761159
 30
0.0
 40
2.5
 50
359.99999999937472
 51
90.000000000161549
  0
ARC
  5
6D9
  8
0
 10
168.42534769402209
 20
177.2526400975897
 30
0.0
 40
0.5
 50
359.99999999985022
 51
90.0
1001
GENIUS_GENODEF_13
1002
{
1000
HIER
1070
     0
1002
}
1002
{
1000
MANEDIT
1070
     0
1002
}
1002
{
1000
NOSEL
1070
     0
1002
}
1002
{
1000
BEHIND
1070
     0
1002
}
1002
{
1000
REACTOR
1002
}
1001
GENIUS_GENOBJ-N-FIL_13
1002
{
1000
OWNER
1000
GEN
1002
}
  0
ARC
  5
6DA
  8
0
 10
167.42534769401709
 20
178.7526400975897
 30
0.0
 40
1.0
 50
180.0
 51
270.0
1001
GENIUS_GENODEF_13
1002
{
1000
HIER
1070
     0
1002
}
1002
{
1000
MANEDIT
1070
     0
1002
}
1002
{
1000
NOSEL
1070
     0
1002
}
1002
{
1000
BEHIND
1070
     0
1002
}
1002
{
1000
REACTOR
1002
}
1001
GENIUS_GENOBJ-N-FIL_13
1002
{
1000
OWNER
1000
GEN
1002
}
  0
ARC
  5
6DB
  8
0
 10
166.92534769401709
 20
180.2526400975897
 30
0.0
 40
0.5
 50
90.0
 51
180.0
1001
GENIUS_GENODEF_13
1002
{
1000
HIER
1070
     0
1002
}
1002
{
1000
MANEDIT
1070
     0
1002
}
1002
{
1000
NOSEL
1070
     0
1002
}
1002
{
1000
BEHIND
1070
     0
1002
}
1002
{
1000
REACTOR
1002
}
1001
GENIUS_GENOBJ-N-FIL_13
1002
{
1000
OWNER
1000
GEN
1002
}
  0
LINE
  5
6DC
  8
0
 10
166.42534769401709
 20
178.7526400975897
 30
0.0
 11
166.42534769401709
 21
180.2526400975897
 31
0.0
  0
LINE
  5
6DD
  8
0
 10
168.42534769400601
 20
180.7526400975897
 30
0.0
 11
166.92534769401709
 21
180.7526400975897
 31
0.0
  0
LINE
  5
6DE
  8
0
 10
168.42534769402209
 20
177.7526400975897
 30
0.0
 11
167.42534769401709
 21
177.7526400975897
 31
0.0
  0
ARC
  5
6DF
  8
0
 10
167.42534769401919
 20
168.7526400975853
 30
0.0
 40
1.0
 50
90.000000000166736
 51
180.0000000001215
1001
GENIUS_GENODEF_13
1002
{
1000
HIER
1070
     0
1002
}
1002
{
1000
MANEDIT
1070
     0
1002
}
1002
{
1000
NOSEL
1070
     0
1002
}
1002
{
1000
BEHIND
1070
     0
1002
}
1002
{
1000
REACTOR
1002
}
1001
GENIUS_GENOBJ-N-FIL_13
1002
{
1000
OWNER
1000
GEN
1002
}
  0
ARC
  5
6E0
  8
0
 10
168.4253476940039
 20
170.2526400975882
 30
0.0
 40
0.5
 50
270.00000000016718
 51
359.99999999985062
1001
GENIUS_GENODEF_13
1002
{
1000
HIER
1070
     0
1002
}
1002
{
1000
MANEDIT
1070
     0
1002
}
1002
{
1000
NOSEL
1070
     0
1002
}
1002
{
1000
BEHIND
1070
     0
1002
}
1002
{
1000
REACTOR
1002
}
1001
GENIUS_GENOBJ-N-FIL_13
1002
{
1000
OWNER
1000
GEN
1002
}
  0
LINE
  5
6E1
  8
0
 10
168.4253476940053
 20
169.7526400975882
 30
0.0
 11
167.42534769401621
 21
169.7526400975853
 31
0.0
  0
ARC
  5
6E2
  8
0
 10
166.4253476940201
 20
166.2526400975897
 30
0.0
 40
2.5
 50
270.0
 51
0.0000000005003198
1001
GENIUS_GENODEF_13
1002
{
1000
HIER
1070
     0
1002
}
1002
{
1000
MANEDIT
1070
     0
1002
}
1002
{
1000
NOSEL
1070
     0
1002
}
1002
{
1000
BEHIND
1070
     0
1002
}
1002
{
1000
REACTOR
1002
}
1001
GENIUS_GENOBJ-N-FIL_13
1002
{
1000
OWNER
1000
GEN
1002
}
  0
ARC
  5
6E3
  8
0
 10
168.4253476940201
 20
166.25264009760721
 30
0.0
 40
0.5
 50
0.0000000005015988
 51
90.000000000495049
1001
GENIUS_GENODEF_13
1002
{
1000
HIER
1070
     0
1002
}
1002
{
1000
MANEDIT
1070
     0
1002
}
1002
{
1000
NOSEL
1070
     0
1002
}
1002
{
1000
BEHIND
1070
     0
1002
}
1002
{
1000
REACTOR
1002
}
1001
GENIUS_GENOBJ-N-FIL_13
1002
{
1000
OWNER
1000
GEN
1002
}
  0
ARC
  5
6E4
  8
0
 10
166.92534769402241
 20
167.25264009759411
 30
0.0
 40
0.5
 50
180.00000000012369
 51
270.00000000050022
1001
GENIUS_GENODEF_13
1002
{
1000
HIER
1070
     0
1002
}
1002
{
1000
MANEDIT
1070
     0
1002
}
1002
{
1000
NOSEL
1070
     0
1002
}
1002
{
1000
BEHIND
1070
     0
1002
}
1002
{
1000
REACTOR
1002
}
1001
GENIUS_GENOBJ-N-FIL_13
1002
{
1000
OWNER
1000
GEN
1002
}
  0
LINE
  5
6E5
  8
0
 10
166.42534769401919
 20
168.7526400975832
 30
0.0
 11
166.42534769402229
 21
167.252640097593
 31
0.0
  0
LINE
  5
6E6
  8
0
 10
168.42534769401581
 20
166.75264009760721
 30
0.0
 11
166.9253476940267
 21
166.75264009759411
 31
0.0
  0
ARC
  5
6E7
  8
0
 10
166.9253476940282
 20
157.7526400975905
 30
0.0
 40
2.2000000000000002
 50
269.99999999999977
 51
0.0
1001
GENIUS_GENODEF_13
1002
{
1000
HIER
1070
     0
1002
}
1002
{
1000
MANEDIT
1070
     0
1002
}
1002
{
1000
NOSEL
1070
     0
1002
}
1002
{
1000
BEHIND
1070
     0
1002
}
1002
{
1000
REACTOR
1002
}
1001
GENIUS_GENOBJ-N-FIL_13
1002
{
1000
OWNER
1000
GEN
1002
}
  0
ARC
  5
6E8
  8
0
 10
166.92534769402349
 20
157.7526400975824
 30
0.0
 40
3.9999999999927232
 50
269.27988069731799
 51
0.0
  0
ARC
  5
6E9
  8
0
 10
168.62534769402811
 20
161.45264009759211
 30
0.0
 40
0.5
 50
0.0
 51
89.999999999993037
1001
GENIUS_GENODEF_13
1002
{
1000
HIER
1070
     0
1002
}
1002
{
1000
MANEDIT
1070
     0
1002
}
1002
{
1000
NOSEL
1070
     0
1002
}
1002
{
1000
BEHIND
1070
     0
1002
}
1002
{
1000
REACTOR
1002
}
1001
GENIUS_GENOBJ-N-FIL_13
1002
{
1000
OWNER
1000
GEN
1002
}
  0
LINE
  5
6EA
  8
0
 10
169.12534769402811
 20
157.7526400975905
 30
0.0
 11
169.12534769402811
 21
161.45264009759211
 31
0.0
  0
LINE
  5
96B
  8
1
 10
130.92197941198501
 20
143.84826363810271
 30
0.0
 11
130.92197941198501
 21
243.84826363810271
 31
0.0
  0
LINE
  5
96C
  8
1
 10
150.92197941198501
 20
148.84826363810279
 30
0.0
 11
150.92197941198501
 21
238.84826363810271
 31
0.0
  0
LINE
  5
96E
  8
1
 10
85.921979411985063
 20
173.84826363810271
 30
0.0
 11
175.92197941198501
 21
173.84826363810271
 31
0.0
  0
LINE
  5
96F
  8
1
 10
85.921979411985063
 20
213.84826363810271
 30
0.0
 11
175.92197941198501
 21
213.84826363810271
 31
0.0
  0
LINE
  5
976
  8
1
 10
80.921979411985063
 20
193.84826363810271
 30
0.0
 11
180.92197941198501
 21
193.84826363810271
 31
0.0
  0
LINE
  5
977
  8
1
 10
110.92197941198501
 20
148.84826363810279
 30
0.0
 11
110.92197941198501
 21
238.84826363810271
 31
0.0
  0
INSERT
  5
A20
  8
0
  2
STDGX5
 10
0.0
 20
0.0
 30
0.0
  0
INSERT
  5
A21
  8
0
  2
STDGX5
 10
0.0
 20
0.0
 30
0.0
  0
INSERT
  5
A22
  8
0
  2
STDGX5
 10
275.0
 20
0.0
 30
0.0
  0
INSERT
  5
A23
  8
0
  2
STDGX5
 10
275.0
 20
0.0
 30
0.0
  0
LINE
  5
A7A
  8
1
 10
220.91599395503439
 20
193.84826363810271
 30
0.0
 11
290.91599395503511
 21
193.84826363810271
 31
0.0
  0
LINE
  5
A7F
  8
1
 10
225.91599395503459
 20
173.84826363810271
 30
0.0
 11
285.91599395503528
 21
173.84826363810271
 31
0.0
  0
LINE
  5
A80
  8
1
 10
225.91599395503459
 20
213.84826363810271
 30
0.0
 11
285.91599395503459
 21
213.84826363810271
 31
0.0
  0
LINE
  5
A81
  8
0
 10
280.91599395503471
 20
153.84826363810271
 30
0.0
 11
280.91599395503471
 21
233.84826363810271
 31
0.0
  0
LINE
  5
A82
  8
0
 10
230.91599395503459
 20
233.84826363810271
 30
0.0
 11
230.91599395503459
 21
153.84826363810271
 31
0.0
  0
LINE
  5
A83
  8
0
 10
230.91599395503459
 20
153.84826363810271
 30
0.0
 11
280.91599395503471
 21
153.84826363810271
 31
0.0
  0
LINE
  5
A84
  8
0
 10
280.91599395503471
 20
233.84826363810271
 30
0.0
 11
230.91599395503459
 21
233.84826363810271
 31
0.0
  0
LINE
  5
ACB
  8
1
 10
130.92197941198501
 20
33.753058154965153
 30
0.0
 11
130.92197941198501
 21
103.7530581549658
 31
0.0
  0
LINE
  5
ACC
  8
0
 10
114.9219794119854
 20
43.753058154965601
 30
0.0
 11
114.9219794119854
 21
93.753058154965359
 31
0.0
  0
LINE
  5
ACD
  8
0
 10
106.92197941198449
 20
43.753058154965601
 30
0.0
 11
106.92197941198449
 21
93.753058154965359
 31
0.0
  0
LINE
  5
ACE
  8
0
 10
146.92197941198449
 20
43.753058154965601
 30
0.0
 11
146.92197941198449
 21
93.753058154965359
 31
0.0
  0
LINE
  5
ACF
  8
0
 10
154.9219794119854
 20
43.753058154965601
 30
0.0
 11
154.9219794119854
 21
93.753058154965359
 31
0.0
  0
LINE
  5
AD0
  8
1
 10
150.92197941198489
 20
38.753058154965373
 30
0.0
 11
150.92197941198489
 21
98.753058154966055
 31
0.0
  0
LINE
  5
AD1
  8
1
 10
110.92197941198501
 20
38.753058154965373
 30
0.0
 11
110.92197941198501
 21
98.753058154965373
 31
0.0
  0
LINE
  5
AD2
  8
0
 10
170.92197941198501
 20
93.753058154965359
 30
0.0
 11
90.921979411984992
 21
93.753058154965359
 31
0.0
  0
LINE
  5
AD3
  8
0
 10
90.921979411984992
 20
43.753058154965373
 30
0.0
 11
170.92197941198501
 21
43.753058154965373
 31
0.0
  0
LINE
  5
AD4
  8
0
 10
170.92197941198501
 20
43.753058154965373
 30
0.0
 11
170.92197941198501
 21
93.753058154965359
 31
0.0
  0
LINE
  5
AD5
  8
0
 10
90.921979411984992
 20
93.753058154965359
 30
0.0
 11
90.921979411984992
 21
43.753058154965373
 31
0.0
  0
TEXT
  5
BC8
  8
0
 62
     3
 10
0.0
 20
0.0
 30
0.0
 40
10.0
  1
SPL8080N2-3M
  7
STANDARD1
  0
ENDSEC
  0
EOF
