  0
SECTION
  2
HEADER
  9
$ACADVER
  1
AC1009
  9
$INSBASE
 10
0.0
 20
0.0
 30
0.0
  9
$EXTMIN
 10
0.0
 20
-2.960436562073669
 30
0.0
  9
$EXTMAX
 10
288.00000000000011
 20
260.0
 30
0.0
  9
$LIMMIN
 10
0.0
 20
0.0
  9
$LIMMAX
 10
375.0
 20
270.0
  9
$ORTHOMODE
 70
     1
  9
$REGENMODE
 70
     1
  9
$FILLMODE
 70
     1
  9
$QTEXTMODE
 70
     0
  9
$MIRRTEXT
 70
     0
  9
$DRAGMODE
 70
     2
  9
$LTSCALE
 40
10.0
  9
$OSMODE
 70
    37
  9
$ATTMODE
 70
     1
  9
$TEXTSIZE
 40
2.0000000000000502
  9
$TRACEWID
 40
0.05
  9
$TEXTSTYLE
  7
STANDARD
  9
$CLAYER
  8
0
  9
$CELTYPE
  6
BYLAYER
  9
$CECOLOR
 62
   256
  9
$DIMSCALE
 40
1.0
  9
$DIMASZ
 40
3.0
  9
$DIMEXO
 40
2.0
  9
$DIMDLI
 40
0.38
  9
$DIMRND
 40
0.0
  9
$DIMDLE
 40
0.0
  9
$DIMEXE
 40
2.0
  9
$DIMTP
 40
0.0
  9
$DIMTM
 40
0.0
  9
$DIMTXT
 40
3.2000000000000002
  9
$DIMCEN
 40
0.0
  9
$DIMTSZ
 40
0.0
  9
$DIMTOL
 70
     0
  9
$DIMLIM
 70
     0
  9
$DIMTIH
 70
     0
  9
$DIMTOH
 70
     0
  9
$DIMSE1
 70
     0
  9
$DIMSE2
 70
     0
  9
$DIMTAD
 70
     1
  9
$DIMZIN
 70
     0
  9
$DIMBLK
  1

  9
$DIMASO
 70
     1
  9
$DIMSHO
 70
     0
  9
$DIMPOST
  1

  9
$DIMAPOST
  1

  9
$DIMALT
 70
     0
  9
$DIMALTD
 70
     2
  9
$DIMALTF
 40
25.399999999999999
  9
$DIMLFAC
 40
1.0
  9
$DIMTOFL
 70
     1
  9
$DIMTVP
 40
1.6000000000000001
  9
$DIMTIX
 70
     1
  9
$DIMSOXD
 70
     0
  9
$DIMSAH
 70
     0
  9
$DIMBLK1
  1

  9
$DIMBLK2
  1

  9
$DIMSTYLE
  2
STANDARD
  9
$DIMCLRD
 70
     0
  9
$DIMCLRE
 70
     0
  9
$DIMCLRT
 70
     0
  9
$DIMTFAC
 40
1.0
  9
$DIMGAP
 40
0.09
  9
$LUNITS
 70
     2
  9
$LUPREC
 70
     4
  9
$SKETCHINC
 40
0.1
  9
$FILLETRAD
 40
0.0
  9
$AUNITS
 70
     0
  9
$AUPREC
 70
     4
  9
$MENU
  1
E:\r13\win\SUPPORT\ACAD
  9
$ELEVATION
 40
0.0
  9
$PELEVATION
 40
0.0
  9
$THICKNESS
 40
0.0
  9
$LIMCHECK
 70
     0
  9
$BLIPMODE
 70
     0
  9
$CHAMFERA
 40
0.0
  9
$CHAMFERB
 40
0.0
  9
$SKPOLY
 70
     0
  9
$TDCREATE
 40
2449839.7948032408
  9
$TDUPDATE
 40
2458249.5925815511
  9
$TDINDWG
 40
0.0191915162
  9
$TDUSRTIMER
 40
0.0191915162
  9
$USRTIMER
 70
     1
  9
$ANGBASE
 50
0.0
  9
$ANGDIR
 70
     0
  9
$PDMODE
 70
     0
  9
$PDSIZE
 40
0.0
  9
$PLINEWID
 40
0.0
  9
$COORDS
 70
     1
  9
$SPLFRAME
 70
     0
  9
$SPLINETYPE
 70
     6
  9
$SPLINESEGS
 70
     8
  9
$ATTDIA
 70
     0
  9
$ATTREQ
 70
     1
  9
$HANDLING
 70
     1
  9
$HANDSEED
  5
530
  9
$SURFTAB1
 70
     6
  9
$SURFTAB2
 70
     6
  9
$SURFTYPE
 70
     6
  9
$SURFU
 70
     6
  9
$SURFV
 70
     6
  9
$UCSNAME
  2

  9
$UCSORG
 10
0.0
 20
0.0
 30
0.0
  9
$UCSXDIR
 10
1.0
 20
0.0
 30
0.0
  9
$UCSYDIR
 10
0.0
 20
1.0
 30
0.0
  9
$PUCSNAME
  2

  9
$PUCSORG
 10
0.0
 20
0.0
 30
0.0
  9
$PUCSXDIR
 10
1.0
 20
0.0
 30
0.0
  9
$PUCSYDIR
 10
0.0
 20
1.0
 30
0.0
  9
$USERI1
 70
     0
  9
$USERI2
 70
     1
  9
$USERI3
 70
     1
  9
$USERI4
 70
     0
  9
$USERI5
 70
     0
  9
$USERR1
 40
0.0
  9
$USERR2
 40
0.0
  9
$USERR3
 40
0.0
  9
$USERR4
 40
0.0
  9
$USERR5
 40
0.0
  9
$WORLDVIEW
 70
     1
  9
$SHADEDGE
 70
     3
  9
$SHADEDIF
 70
    70
  9
$TILEMODE
 70
     1
  9
$MAXACTVP
 70
    16
  9
$PLIMCHECK
 70
     0
  9
$PEXTMIN
 10
1.0000000000000000E+020
 20
1.0000000000000000E+020
 30
1.0000000000000000E+020
  9
$PEXTMAX
 10
-1.0000000000000000E+020
 20
-1.0000000000000000E+020
 30
-1.0000000000000000E+020
  9
$PLIMMIN
 10
0.0
 20
0.0
  9
$PLIMMAX
 10
12.0
 20
9.0
  9
$UNITMODE
 70
     0
  9
$VISRETAIN
 70
     0
  9
$PLINEGEN
 70
     0
  9
$PSLTSCALE
 70
     0
  0
ENDSEC
  0
SECTION
  2
TABLES
  0
TABLE
  2
VPORT
 70
     1
  0
VPORT
  2
*ACTIVE
 70
     0
 10
0.0
 20
0.0
 11
1.0
 21
1.0
 12
158.73021525462721
 22
128.522669185323
 13
0.0
 23
0.0
 14
10.0
 24
10.0
 15
10.0
 25
10.0
 16
0.0
 26
0.0
 36
1.0
 17
0.0
 27
0.0
 37
0.0
 40
266.7798544602054
 41
2.0984455958549222
 42
50.0
 43
0.0
 44
0.0
 50
0.0
 51
0.0
 71
     0
 72
   500
 73
     1
 74
     0
 75
     0
 76
     0
 77
     0
 78
     2
  0
ENDTAB
  0
TABLE
  2
LTYPE
 70
     4
  0
LTYPE
  2
CONTINUOUS
 70
     0
  3
Solid Line
 72
    65
 73
     0
 40
0.0
  0
LTYPE
  2
CENTER
 70
     0
  3
____ _ ____ _ ____ _ ____ _ ____ _ ____ _ ____
 72
    65
 73
     4
 40
2.0
 49
1.25
 49
-0.25
 49
0.25
 49
-0.25
  0
LTYPE
  2
PHANTOM2
 70
     0
  3
___ _ _ ___ _ _ ___ _ _ ___ _ _
 72
    65
 73
     6
 40
1.25
 49
0.625
 49
-0.125
 49
0.125
 49
-0.125
 49
0.125
 49
-0.125
  0
LTYPE
  2
HIDDEN
 70
     0
  3
Hidden __ __ __ __ __ __ __ __ __ __ __ __ __ __
 72
    65
 73
     2
 40
1.905
 49
1.27
 49
-0.635
  0
ENDTAB
  0
TABLE
  2
LAYER
 70
     4
  0
LAYER
  2
0
 70
     0
 62
     7
  6
CONTINUOUS
  0
LAYER
  2
1
 70
     0
 62
     1
  6
CENTER
  0
LAYER
  2
3
 70
     0
 62
     3
  6
CONTINUOUS
  0
LAYER
  2
2
 70
     0
 62
     2
  6
HIDDEN
  0
ENDTAB
  0
TABLE
  2
STYLE
 70
     3
  0
STYLE
  2
STANDARD
 70
     0
 40
0.0
 41
1.0
 50
0.0
 71
     0
 42
2.0000000000000502
  3
TXT
  4
BIGFONT
  0
STYLE
  2
SIM180
 70
     0
 40
0.0
 41
1.8
 50
0.0
 71
     0
 42
0.8
  3
SIMPLEX
  4

  0
STYLE
  2
STANDARD1
 70
     0
 40
0.0
 41
1.0
 50
0.0
 71
     0
 42
3.0
  3
txt
  4

  0
ENDTAB
  0
TABLE
  2
VIEW
 70
     1
  0
VIEW
  2
ALL
 70
     0
 40
270.0
 10
220.99159663865549
 20
135.0
 41
0.0
 11
0.0
 21
0.0
 31
1.0
 12
0.0
 22
0.0
 32
0.0
 42
0.0
 43
0.0
 44
0.0
 50
0.0
 71
     0
  0
ENDTAB
  0
TABLE
  2
UCS
 70
     0
  0
ENDTAB
  0
TABLE
  2
APPID
 70
     4
  0
APPID
  2
ACAD
 70
     0
  0
APPID
  2
ACAD_MLEADERVER
 70
     0
  0
APPID
  2
ACAD_EXEMPT_FROM_CAD_STANDARDS
 70
     0
  0
APPID
  2
ACAD_NAV_VCDISPLAY
 70
     0
  0
ENDTAB
  0
TABLE
  2
DIMSTYLE
 70
     2
  0
DIMSTYLE
  2
STANDARD
 70
     0
  3

  4

  5

  6

  7

 40
1.0
 41
0.18
 42
0.0625
 43
0.38
 44
0.18
 45
0.0
 46
0.0
 47
0.0
 48
0.0
140
0.18
141
0.09
142
0.0
143
25.399999999999999
144
1.0
145
0.0
146
1.0
147
0.09
 71
     0
 72
     0
 73
     1
 74
     1
 75
     0
 76
     0
 77
     0
 78
     0
170
     0
171
     2
172
     0
173
     0
174
     0
175
     0
176
     0
177
     0
178
     0
  0
DIMSTYLE
  2
ISO-25
 70
     0
  3

  4

  5

  6

  7

 40
1.0
 41
2.5
 42
0.625
 43
3.75
 44
1.25
 45
0.0
 46
0.0
 47
0.0
 48
0.0
140
2.5
141
2.5
142
0.0
143
0.0393700787
144
1.0
145
0.0
146
1.0
147
0.625
 71
     0
 72
     0
 73
     0
 74
     0
 75
     0
 76
     0
 77
     1
 78
     8
170
     0
171
     3
172
     1
173
     0
174
     0
175
     0
176
     0
177
     0
178
     0
  0
ENDTAB
  0
ENDSEC
  0
SECTION
  2
BLOCKS
  0
BLOCK
  8
0
  2
$MODEL_SPACE
 70
     0
 10
0.0
 20
0.0
 30
0.0
  3
$MODEL_SPACE
  1

  0
ENDBLK
  5
11E
  8
0
  0
BLOCK
 67
     1
  8
0
  2
$PAPER_SPACE
 70
     0
 10
0.0
 20
0.0
 30
0.0
  3
$PAPER_SPACE
  1

  0
ENDBLK
  5
11C
 67
     1
  8
0
  0
ENDSEC
  0
SECTION
  2
ENTITIES
  0
TEXT
  5
20A
  8
0
 62
     3
 10
0.0
 20
0.0
 30
0.0
 40
10.0
  1
SPS-1
  7
STANDARD1
  0
LINE
  5
2B1
  8
0
 10
168.52099999999999
 20
223.37549999999999
 30
0.0
 11
170.0
 21
224.8545
 31
0.0
  0
LINE
  5
2B2
  8
0
 10
170.0
 20
255.1455
 30
0.0
 11
168.52099999999999
 21
256.62450000000001
 31
0.0
  0
LINE
  5
2B3
  8
0
 10
170.0
 20
224.8545
 30
0.0
 11
170.0
 21
255.1455
 31
0.0
  0
LINE
  5
2B4
  8
0
 10
168.52099999999999
 20
223.37549999999999
 30
0.0
 11
168.52099999999999
 21
256.62450000000001
 31
0.0
  0
ARC
  5
2B5
  8
2
 10
143.4378033605
 20
237.0
 30
0.0
 40
5.4601866431683916
 50
326.67196140179971
 51
33.328038598100342
  0
LINE
  5
2B6
  8
2
 10
148.0
 20
240.0
 30
0.0
 11
158.0
 21
240.0
 31
0.0
  0
ARC
  5
2B7
  8
2
 10
143.4378033605
 20
243.0
 30
0.0
 40
5.4601866431808093
 50
326.67196140189958
 51
33.328038598100342
  0
LINE
  5
2B8
  8
2
 10
158.0
 20
234.0
 30
0.0
 11
158.0
 21
246.0
 31
0.0
  0
LINE
  5
2B9
  8
2
 10
148.0
 20
246.0
 30
0.0
 11
158.0
 21
246.0
 31
0.0
  0
LINE
  5
2BA
  8
2
 10
148.0
 20
234.0
 30
0.0
 11
158.0
 21
234.0
 31
0.0
  0
LINE
  5
2BB
  8
2
 10
148.9282032303
 20
246.0
 30
0.0
 11
148.0
 21
246.9282032303
 31
0.0
  0
LINE
  5
2BC
  8
2
 10
148.0
 20
233.0717967697
 30
0.0
 11
148.9282032303
 21
234.0
 31
0.0
  0
LINE
  5
2BD
  8
0
 10
48.000000000000028
 20
131.53589838490001
 30
0.0
 11
54.000000000000028
 21
128.0717967697
 31
0.0
  0
LINE
  5
2BE
  8
0
 10
60.000000000000028
 20
138.46410161509999
 30
0.0
 11
54.000000000000028
 21
141.9282032303
 31
0.0
  0
LINE
  5
2BF
  8
0
 10
54.000000000000028
 20
141.9282032303
 30
0.0
 11
48.000000000000028
 21
138.46410161509999
 31
0.0
  0
LINE
  5
2C0
  8
0
 10
54.000000000000028
 20
128.0717967697
 30
0.0
 11
60.000000000000028
 21
131.53589838490001
 31
0.0
  0
LINE
  5
2C1
  8
0
 10
60.000000000000028
 20
131.53589838490001
 30
0.0
 11
60.000000000000028
 21
138.46410161519989
 31
0.0
  0
LINE
  5
2C2
  8
0
 10
48.000000000000028
 20
138.46410161519989
 30
0.0
 11
48.000000000000028
 21
131.53589838490001
 31
0.0
  0
CIRCLE
  5
2C3
  8
0
 10
54.000000000000028
 20
135.0
 30
0.0
 40
20.000000000000028
  0
CIRCLE
  5
2C4
  8
0
 10
54.000000000000028
 20
135.0
 30
0.0
 40
18.500000000000028
  0
CIRCLE
  5
2C5
  8
3
 10
264.0
 20
135.0
 30
0.0
 40
15.1455
  0
CIRCLE
  5
2C6
  8
0
 10
264.0
 20
135.0
 30
0.0
 40
16.624500000000001
  0
CIRCLE
  5
2C7
  8
0
 10
264.0
 20
135.0
 30
0.0
 40
17.474744871391589
  0
CIRCLE
  5
2C8
  8
0
 10
264.0
 20
135.0
 30
0.0
 40
20.0
  0
LINE
  5
2C9
  8
0
 10
149.5
 20
115.0
 30
0.0
 11
154.0
 21
115.0
 31
0.0
  0
LINE
  5
2CA
  8
0
 10
154.0
 20
155.0
 30
0.0
 11
149.5
 21
155.0
 31
0.0
  0
LINE
  5
2CB
  8
0
 10
149.5
 20
155.0
 30
0.0
 11
148.0
 21
153.5
 31
0.0
  0
LINE
  5
2CC
  8
0
 10
148.0
 20
116.5
 30
0.0
 11
149.5
 21
115.0
 31
0.0
  0
ARC
  5
2CD
  8
0
 10
153.75
 20
151.25
 30
0.0
 40
1.25
 50
0.0
 51
78.463040967200143
  0
ARC
  5
2CE
  8
0
 10
153.75
 20
118.75
 30
0.0
 40
1.250000000000004
 50
281.53695903279981
 51
0.0
  0
LINE
  5
2CF
  8
0
 10
155.0
 20
118.75
 30
0.0
 11
155.0
 21
151.25
 31
0.0
  0
LINE
  5
2D0
  8
0
 10
168.52099999999999
 20
118.3755
 30
0.0
 11
170.0
 21
119.8545
 31
0.0
  0
LINE
  5
2D1
  8
0
 10
170.0
 20
150.1455
 30
0.0
 11
168.52099999999999
 21
151.62450000000001
 31
0.0
  0
LINE
  5
2D2
  8
0
 10
157.0
 20
118.3755
 30
0.0
 11
168.52099999999999
 21
118.3755
 31
0.0
  0
LINE
  5
2D3
  8
0
 10
168.52099999999999
 20
151.62450000000001
 30
0.0
 11
157.0
 21
151.62450000000001
 31
0.0
  0
LINE
  5
2D4
  8
0
 10
155.0
 20
120.0
 30
0.0
 11
157.0
 21
120.0
 31
0.0
  0
LINE
  5
2D5
  8
0
 10
157.0
 20
150.0
 30
0.0
 11
155.0
 21
150.0
 31
0.0
  0
LINE
  5
2D6
  8
0
 10
154.0
 20
115.0
 30
0.0
 11
154.0
 21
155.0
 31
0.0
  0
LINE
  5
2D7
  8
0
 10
149.5
 20
155.0
 30
0.0
 11
149.5
 21
115.0
 31
0.0
  0
LINE
  5
2D8
  8
0
 10
148.0
 20
153.5
 30
0.0
 11
148.0
 21
116.5
 31
0.0
  0
LINE
  5
2D9
  8
0
 10
170.0
 20
119.8545
 30
0.0
 11
170.0
 21
150.1455
 31
0.0
  0
LINE
  5
2DA
  8
0
 10
168.52099999999999
 20
118.3755
 30
0.0
 11
168.52099999999999
 21
151.62450000000001
 31
0.0
  0
LINE
  5
2DB
  8
0
 10
157.0
 20
151.62450000000001
 30
0.0
 11
157.0
 21
118.3755
 31
0.0
  0
LINE
  5
2DC
  8
2
 10
158.0
 20
128.07179676979999
 30
0.0
 11
158.0
 21
141.9282032303
 31
0.0
  0
LINE
  5
2DD
  8
2
 10
148.0
 20
131.53589838490001
 30
0.0
 11
158.0
 21
131.53589838490001
 31
0.0
  0
ARC
  5
2DE
  8
2
 10
141.79631766520001
 20
135.0
 30
0.0
 40
7.1053271924889323
 50
330.82125266360032
 51
29.17874733639967
  0
LINE
  5
2DF
  8
2
 10
148.0
 20
138.46410161520001
 30
0.0
 11
158.0
 21
138.46410161520001
 31
0.0
  0
ARC
  5
2E0
  8
2
 10
146.72077475200001
 20
140.19615242270001
 30
0.0
 40
2.1532341339022998
 50
306.44813083289978
 51
53.551869166999168
  0
ARC
  5
2E1
  8
2
 10
146.72077475200001
 20
129.80384757729999
 30
0.0
 40
2.15323413389061
 50
306.44813083269929
 51
53.551869167199719
  0
LINE
  5
2E2
  8
2
 10
158.0
 20
128.07179676979999
 30
0.0
 11
148.0
 21
128.07179676979999
 31
0.0
  0
LINE
  5
2E3
  8
2
 10
148.0
 20
141.9282032303
 30
0.0
 11
158.0
 21
141.9282032303
 31
0.0
  0
LINE
  5
2E4
  8
0
 10
149.5
 20
220.0
 30
0.0
 11
154.0
 21
220.0
 31
0.0
  0
LINE
  5
2E5
  8
0
 10
154.0
 20
260.0
 30
0.0
 11
149.5
 21
260.0
 31
0.0
  0
LINE
  5
2E6
  8
0
 10
149.5
 20
260.0
 30
0.0
 11
148.0
 21
258.5
 31
0.0
  0
LINE
  5
2E7
  8
0
 10
148.0
 20
221.5
 30
0.0
 11
149.5
 21
220.0
 31
0.0
  0
ARC
  5
2E8
  8
0
 10
153.75
 20
256.25
 30
0.0
 40
1.25
 50
0.0
 51
78.463040967200143
  0
ARC
  5
2E9
  8
0
 10
153.75
 20
223.75
 30
0.0
 40
1.250000000000004
 50
281.53695903279981
 51
0.0
  0
LINE
  5
2EA
  8
0
 10
155.0
 20
223.75
 30
0.0
 11
155.0
 21
256.25
 31
0.0
  0
LINE
  5
2EB
  8
0
 10
157.0
 20
223.37549999999999
 30
0.0
 11
168.52099999999999
 21
223.37549999999999
 31
0.0
  0
LINE
  5
2EC
  8
0
 10
168.52099999999999
 20
256.62450000000001
 30
0.0
 11
157.0
 21
256.62450000000001
 31
0.0
  0
LINE
  5
2ED
  8
0
 10
155.0
 20
225.0
 30
0.0
 11
157.0
 21
225.0
 31
0.0
  0
LINE
  5
2EE
  8
0
 10
157.0
 20
255.0
 30
0.0
 11
155.0
 21
255.0
 31
0.0
  0
LINE
  5
2EF
  8
0
 10
154.0
 20
220.0
 30
0.0
 11
154.0
 21
260.0
 31
0.0
  0
LINE
  5
2F0
  8
0
 10
149.5
 20
260.0
 30
0.0
 11
149.5
 21
220.0
 31
0.0
  0
LINE
  5
2F1
  8
0
 10
148.0
 20
258.5
 30
0.0
 11
148.0
 21
221.5
 31
0.0
  0
LINE
  5
2F2
  8
0
 10
157.0
 20
256.62450000000001
 30
0.0
 11
157.0
 21
223.37549999999999
 31
0.0
  0
CIRCLE
  5
2F3
  8
0
 10
54.000000000000028
 20
135.0
 30
0.0
 40
6.9282032302999994
  0
LINE
  5
2F4
  8
3
 10
157.0
 20
119.8545000000001
 30
0.0
 11
170.0
 21
119.8545000000001
 31
0.0
  0
LINE
  5
2F5
  8
3
 10
157.0
 20
150.14549999999991
 30
0.0
 11
170.0
 21
150.1455
 31
0.0
  0
LINE
  5
300
  8
1
 10
30.0
 20
135.0
 30
0.0
 11
78.000000000000057
 21
135.0
 31
0.0
  0
LINE
  5
301
  8
1
 10
54.000000000000028
 20
159.0
 30
0.0
 11
54.000000000000028
 21
111.0
 31
0.0
  0
LINE
  5
302
  8
1
 10
144.0
 20
135.0
 30
0.0
 11
174.0
 21
135.0
 31
0.0
  0
LINE
  5
303
  8
1
 10
240.0
 20
135.0
 30
0.0
 11
288.00000000000011
 21
135.0
 31
0.0
  0
LINE
  5
304
  8
1
 10
264.0
 20
159.0
 30
0.0
 11
264.0
 21
110.9999999999999
 31
0.0
  0
LINE
  5
305
  8
3
 10
157.0
 20
224.85450000000009
 30
0.0
 11
170.0
 21
224.85450000000009
 31
0.0
  0
LINE
  5
306
  8
3
 10
157.0
 20
255.14549999999991
 30
0.0
 11
170.0
 21
255.1455
 31
0.0
  0
LINE
  5
307
  8
1
 10
144.0
 20
240.0
 30
0.0
 11
174.0
 21
240.0
 31
0.0
  0
LINE
  5
308
  8
0
 10
168.52099999999999
 20
46.624500000000012
 30
0.0
 11
170.0
 21
45.14550000000002
 31
0.0
  0
LINE
  5
309
  8
0
 10
170.0
 20
14.8545
 30
0.0
 11
168.52099999999999
 21
13.37550000000002
 31
0.0
  0
LINE
  5
30A
  8
0
 10
170.0
 20
45.14550000000002
 30
0.0
 11
170.0
 21
14.8545
 31
0.0
  0
LINE
  5
30B
  8
0
 10
168.52099999999999
 20
46.624500000000012
 30
0.0
 11
168.52099999999999
 21
13.37550000000002
 31
0.0
  0
ARC
  5
30C
  8
2
 10
143.4378033605
 20
33.0
 30
0.0
 40
5.4601866431683916
 50
326.67196140189958
 51
33.328038598201161
  0
LINE
  5
30D
  8
2
 10
148.0
 20
30.0
 30
0.0
 11
158.0
 21
30.0
 31
0.0
  0
ARC
  5
30E
  8
2
 10
143.4378033605
 20
27.0
 30
0.0
 40
5.4601866431808093
 50
326.67196140189958
 51
33.328038598100342
  0
LINE
  5
30F
  8
2
 10
158.0
 20
36.0
 30
0.0
 11
158.0
 21
24.0
 31
0.0
  0
LINE
  5
310
  8
2
 10
148.0
 20
24.0
 30
0.0
 11
158.0
 21
24.0
 31
0.0
  0
LINE
  5
311
  8
2
 10
148.0
 20
36.0
 30
0.0
 11
158.0
 21
36.0
 31
0.0
  0
LINE
  5
312
  8
2
 10
148.9282032303
 20
24.0
 30
0.0
 11
148.0
 21
23.071796769700001
 31
0.0
  0
LINE
  5
313
  8
2
 10
148.0
 20
36.928203230299999
 30
0.0
 11
148.9282032303
 21
36.0
 31
0.0
  0
LINE
  5
314
  8
0
 10
149.5
 20
50.0
 30
0.0
 11
154.0
 21
50.0
 31
0.0
  0
LINE
  5
315
  8
0
 10
154.0
 20
10.0
 30
0.0
 11
149.5
 21
10.0
 31
0.0
  0
LINE
  5
316
  8
0
 10
149.5
 20
10.0
 30
0.0
 11
148.0
 21
11.5
 31
0.0
  0
LINE
  5
317
  8
0
 10
148.0
 20
48.5
 30
0.0
 11
149.5
 21
50.0
 31
0.0
  0
ARC
  5
318
  8
0
 10
153.75
 20
13.75
 30
0.0
 40
1.25
 50
281.53695903279981
 51
0.0
  0
ARC
  5
319
  8
0
 10
153.75
 20
46.25
 30
0.0
 40
1.250000000000004
 50
0.0
 51
78.463040967200143
  0
LINE
  5
31A
  8
0
 10
155.0
 20
46.25
 30
0.0
 11
155.0
 21
13.75
 31
0.0
  0
LINE
  5
31B
  8
0
 10
157.0
 20
46.624500000000012
 30
0.0
 11
168.52099999999999
 21
46.624500000000012
 31
0.0
  0
LINE
  5
31C
  8
0
 10
168.52099999999999
 20
13.37549999999999
 30
0.0
 11
157.0
 21
13.37549999999999
 31
0.0
  0
LINE
  5
31D
  8
0
 10
155.0
 20
45.0
 30
0.0
 11
157.0
 21
45.0
 31
0.0
  0
LINE
  5
31E
  8
0
 10
157.0
 20
15.0
 30
0.0
 11
155.0
 21
15.0
 31
0.0
  0
LINE
  5
31F
  8
0
 10
154.0
 20
50.0
 30
0.0
 11
154.0
 21
10.0
 31
0.0
  0
LINE
  5
320
  8
0
 10
149.5
 20
10.0
 30
0.0
 11
149.5
 21
50.0
 31
0.0
  0
LINE
  5
321
  8
0
 10
148.0
 20
11.5
 30
0.0
 11
148.0
 21
48.5
 31
0.0
  0
LINE
  5
322
  8
0
 10
157.0
 20
13.37549999999999
 30
0.0
 11
157.0
 21
46.624500000000012
 31
0.0
  0
LINE
  5
323
  8
3
 10
157.0
 20
45.145499999999849
 30
0.0
 11
170.0
 21
45.145499999999913
 31
0.0
  0
LINE
  5
324
  8
3
 10
157.0
 20
14.85450000000009
 30
0.0
 11
170.0
 21
14.85449999999997
 31
0.0
  0
LINE
  5
325
  8
1
 10
144.0
 20
30.0
 30
0.0
 11
174.0
 21
30.0
 31
0.0
  0
ENDSEC
  0
EOF
