  0
SECTION
  2
HEADER
  9
$ACADVER
  1
AC1009
  9
$INSBASE
 10
0.0
 20
0.0
 30
0.0
  9
$EXTMIN
 10
0.0
 20
-2.960436562073669
 30
0.0
  9
$EXTMAX
 10
130.0
 20
105.0
 30
0.0
  9
$LIMMIN
 10
0.0
 20
0.0
  9
$LIMMAX
 10
187.5
 20
135.0
  9
$ORTHOMODE
 70
     1
  9
$REGENMODE
 70
     1
  9
$FILLMODE
 70
     1
  9
$QTEXTMODE
 70
     0
  9
$MIRRTEXT
 70
     0
  9
$DRAGMODE
 70
     2
  9
$LTSCALE
 40
5.0
  9
$OSMODE
 70
    37
  9
$ATTMODE
 70
     1
  9
$TEXTSIZE
 40
2.0000000000000502
  9
$TRACEWID
 40
0.05
  9
$TEXTSTYLE
  7
STANDARD
  9
$CLAYER
  8
0
  9
$CELTYPE
  6
BYLAYER
  9
$CECOLOR
 62
   256
  9
$DIMSCALE
 40
0.5
  9
$DIMASZ
 40
3.0
  9
$DIMEXO
 40
2.0
  9
$DIMDLI
 40
0.38
  9
$DIMRND
 40
0.0
  9
$DIMDLE
 40
0.0
  9
$DIMEXE
 40
2.0
  9
$DIMTP
 40
0.0
  9
$DIMTM
 40
0.0
  9
$DIMTXT
 40
3.2000000000000002
  9
$DIMCEN
 40
0.0
  9
$DIMTSZ
 40
0.0
  9
$DIMTOL
 70
     0
  9
$DIMLIM
 70
     0
  9
$DIMTIH
 70
     0
  9
$DIMTOH
 70
     0
  9
$DIMSE1
 70
     0
  9
$DIMSE2
 70
     0
  9
$DIMTAD
 70
     1
  9
$DIMZIN
 70
     0
  9
$DIMBLK
  1

  9
$DIMASO
 70
     1
  9
$DIMSHO
 70
     0
  9
$DIMPOST
  1

  9
$DIMAPOST
  1

  9
$DIMALT
 70
     0
  9
$DIMALTD
 70
     2
  9
$DIMALTF
 40
25.399999999999999
  9
$DIMLFAC
 40
1.0
  9
$DIMTOFL
 70
     1
  9
$DIMTVP
 40
1.6000000000000001
  9
$DIMTIX
 70
     1
  9
$DIMSOXD
 70
     0
  9
$DIMSAH
 70
     0
  9
$DIMBLK1
  1

  9
$DIMBLK2
  1

  9
$DIMSTYLE
  2
STANDARD
  9
$DIMCLRD
 70
     0
  9
$DIMCLRE
 70
     0
  9
$DIMCLRT
 70
     0
  9
$DIMTFAC
 40
1.0
  9
$DIMGAP
 40
0.09
  9
$LUNITS
 70
     2
  9
$LUPREC
 70
     4
  9
$SKETCHINC
 40
0.1
  9
$FILLETRAD
 40
0.0
  9
$AUNITS
 70
     0
  9
$AUPREC
 70
     4
  9
$MENU
  1
E:\r13\win\SUPPORT\ACAD
  9
$ELEVATION
 40
0.0
  9
$PELEVATION
 40
0.0
  9
$THICKNESS
 40
0.0
  9
$LIMCHECK
 70
     0
  9
$BLIPMODE
 70
     0
  9
$CHAMFERA
 40
0.0
  9
$CHAMFERB
 40
0.0
  9
$SKPOLY
 70
     0
  9
$TDCREATE
 40
2449839.7948148148
  9
$TDUPDATE
 40
2458249.5925996411
  9
$TDINDWG
 40
0.0248787037
  9
$TDUSRTIMER
 40
0.0248787037
  9
$USRTIMER
 70
     1
  9
$ANGBASE
 50
0.0
  9
$ANGDIR
 70
     0
  9
$PDMODE
 70
     0
  9
$PDSIZE
 40
0.0
  9
$PLINEWID
 40
0.0
  9
$COORDS
 70
     1
  9
$SPLFRAME
 70
     0
  9
$SPLINETYPE
 70
     6
  9
$SPLINESEGS
 70
     8
  9
$ATTDIA
 70
     0
  9
$ATTREQ
 70
     1
  9
$HANDLING
 70
     1
  9
$HANDSEED
  5
78E
  9
$SURFTAB1
 70
     6
  9
$SURFTAB2
 70
     6
  9
$SURFTYPE
 70
     6
  9
$SURFU
 70
     6
  9
$SURFV
 70
     6
  9
$UCSNAME
  2

  9
$UCSORG
 10
0.0
 20
0.0
 30
0.0
  9
$UCSXDIR
 10
1.0
 20
0.0
 30
0.0
  9
$UCSYDIR
 10
0.0
 20
1.0
 30
0.0
  9
$PUCSNAME
  2

  9
$PUCSORG
 10
0.0
 20
0.0
 30
0.0
  9
$PUCSXDIR
 10
1.0
 20
0.0
 30
0.0
  9
$PUCSYDIR
 10
0.0
 20
1.0
 30
0.0
  9
$USERI1
 70
     0
  9
$USERI2
 70
     1
  9
$USERI3
 70
     1
  9
$USERI4
 70
     0
  9
$USERI5
 70
     0
  9
$USERR1
 40
0.0
  9
$USERR2
 40
0.0
  9
$USERR3
 40
0.0
  9
$USERR4
 40
0.0
  9
$USERR5
 40
0.0
  9
$WORLDVIEW
 70
     1
  9
$SHADEDGE
 70
     3
  9
$SHADEDIF
 70
    70
  9
$TILEMODE
 70
     1
  9
$MAXACTVP
 70
    16
  9
$PLIMCHECK
 70
     0
  9
$PEXTMIN
 10
1.0000000000000000E+020
 20
1.0000000000000000E+020
 30
1.0000000000000000E+020
  9
$PEXTMAX
 10
-1.0000000000000000E+020
 20
-1.0000000000000000E+020
 30
-1.0000000000000000E+020
  9
$PLIMMIN
 10
0.0
 20
0.0
  9
$PLIMMAX
 10
12.0
 20
9.0
  9
$UNITMODE
 70
     0
  9
$VISRETAIN
 70
     0
  9
$PLINEGEN
 70
     0
  9
$PSLTSCALE
 70
     0
  0
ENDSEC
  0
SECTION
  2
TABLES
  0
TABLE
  2
VPORT
 70
     1
  0
VPORT
  2
*ACTIVE
 70
     0
 10
0.0
 20
0.0
 11
1.0
 21
1.0
 12
71.054710407033269
 22
51.016090978233912
 13
0.0
 23
0.0
 14
5.0
 24
5.0
 15
5.0
 25
5.0
 16
0.0
 26
0.0
 36
1.0
 17
0.0
 27
0.0
 37
0.0
 40
109.5344003459731
 41
2.0984455958549222
 42
50.0
 43
0.0
 44
0.0
 50
0.0
 51
0.0
 71
     0
 72
   500
 73
     1
 74
     0
 75
     0
 76
     0
 77
     0
 78
     2
  0
ENDTAB
  0
TABLE
  2
LTYPE
 70
     4
  0
LTYPE
  2
CONTINUOUS
 70
     0
  3
Solid Line
 72
    65
 73
     0
 40
0.0
  0
LTYPE
  2
CENTER
 70
     0
  3
____ _ ____ _ ____ _ ____ _ ____ _ ____ _ ____
 72
    65
 73
     4
 40
2.0
 49
1.25
 49
-0.25
 49
0.25
 49
-0.25
  0
LTYPE
  2
PHANTOM2
 70
     0
  3
___ _ _ ___ _ _ ___ _ _ ___ _ _
 72
    65
 73
     6
 40
1.25
 49
0.625
 49
-0.125
 49
0.125
 49
-0.125
 49
0.125
 49
-0.125
  0
LTYPE
  2
HIDDEN
 70
     0
  3
Hidden __ __ __ __ __ __ __ __ __ __ __ __ __ __
 72
    65
 73
     2
 40
1.905
 49
1.27
 49
-0.635
  0
ENDTAB
  0
TABLE
  2
LAYER
 70
     4
  0
LAYER
  2
0
 70
     0
 62
     7
  6
CONTINUOUS
  0
LAYER
  2
1
 70
     0
 62
     1
  6
CENTER
  0
LAYER
  2
3
 70
     0
 62
     3
  6
CONTINUOUS
  0
LAYER
  2
2
 70
     0
 62
     2
  6
HIDDEN
  0
ENDTAB
  0
TABLE
  2
STYLE
 70
     3
  0
STYLE
  2
STANDARD
 70
     0
 40
0.0
 41
1.0
 50
0.0
 71
     0
 42
2.0000000000000502
  3
TXT
  4
BIGFONT
  0
STYLE
  2
SIM180
 70
     0
 40
0.0
 41
1.8
 50
0.0
 71
     0
 42
0.8
  3
SIMPLEX
  4

  0
STYLE
  2
STANDARD1
 70
     0
 40
0.0
 41
1.0
 50
0.0
 71
     0
 42
3.0
  3
txt
  4

  0
ENDTAB
  0
TABLE
  2
VIEW
 70
     1
  0
VIEW
  2
ALL
 70
     0
 40
175.0
 10
143.23529411764699
 20
87.5
 41
0.0
 11
0.0
 21
0.0
 31
1.0
 12
0.0
 22
0.0
 32
0.0
 42
0.0
 43
0.0
 44
0.0
 50
0.0
 71
     0
  0
ENDTAB
  0
TABLE
  2
UCS
 70
     0
  0
ENDTAB
  0
TABLE
  2
APPID
 70
     4
  0
APPID
  2
ACAD
 70
     0
  0
APPID
  2
ACAD_MLEADERVER
 70
     0
  0
APPID
  2
ACAD_EXEMPT_FROM_CAD_STANDARDS
 70
     0
  0
APPID
  2
ACAD_NAV_VCDISPLAY
 70
     0
  0
ENDTAB
  0
TABLE
  2
DIMSTYLE
 70
     2
  0
DIMSTYLE
  2
STANDARD
 70
     0
  3

  4

  5

  6

  7

 40
1.0
 41
0.18
 42
0.0625
 43
0.38
 44
0.18
 45
0.0
 46
0.0
 47
0.0
 48
0.0
140
0.18
141
0.09
142
0.0
143
25.399999999999999
144
1.0
145
0.0
146
1.0
147
0.09
 71
     0
 72
     0
 73
     1
 74
     1
 75
     0
 76
     0
 77
     0
 78
     0
170
     0
171
     2
172
     0
173
     0
174
     0
175
     0
176
     0
177
     0
178
     0
  0
DIMSTYLE
  2
ISO-25
 70
     0
  3

  4

  5

  6

  7

 40
1.0
 41
2.5
 42
0.625
 43
3.75
 44
1.25
 45
0.0
 46
0.0
 47
0.0
 48
0.0
140
2.5
141
2.5
142
0.0
143
0.0393700787
144
1.0
145
0.0
146
1.0
147
0.625
 71
     0
 72
     0
 73
     0
 74
     0
 75
     0
 76
     0
 77
     1
 78
     8
170
     0
171
     3
172
     1
173
     0
174
     0
175
     0
176
     0
177
     0
178
     0
  0
ENDTAB
  0
ENDSEC
  0
SECTION
  2
BLOCKS
  0
BLOCK
  8
0
  2
$MODEL_SPACE
 70
     0
 10
0.0
 20
0.0
 30
0.0
  3
$MODEL_SPACE
  1

  0
ENDBLK
  5
117
  8
0
  0
BLOCK
 67
     1
  8
0
  2
$PAPER_SPACE
 70
     0
 10
0.0
 20
0.0
 30
0.0
  3
$PAPER_SPACE
  1

  0
ENDBLK
  5
115
 67
     1
  8
0
  0
ENDSEC
  0
SECTION
  2
ENTITIES
  0
TEXT
  5
203
  8
0
 62
     3
 10
0.0
 20
0.0
 30
0.0
 40
10.0
  1
SPS-1/8
  7
STANDARD1
  0
LINE
  5
2D2
  8
0
 10
74.5
 20
90.0
 30
0.0
 11
77.5
 21
90.0
 31
0.0
  0
LINE
  5
2D3
  8
0
 10
77.5
 20
105.0
 30
0.0
 11
74.5
 21
105.0
 31
0.0
  0
LINE
  5
2D4
  8
0
 10
74.5
 20
105.0
 30
0.0
 11
73.5
 21
104.0
 31
0.0
  0
LINE
  5
2D5
  8
0
 10
73.5
 20
91.0
 30
0.0
 11
74.5
 21
90.0
 31
0.0
  0
ARC
  5
2D6
  8
0
 10
76.850000000000023
 20
92.450000000000017
 30
0.0
 40
0.9500000000000221
 50
313.17355110729852
 51
0.0
  0
ARC
  5
2D7
  8
0
 10
76.850000000000023
 20
102.55
 30
0.0
 40
0.9500000000000172
 50
0.0
 51
46.826448892701471
  0
LINE
  5
2D8
  8
0
 10
77.800000000000011
 20
92.450000000000017
 30
0.0
 11
77.800000000000011
 21
102.55
 31
0.0
  0
LINE
  5
2D9
  8
0
 10
79.199999999999989
 20
92.635999999999996
 30
0.0
 11
85.918999999999983
 21
92.635999999999996
 31
0.0
  0
LINE
  5
2DA
  8
0
 10
85.918999999999983
 20
102.364
 30
0.0
 11
79.199999999999989
 21
102.364
 31
0.0
  0
LINE
  5
2DB
  8
0
 10
85.918999999999983
 20
92.635999999999996
 30
0.0
 11
86.5
 21
93.217000000000013
 31
0.0
  0
LINE
  5
2DC
  8
0
 10
86.5
 20
101.783
 30
0.0
 11
85.918999999999983
 21
102.364
 31
0.0
  0
LINE
  5
2DD
  8
0
 10
77.800000000000011
 20
93.400000000000006
 30
0.0
 11
79.199999999999989
 21
93.400000000000006
 31
0.0
  0
LINE
  5
2DE
  8
0
 10
79.199999999999989
 20
101.59999999999999
 30
0.0
 11
77.800000000000011
 21
101.59999999999999
 31
0.0
  0
LINE
  5
2DF
  8
0
 10
74.5
 20
105.0
 30
0.0
 11
74.5
 21
90.0
 31
0.0
  0
LINE
  5
2E2
  8
0
 10
77.5
 20
90.0
 30
0.0
 11
77.5
 21
105.0
 31
0.0
  0
LINE
  5
2E4
  8
0
 10
73.5
 20
91.0
 30
0.0
 11
73.5
 21
104.0
 31
0.0
  0
LINE
  5
2E6
  8
0
 10
79.199999999999989
 20
92.635999999999996
 30
0.0
 11
79.199999999999989
 21
102.364
 31
0.0
  0
LINE
  5
2E7
  8
0
 10
85.918999999999983
 20
92.635999999999996
 30
0.0
 11
85.918999999999983
 21
102.364
 31
0.0
  0
LINE
  5
2E8
  8
0
 10
86.5
 20
101.783
 30
0.0
 11
86.5
 21
93.217000000000013
 31
0.0
  0
LINE
  5
2E9
  8
2
 10
78.5
 20
95.500000000000014
 30
0.0
 11
78.5
 21
99.500000000000014
 31
0.0
  0
LINE
  5
2EA
  8
2
 10
78.5
 20
97.500000000000028
 30
0.0
 11
73.5
 21
97.500000000000028
 31
0.0
  0
LINE
  5
2EC
  8
2
 10
78.5
 20
95.500000000000014
 30
0.0
 11
73.5
 21
95.500000000000014
 31
0.0
  0
LINE
  5
2ED
  8
2
 10
78.5
 20
99.500000000000014
 30
0.0
 11
73.5
 21
99.500000000000014
 31
0.0
  0
CIRCLE
  5
2F2
  8
0
 10
40.0
 20
57.500000000000021
 30
0.0
 40
6.4999999999988631
  0
CIRCLE
  5
2F3
  8
0
 10
40.0
 20
57.500000000000021
 30
0.0
 40
7.5
  0
LINE
  5
2F4
  8
0
 10
38.0
 20
58.654700538400007
 30
0.0
 11
38.0
 21
56.345299461600028
 31
0.0
  0
LINE
  5
2F5
  8
0
 10
38.0
 20
56.345299461600028
 30
0.0
 11
40.0
 21
55.190598923300023
 31
0.0
  0
LINE
  5
2F6
  8
0
 10
40.0
 20
55.190598923300023
 30
0.0
 11
42.0
 21
56.345299461600028
 31
0.0
  0
LINE
  5
2F7
  8
0
 10
42.0
 20
56.345299461600028
 30
0.0
 11
42.0
 21
58.654700538400007
 31
0.0
  0
LINE
  5
2F8
  8
0
 10
42.0
 20
58.654700538400007
 30
0.0
 11
40.0
 21
59.80940107670002
 31
0.0
  0
LINE
  5
2F9
  8
0
 10
40.0
 20
59.80940107670002
 30
0.0
 11
38.0
 21
58.654700538400007
 31
0.0
  0
CIRCLE
  5
2FF
  8
0
 10
120.0
 20
57.500000000000021
 30
0.0
 40
4.8639999999999901
  0
CIRCLE
  5
301
  8
0
 10
120.0
 20
57.500000000000021
 30
0.0
 40
5.7428203230275576
  0
CIRCLE
  5
302
  8
0
 10
120.0
 20
57.500000000000021
 30
0.0
 40
7.5000000000000133
  0
LINE
  5
32A
  8
0
 10
74.5
 20
50.000000000000021
 30
0.0
 11
77.5
 21
50.000000000000021
 31
0.0
  0
LINE
  5
32B
  8
0
 10
77.5
 20
65.000000000000028
 30
0.0
 11
74.5
 21
65.000000000000028
 31
0.0
  0
LINE
  5
32C
  8
0
 10
74.5
 20
65.000000000000028
 30
0.0
 11
73.5
 21
64.000000000000028
 31
0.0
  0
LINE
  5
32D
  8
0
 10
73.5
 20
51.000000000000021
 30
0.0
 11
74.5
 21
50.000000000000021
 31
0.0
  0
ARC
  5
32E
  8
0
 10
76.850000000000023
 20
52.450000000000003
 30
0.0
 40
0.9500000000000172
 50
313.17355110729852
 51
0.0
  0
ARC
  5
32F
  8
0
 10
76.850000000000023
 20
62.550000000000033
 30
0.0
 40
0.9500000000000172
 50
0.0
 51
46.826448892701471
  0
LINE
  5
330
  8
0
 10
77.800000000000011
 20
52.450000000000003
 30
0.0
 11
77.800000000000011
 21
62.550000000000033
 31
0.0
  0
LINE
  5
331
  8
0
 10
79.199999999999989
 20
52.636000000000038
 30
0.0
 11
85.918999999999983
 21
52.636000000000038
 31
0.0
  0
LINE
  5
332
  8
0
 10
85.918999999999983
 20
62.364000000000033
 30
0.0
 11
79.199999999999989
 21
62.364000000000033
 31
0.0
  0
LINE
  5
333
  8
0
 10
85.918999999999983
 20
52.636000000000038
 30
0.0
 11
86.5
 21
53.216999999999999
 31
0.0
  0
LINE
  5
334
  8
0
 10
86.5
 20
61.78300000000003
 30
0.0
 11
85.918999999999983
 21
62.364000000000033
 31
0.0
  0
LINE
  5
335
  8
0
 10
77.800000000000011
 20
53.400000000000027
 30
0.0
 11
79.199999999999989
 21
53.400000000000027
 31
0.0
  0
LINE
  5
336
  8
0
 10
79.199999999999989
 20
61.600000000000037
 30
0.0
 11
77.800000000000011
 21
61.600000000000037
 31
0.0
  0
LINE
  5
337
  8
0
 10
74.5
 20
65.000000000000028
 30
0.0
 11
74.5
 21
50.000000000000021
 31
0.0
  0
LINE
  5
338
  8
0
 10
77.5
 20
50.000000000000021
 30
0.0
 11
77.5
 21
65.000000000000028
 31
0.0
  0
LINE
  5
339
  8
0
 10
73.5
 20
51.000000000000021
 30
0.0
 11
73.5
 21
64.000000000000028
 31
0.0
  0
LINE
  5
33A
  8
0
 10
79.199999999999989
 20
52.636000000000038
 30
0.0
 11
79.199999999999989
 21
62.364000000000033
 31
0.0
  0
LINE
  5
33B
  8
0
 10
85.918999999999983
 20
52.636000000000038
 30
0.0
 11
85.918999999999983
 21
62.364000000000033
 31
0.0
  0
LINE
  5
33C
  8
0
 10
86.5
 20
61.78300000000003
 30
0.0
 11
86.5
 21
53.216999999999999
 31
0.0
  0
LINE
  5
33D
  8
2
 10
78.5
 20
55.190598923300023
 30
0.0
 11
78.5
 21
59.80940107670002
 31
0.0
  0
LINE
  5
33E
  8
2
 10
78.5
 20
56.345299461600028
 30
0.0
 11
73.5
 21
56.345299461600028
 31
0.0
  0
LINE
  5
340
  8
2
 10
78.5
 20
58.654700538400007
 30
0.0
 11
73.5
 21
58.654700538400007
 31
0.0
  0
LINE
  5
342
  8
2
 10
78.5
 20
59.80940107670002
 30
0.0
 11
73.5
 21
59.80940107670002
 31
0.0
  0
LINE
  5
343
  8
2
 10
78.5
 20
55.190598923300023
 30
0.0
 11
73.5
 21
55.190598923300023
 31
0.0
  0
LINE
  5
491
  8
1
 10
71.0
 20
57.500000000000021
 30
0.0
 11
89.0
 21
57.500000000000021
 31
0.0
  0
LINE
  5
492
  8
1
 10
71.0
 20
97.500000000000028
 30
0.0
 11
89.0
 21
97.500000000000028
 31
0.0
  0
LINE
  5
493
  8
1
 10
30.0
 20
57.500000000000021
 30
0.0
 11
50.0
 21
57.500000000000021
 31
0.0
  0
LINE
  5
494
  8
1
 10
40.0
 20
67.500000000000028
 30
0.0
 11
40.0
 21
47.500000000000021
 31
0.0
  0
LINE
  5
495
  8
1
 10
110.0
 20
57.500000000000021
 30
0.0
 11
130.0
 21
57.500000000000021
 31
0.0
  0
LINE
  5
496
  8
1
 10
120.0
 20
67.500000000000028
 30
0.0
 11
120.0
 21
47.5
 31
0.0
  0
CIRCLE
  5
497
  8
3
 10
120.0
 20
57.50000000000334
 30
0.0
 40
4.2830000000000004
  0
LINE
  5
499
  8
3
 10
86.5
 20
61.783000000003341
 30
0.0
 11
79.199999999999989
 21
61.783000000003341
 31
0.0
  0
LINE
  5
49A
  8
3
 10
86.499999999999943
 20
53.217000000003331
 30
0.0
 11
79.199999999999932
 21
53.217000000003331
 31
0.0
  0
LINE
  5
49B
  8
0
 10
74.499999999999986
 20
10.0
 30
0.0
 11
77.499999999999986
 21
10.0
 31
0.0
  0
LINE
  5
49C
  8
0
 10
77.499999999999986
 20
25.000000000000028
 30
0.0
 11
74.499999999999986
 21
25.000000000000028
 31
0.0
  0
LINE
  5
49D
  8
0
 10
74.499999999999986
 20
25.000000000000028
 30
0.0
 11
73.499999999999986
 21
24.000000000000028
 31
0.0
  0
LINE
  5
49E
  8
0
 10
73.499999999999986
 20
11.0
 30
0.0
 11
74.499999999999986
 21
10.0
 31
0.0
  0
ARC
  5
49F
  8
0
 10
76.850000000000009
 20
12.450000000000021
 30
0.0
 40
0.9500000000000221
 50
313.17355110729852
 51
0.0
  0
ARC
  5
4A0
  8
0
 10
76.850000000000009
 20
22.54999999999999
 30
0.0
 40
0.9500000000000172
 50
0.0
 51
46.826448892701471
  0
LINE
  5
4A1
  8
0
 10
77.799999999999997
 20
12.450000000000021
 30
0.0
 11
77.799999999999997
 21
22.54999999999999
 31
0.0
  0
LINE
  5
4A2
  8
0
 10
79.199999999999974
 20
12.63599999999999
 30
0.0
 11
85.918999999999969
 21
12.63599999999999
 31
0.0
  0
LINE
  5
4A3
  8
0
 10
85.918999999999969
 20
22.364000000000011
 30
0.0
 11
79.199999999999974
 21
22.364000000000011
 31
0.0
  0
LINE
  5
4A4
  8
0
 10
85.918999999999969
 20
12.63599999999999
 30
0.0
 11
86.499999999999986
 21
13.217000000000009
 31
0.0
  0
LINE
  5
4A5
  8
0
 10
86.499999999999986
 20
21.783000000000051
 30
0.0
 11
85.918999999999969
 21
22.364000000000011
 31
0.0
  0
LINE
  5
4A6
  8
0
 10
77.799999999999997
 20
13.4
 30
0.0
 11
79.199999999999974
 21
13.4
 31
0.0
  0
LINE
  5
4A7
  8
0
 10
79.199999999999974
 20
21.600000000000001
 30
0.0
 11
77.799999999999997
 21
21.600000000000001
 31
0.0
  0
LINE
  5
4A8
  8
0
 10
74.499999999999986
 20
25.000000000000028
 30
0.0
 11
74.499999999999986
 21
10.0
 31
0.0
  0
LINE
  5
4A9
  8
0
 10
77.499999999999986
 20
10.0
 30
0.0
 11
77.499999999999986
 21
25.000000000000028
 31
0.0
  0
LINE
  5
4AA
  8
0
 10
73.499999999999986
 20
11.0
 30
0.0
 11
73.499999999999986
 21
24.000000000000028
 31
0.0
  0
LINE
  5
4AB
  8
0
 10
79.199999999999974
 20
12.63599999999999
 30
0.0
 11
79.199999999999974
 21
22.364000000000019
 31
0.0
  0
LINE
  5
4AC
  8
0
 10
85.918999999999969
 20
12.63599999999999
 30
0.0
 11
85.918999999999969
 21
22.364000000000011
 31
0.0
  0
LINE
  5
4AD
  8
0
 10
86.499999999999986
 20
21.783000000000051
 30
0.0
 11
86.499999999999986
 21
13.217000000000009
 31
0.0
  0
LINE
  5
4AE
  8
2
 10
78.499999999999986
 20
15.50000000000003
 30
0.0
 11
78.499999999999986
 21
19.500000000000028
 31
0.0
  0
LINE
  5
4AF
  8
2
 10
78.499999999999986
 20
17.500000000000028
 30
0.0
 11
73.499999999999986
 21
17.500000000000028
 31
0.0
  0
LINE
  5
4B0
  8
2
 10
78.499999999999986
 20
15.50000000000003
 30
0.0
 11
73.499999999999986
 21
15.50000000000003
 31
0.0
  0
LINE
  5
4B1
  8
2
 10
78.499999999999986
 20
19.500000000000028
 30
0.0
 11
73.499999999999986
 21
19.500000000000028
 31
0.0
  0
LINE
  5
4B2
  8
1
 10
70.999999999999986
 20
17.500000000000011
 30
0.0
 11
88.999999999999986
 21
17.500000000000028
 31
0.0
  0
LINE
  5
545
  8
3
 10
86.5
 20
101.7830000000033
 30
0.0
 11
79.199999999999989
 21
101.7830000000033
 31
0.0
  0
LINE
  5
546
  8
3
 10
86.499999999999943
 20
93.217000000003324
 30
0.0
 11
79.199999999999932
 21
93.217000000003324
 31
0.0
  0
LINE
  5
547
  8
3
 10
86.499999999999986
 20
21.783000000003351
 30
0.0
 11
79.199999999999974
 21
21.783000000003351
 31
0.0
  0
LINE
  5
548
  8
3
 10
86.499999999999929
 20
13.21700000000334
 30
0.0
 11
79.199999999999903
 21
13.21700000000334
 31
0.0
  0
ENDSEC
  0
EOF
