  0
SECTION
  2
HEADER
  9
$ACADVER
  1
AC1009
  9
$INSBASE
 10
0.0
 20
0.0
 30
0.0
  9
$EXTMIN
 10
0.0
 20
-2.960436562073669
 30
0.0
  9
$EXTMAX
 10
237.0
 20
212.0
 30
0.0
  9
$LIMMIN
 10
0.0
 20
0.0
  9
$LIMMAX
 10
187.5
 20
135.0
  9
$ORTHOMODE
 70
     1
  9
$REGENMODE
 70
     1
  9
$FILLMODE
 70
     1
  9
$QTEXTMODE
 70
     0
  9
$MIRRTEXT
 70
     0
  9
$DRAGMODE
 70
     2
  9
$LTSCALE
 40
5.0
  9
$OSMODE
 70
    37
  9
$ATTMODE
 70
     1
  9
$TEXTSIZE
 40
2.0000000000000502
  9
$TRACEWID
 40
0.05
  9
$TEXTSTYLE
  7
STANDARD
  9
$CLAYER
  8
0
  9
$CELTYPE
  6
BYLAYER
  9
$CECOLOR
 62
   256
  9
$DIMSCALE
 40
0.5
  9
$DIMASZ
 40
3.0
  9
$DIMEXO
 40
2.0
  9
$DIMDLI
 40
0.38
  9
$DIMRND
 40
0.0
  9
$DIMDLE
 40
0.0
  9
$DIMEXE
 40
2.0
  9
$DIMTP
 40
0.0
  9
$DIMTM
 40
0.0
  9
$DIMTXT
 40
3.2000000000000002
  9
$DIMCEN
 40
0.0
  9
$DIMTSZ
 40
0.0
  9
$DIMTOL
 70
     0
  9
$DIMLIM
 70
     0
  9
$DIMTIH
 70
     0
  9
$DIMTOH
 70
     0
  9
$DIMSE1
 70
     0
  9
$DIMSE2
 70
     0
  9
$DIMTAD
 70
     1
  9
$DIMZIN
 70
     0
  9
$DIMBLK
  1

  9
$DIMASO
 70
     1
  9
$DIMSHO
 70
     0
  9
$DIMPOST
  1

  9
$DIMAPOST
  1

  9
$DIMALT
 70
     0
  9
$DIMALTD
 70
     2
  9
$DIMALTF
 40
25.399999999999999
  9
$DIMLFAC
 40
1.0
  9
$DIMTOFL
 70
     1
  9
$DIMTVP
 40
1.6000000000000001
  9
$DIMTIX
 70
     1
  9
$DIMSOXD
 70
     0
  9
$DIMSAH
 70
     0
  9
$DIMBLK1
  1

  9
$DIMBLK2
  1

  9
$DIMSTYLE
  2
STANDARD
  9
$DIMCLRD
 70
     0
  9
$DIMCLRE
 70
     0
  9
$DIMCLRT
 70
     0
  9
$DIMTFAC
 40
1.0
  9
$DIMGAP
 40
0.09
  9
$LUNITS
 70
     2
  9
$LUPREC
 70
     4
  9
$SKETCHINC
 40
0.1
  9
$FILLETRAD
 40
0.0
  9
$AUNITS
 70
     0
  9
$AUPREC
 70
     4
  9
$MENU
  1
E:\r13\win\SUPPORT\ACAD
  9
$ELEVATION
 40
0.0
  9
$PELEVATION
 40
0.0
  9
$THICKNESS
 40
0.0
  9
$LIMCHECK
 70
     0
  9
$BLIPMODE
 70
     0
  9
$CHAMFERA
 40
0.0
  9
$CHAMFERB
 40
0.0
  9
$SKPOLY
 70
     0
  9
$TDCREATE
 40
2449839.7947800928
  9
$TDUPDATE
 40
2458249.5926071182
  9
$TDINDWG
 40
0.0137944676
  9
$TDUSRTIMER
 40
0.0137944676
  9
$USRTIMER
 70
     1
  9
$ANGBASE
 50
0.0
  9
$ANGDIR
 70
     0
  9
$PDMODE
 70
     0
  9
$PDSIZE
 40
0.0
  9
$PLINEWID
 40
0.0
  9
$COORDS
 70
     1
  9
$SPLFRAME
 70
     0
  9
$SPLINETYPE
 70
     6
  9
$SPLINESEGS
 70
     8
  9
$ATTDIA
 70
     0
  9
$ATTREQ
 70
     1
  9
$HANDLING
 70
     1
  9
$HANDSEED
  5
52A
  9
$SURFTAB1
 70
     6
  9
$SURFTAB2
 70
     6
  9
$SURFTYPE
 70
     6
  9
$SURFU
 70
     6
  9
$SURFV
 70
     6
  9
$UCSNAME
  2

  9
$UCSORG
 10
0.0
 20
0.0
 30
0.0
  9
$UCSXDIR
 10
1.0
 20
0.0
 30
0.0
  9
$UCSYDIR
 10
0.0
 20
1.0
 30
0.0
  9
$PUCSNAME
  2

  9
$PUCSORG
 10
0.0
 20
0.0
 30
0.0
  9
$PUCSXDIR
 10
1.0
 20
0.0
 30
0.0
  9
$PUCSYDIR
 10
0.0
 20
1.0
 30
0.0
  9
$USERI1
 70
     0
  9
$USERI2
 70
     1
  9
$USERI3
 70
     1
  9
$USERI4
 70
     0
  9
$USERI5
 70
     0
  9
$USERR1
 40
0.0
  9
$USERR2
 40
0.0
  9
$USERR3
 40
0.0
  9
$USERR4
 40
0.0
  9
$USERR5
 40
0.0
  9
$WORLDVIEW
 70
     1
  9
$SHADEDGE
 70
     3
  9
$SHADEDIF
 70
    70
  9
$TILEMODE
 70
     1
  9
$MAXACTVP
 70
    16
  9
$PLIMCHECK
 70
     0
  9
$PEXTMIN
 10
1.0000000000000000E+020
 20
1.0000000000000000E+020
 30
1.0000000000000000E+020
  9
$PEXTMAX
 10
-1.0000000000000000E+020
 20
-1.0000000000000000E+020
 30
-1.0000000000000000E+020
  9
$PLIMMIN
 10
0.0
 20
0.0
  9
$PLIMMAX
 10
12.0
 20
9.0
  9
$UNITMODE
 70
     0
  9
$VISRETAIN
 70
     0
  9
$PLINEGEN
 70
     0
  9
$PSLTSCALE
 70
     0
  0
ENDSEC
  0
SECTION
  2
TABLES
  0
TABLE
  2
VPORT
 70
     1
  0
VPORT
  2
*ACTIVE
 70
     0
 10
0.0
 20
0.0
 11
1.0
 21
1.0
 12
130.5463520419728
 22
104.5217039928483
 13
0.0
 23
0.0
 14
5.0
 24
5.0
 15
5.0
 25
5.0
 16
0.0
 26
0.0
 36
1.0
 17
0.0
 27
0.0
 37
0.0
 40
218.0829645378077
 41
2.0984455958549222
 42
50.0
 43
0.0
 44
0.0
 50
0.0
 51
0.0
 71
     0
 72
   500
 73
     1
 74
     0
 75
     0
 76
     0
 77
     0
 78
     2
  0
ENDTAB
  0
TABLE
  2
LTYPE
 70
     4
  0
LTYPE
  2
CONTINUOUS
 70
     0
  3
Solid Line
 72
    65
 73
     0
 40
0.0
  0
LTYPE
  2
CENTER
 70
     0
  3
____ _ ____ _ ____ _ ____ _ ____ _ ____ _ ____
 72
    65
 73
     4
 40
2.0
 49
1.25
 49
-0.25
 49
0.25
 49
-0.25
  0
LTYPE
  2
PHANTOM2
 70
     0
  3
___ _ _ ___ _ _ ___ _ _ ___ _ _
 72
    65
 73
     6
 40
1.25
 49
0.625
 49
-0.125
 49
0.125
 49
-0.125
 49
0.125
 49
-0.125
  0
LTYPE
  2
HIDDEN
 70
     0
  3
Hidden __ __ __ __ __ __ __ __ __ __ __ __ __ __
 72
    65
 73
     2
 40
1.905
 49
1.27
 49
-0.635
  0
ENDTAB
  0
TABLE
  2
LAYER
 70
     4
  0
LAYER
  2
0
 70
     0
 62
     7
  6
CONTINUOUS
  0
LAYER
  2
1
 70
     0
 62
     1
  6
CENTER
  0
LAYER
  2
3
 70
     0
 62
     3
  6
CONTINUOUS
  0
LAYER
  2
2
 70
     0
 62
     2
  6
HIDDEN
  0
ENDTAB
  0
TABLE
  2
STYLE
 70
     3
  0
STYLE
  2
STANDARD
 70
     0
 40
0.0
 41
1.0
 50
0.0
 71
     0
 42
2.0000000000000502
  3
TXT
  4
BIGFONT
  0
STYLE
  2
SIM180
 70
     0
 40
0.0
 41
1.8
 50
0.0
 71
     0
 42
0.8
  3
SIMPLEX
  4

  0
STYLE
  2
STANDARD1
 70
     0
 40
0.0
 41
1.0
 50
0.0
 71
     0
 42
3.0
  3
txt
  4

  0
ENDTAB
  0
TABLE
  2
VIEW
 70
     1
  0
VIEW
  2
ALL
 70
     0
 40
175.0
 10
143.23529411764699
 20
87.5
 41
0.0
 11
0.0
 21
0.0
 31
1.0
 12
0.0
 22
0.0
 32
0.0
 42
0.0
 43
0.0
 44
0.0
 50
0.0
 71
     0
  0
ENDTAB
  0
TABLE
  2
UCS
 70
     0
  0
ENDTAB
  0
TABLE
  2
APPID
 70
     4
  0
APPID
  2
ACAD
 70
     0
  0
APPID
  2
ACAD_MLEADERVER
 70
     0
  0
APPID
  2
ACAD_EXEMPT_FROM_CAD_STANDARDS
 70
     0
  0
APPID
  2
ACAD_NAV_VCDISPLAY
 70
     0
  0
ENDTAB
  0
TABLE
  2
DIMSTYLE
 70
     2
  0
DIMSTYLE
  2
STANDARD
 70
     0
  3

  4

  5

  6

  7

 40
1.0
 41
0.18
 42
0.0625
 43
0.38
 44
0.18
 45
0.0
 46
0.0
 47
0.0
 48
0.0
140
0.18
141
0.09
142
0.0
143
25.399999999999999
144
1.0
145
0.0
146
1.0
147
0.09
 71
     0
 72
     0
 73
     1
 74
     1
 75
     0
 76
     0
 77
     0
 78
     0
170
     0
171
     2
172
     0
173
     0
174
     0
175
     0
176
     0
177
     0
178
     0
  0
DIMSTYLE
  2
ISO-25
 70
     0
  3

  4

  5

  6

  7

 40
1.0
 41
2.5
 42
0.625
 43
3.75
 44
1.25
 45
0.0
 46
0.0
 47
0.0
 48
0.0
140
2.5
141
2.5
142
0.0
143
0.0393700787
144
1.0
145
0.0
146
1.0
147
0.625
 71
     0
 72
     0
 73
     0
 74
     0
 75
     0
 76
     0
 77
     1
 78
     8
170
     0
171
     3
172
     1
173
     0
174
     0
175
     0
176
     0
177
     0
178
     0
  0
ENDTAB
  0
ENDSEC
  0
SECTION
  2
BLOCKS
  0
BLOCK
  8
0
  2
$MODEL_SPACE
 70
     0
 10
0.0
 20
0.0
 30
0.0
  3
$MODEL_SPACE
  1

  0
ENDBLK
  5
120
  8
0
  0
BLOCK
 67
     1
  8
0
  2
$PAPER_SPACE
 70
     0
 10
0.0
 20
0.0
 30
0.0
  3
$PAPER_SPACE
  1

  0
ENDBLK
  5
11E
 67
     1
  8
0
  0
ENDSEC
  0
SECTION
  2
ENTITIES
  0
TEXT
  5
20C
  8
0
 62
     3
 10
0.0
 20
0.0
 30
0.0
 40
10.0
  1
SPS-3/4
  7
STANDARD1
  0
LINE
  5
2B3
  8
0
 10
142.33799999999999
 20
182.7794999999999
 30
0.0
 11
143.5
 21
183.94149999999991
 31
0.0
  0
LINE
  5
2B4
  8
0
 10
143.5
 20
208.05850000000001
 30
0.0
 11
142.33799999999999
 21
209.2204999999999
 31
0.0
  0
LINE
  5
2B5
  8
0
 10
143.5
 20
183.94149999999991
 30
0.0
 11
143.5
 21
208.05850000000001
 31
0.0
  0
LINE
  5
2B6
  8
0
 10
142.33799999999999
 20
182.7794999999999
 30
0.0
 11
142.33799999999999
 21
209.2204999999999
 31
0.0
  0
ARC
  5
2B7
  8
2
 10
118.9417332349
 20
192.99999999999989
 30
0.0
 40
5.4569035086536211
 50
326.64929049960091
 51
33.350709500300312
  0
LINE
  5
2B8
  8
2
 10
123.5000000001
 20
195.99999999999989
 30
0.0
 11
133.5
 21
195.99999999999989
 31
0.0
  0
ARC
  5
2B9
  8
2
 10
118.9417332349
 20
198.99999999999989
 30
0.0
 40
5.4569035086656132
 50
326.64929049969959
 51
33.350709500300312
  0
LINE
  5
2BA
  8
2
 10
133.5
 20
189.99999999999989
 30
0.0
 11
133.5
 21
202.0
 31
0.0
  0
LINE
  5
2BB
  8
2
 10
123.5000000001
 20
202.0
 30
0.0
 11
133.5
 21
202.0
 31
0.0
  0
LINE
  5
2BC
  8
2
 10
123.5000000001
 20
189.99999999999989
 30
0.0
 11
133.5
 21
189.99999999999989
 31
0.0
  0
LINE
  5
2BD
  8
2
 10
124.4282032304
 20
202.0
 30
0.0
 11
123.5000000001
 21
202.9282032303
 31
0.0
  0
LINE
  5
2BE
  8
2
 10
123.5000000001
 20
189.07179676969989
 30
0.0
 11
124.4282032304
 21
189.99999999999989
 31
0.0
  0
LINE
  5
2BF
  8
0
 10
42.5
 20
107.53589838489999
 30
0.0
 11
48.5
 21
104.0717967698
 31
0.0
  0
LINE
  5
2C0
  8
0
 10
54.5
 20
114.46410161519999
 30
0.0
 11
48.499999999899977
 21
117.9282032303
 31
0.0
  0
LINE
  5
2C1
  8
0
 10
48.5
 20
117.9282032303
 30
0.0
 11
42.499999999899977
 21
114.46410161519999
 31
0.0
  0
LINE
  5
2C2
  8
0
 10
48.499999999899977
 20
104.0717967698
 30
0.0
 11
54.5
 21
107.53589838489999
 31
0.0
  0
LINE
  5
2C3
  8
0
 10
54.5
 20
107.53589838489999
 30
0.0
 11
54.5
 21
114.46410161519999
 31
0.0
  0
LINE
  5
2C4
  8
0
 10
42.5
 20
114.46410161519999
 30
0.0
 11
42.5
 21
107.53589838489999
 31
0.0
  0
CIRCLE
  5
2C5
  8
0
 10
48.5
 20
111.0
 30
0.0
 40
16.0
  0
CIRCLE
  5
2C6
  8
0
 10
48.5
 20
111.0
 30
0.0
 40
15.0
  0
CIRCLE
  5
2C7
  8
3
 10
218.5
 20
110.9999999999999
 30
0.0
 40
12.0585
  0
CIRCLE
  5
2C8
  8
0
 10
218.5
 20
110.9999999999999
 30
0.0
 40
13.220499999999999
  0
CIRCLE
  5
2C9
  8
0
 10
218.5
 20
110.9999999999999
 30
0.0
 40
13.87249721603219
  0
CIRCLE
  5
2CA
  8
0
 10
218.5
 20
110.9999999999999
 30
0.0
 40
16.0
  0
LINE
  5
2CB
  8
0
 10
124.5
 20
94.999999999999986
 30
0.0
 11
129.5
 21
94.999999999999986
 31
0.0
  0
LINE
  5
2CC
  8
0
 10
129.5
 20
127.0
 30
0.0
 11
124.5
 21
127.0
 31
0.0
  0
LINE
  5
2CD
  8
0
 10
124.5
 20
127.0
 30
0.0
 11
123.5
 21
126.0
 31
0.0
  0
LINE
  5
2CE
  8
0
 10
123.5
 20
95.999999999999972
 30
0.0
 11
124.5
 21
94.999999999999986
 31
0.0
  0
ARC
  5
2CF
  8
0
 10
128.94999999999999
 20
123.75
 30
0.0
 40
1.25
 50
0.0
 51
63.896118862700114
  0
ARC
  5
2D0
  8
0
 10
128.94999999999999
 20
98.249999999999972
 30
0.0
 40
1.250000000000002
 50
296.10388113729988
 51
0.0
  0
LINE
  5
2D1
  8
0
 10
130.19999999999999
 20
98.249999999999972
 30
0.0
 11
130.19999999999999
 21
123.75
 31
0.0
  0
LINE
  5
2D2
  8
0
 10
142.33799999999999
 20
97.779499999999985
 30
0.0
 11
143.5
 21
98.941499999999962
 31
0.0
  0
LINE
  5
2D3
  8
0
 10
143.5
 20
123.0584999999999
 30
0.0
 11
142.33799999999999
 21
124.2204999999999
 31
0.0
  0
LINE
  5
2D4
  8
0
 10
133.0
 20
97.779499999999985
 30
0.0
 11
142.33799999999999
 21
97.779499999999985
 31
0.0
  0
LINE
  5
2D5
  8
0
 10
142.33799999999999
 20
124.2204999999999
 30
0.0
 11
133.0
 21
124.2204999999999
 31
0.0
  0
LINE
  5
2D6
  8
0
 10
130.19999999999999
 20
99.499999999999972
 30
0.0
 11
133.0
 21
99.499999999999972
 31
0.0
  0
LINE
  5
2D7
  8
0
 10
133.0
 20
122.4999999999999
 30
0.0
 11
130.19999999999999
 21
122.4999999999999
 31
0.0
  0
LINE
  5
2D8
  8
0
 10
129.5
 20
94.999999999999986
 30
0.0
 11
129.5
 21
127.0
 31
0.0
  0
LINE
  5
2D9
  8
0
 10
124.5
 20
127.0
 30
0.0
 11
124.5
 21
94.999999999999986
 31
0.0
  0
LINE
  5
2DA
  8
0
 10
123.5
 20
126.0
 30
0.0
 11
123.5
 21
95.999999999999972
 31
0.0
  0
LINE
  5
2DB
  8
0
 10
143.5
 20
98.941499999999962
 30
0.0
 11
143.5
 21
123.0584999999999
 31
0.0
  0
LINE
  5
2DC
  8
0
 10
142.33799999999999
 20
97.779499999999985
 30
0.0
 11
142.33799999999999
 21
124.2204999999999
 31
0.0
  0
LINE
  5
2DD
  8
0
 10
133.0
 20
124.2204999999999
 30
0.0
 11
133.0
 21
97.779499999999985
 31
0.0
  0
LINE
  5
2DE
  8
2
 10
133.5
 20
104.0717967696999
 30
0.0
 11
133.5
 21
117.9282032302999
 31
0.0
  0
LINE
  5
2DF
  8
2
 10
123.5000000001
 20
107.53589838489999
 30
0.0
 11
133.5
 21
107.53589838489999
 31
0.0
  0
ARC
  5
2E0
  8
2
 10
117.3007591002
 20
110.9999999999999
 30
0.0
 40
7.1014496924644641
 50
330.8037821577002
 51
29.196217842199861
  0
LINE
  5
2E1
  8
2
 10
123.5000000001
 20
114.46410161510001
 30
0.0
 11
133.5
 21
114.46410161519989
 31
0.0
  0
ARC
  5
2E2
  8
2
 10
122.2236815051
 20
116.1961524227
 30
0.0
 40
2.1515085174629971
 50
306.38586394460037
 51
53.614136055300477
  0
ARC
  5
2E3
  8
2
 10
122.2236815051
 20
105.8038475773
 30
0.0
 40
2.1515085174516528
 50
306.38586394440011
 51
53.614136055500673
  0
LINE
  5
2E4
  8
2
 10
133.5
 20
104.0717967696999
 30
0.0
 11
123.5000000001
 21
104.0717967697
 31
0.0
  0
LINE
  5
2E5
  8
2
 10
123.5000000001
 20
117.9282032302999
 30
0.0
 11
133.5
 21
117.9282032302999
 31
0.0
  0
LINE
  5
2E6
  8
0
 10
124.5
 20
180.0
 30
0.0
 11
129.5
 21
179.99999999999989
 31
0.0
  0
LINE
  5
2E7
  8
0
 10
129.5
 20
212.0
 30
0.0
 11
124.5
 21
212.0
 31
0.0
  0
LINE
  5
2E8
  8
0
 10
124.5
 20
212.0
 30
0.0
 11
123.5
 21
210.99999999999989
 31
0.0
  0
LINE
  5
2E9
  8
0
 10
123.5
 20
181.0
 30
0.0
 11
124.5
 21
180.0
 31
0.0
  0
ARC
  5
2EA
  8
0
 10
128.94999999999999
 20
208.74999999999989
 30
0.0
 40
1.25
 50
0.0
 51
63.896118862700114
  0
ARC
  5
2EB
  8
0
 10
128.94999999999999
 20
183.24999999999989
 30
0.0
 40
1.250000000000002
 50
296.10388113729988
 51
0.0
  0
LINE
  5
2EC
  8
0
 10
130.19999999999999
 20
183.24999999999989
 30
0.0
 11
130.19999999999999
 21
208.74999999999989
 31
0.0
  0
LINE
  5
2ED
  8
0
 10
133.0
 20
182.7794999999999
 30
0.0
 11
142.33799999999999
 21
182.7794999999999
 31
0.0
  0
LINE
  5
2EE
  8
0
 10
142.33799999999999
 20
209.2204999999999
 30
0.0
 11
133.0
 21
209.2204999999999
 31
0.0
  0
LINE
  5
2EF
  8
0
 10
130.19999999999999
 20
184.49999999999989
 30
0.0
 11
133.0
 21
184.49999999999989
 31
0.0
  0
LINE
  5
2F0
  8
0
 10
133.0
 20
207.49999999999989
 30
0.0
 11
130.19999999999999
 21
207.49999999999989
 31
0.0
  0
LINE
  5
2F1
  8
0
 10
129.5
 20
179.99999999999989
 30
0.0
 11
129.5
 21
212.0
 31
0.0
  0
LINE
  5
2F2
  8
0
 10
124.5
 20
212.0
 30
0.0
 11
124.5
 21
180.0
 31
0.0
  0
LINE
  5
2F3
  8
0
 10
123.5
 20
210.99999999999989
 30
0.0
 11
123.5
 21
181.0
 31
0.0
  0
LINE
  5
2F4
  8
0
 10
133.0
 20
209.2204999999999
 30
0.0
 11
133.0
 21
182.7794999999999
 31
0.0
  0
CIRCLE
  5
2F5
  8
0
 10
48.5
 20
111.0
 30
0.0
 40
6.9282032302566128
  0
LINE
  5
300
  8
1
 10
30.0
 20
111.0
 30
0.0
 11
67.0
 21
111.0
 31
0.0
  0
LINE
  5
301
  8
1
 10
48.5
 20
129.5
 30
0.0
 11
48.5
 21
92.499999999999986
 31
0.0
  0
LINE
  5
302
  8
1
 10
121.0
 20
110.9999999999999
 30
0.0
 11
146.0
 21
110.9999999999999
 31
0.0
  0
LINE
  5
303
  8
1
 10
200.0
 20
110.9999999999999
 30
0.0
 11
237.0
 21
110.9999999999999
 31
0.0
  0
LINE
  5
304
  8
1
 10
218.5
 20
129.49999999999989
 30
0.0
 11
218.5
 21
92.499999999999986
 31
0.0
  0
LINE
  5
305
  8
1
 10
121.0
 20
195.99999999999989
 30
0.0
 11
146.0
 21
195.99999999999989
 31
0.0
  0
LINE
  5
306
  8
3
 10
133.0
 20
123.0585
 30
0.0
 11
143.5
 21
123.0585
 31
0.0
  0
LINE
  5
307
  8
3
 10
133.0
 20
98.94149999999992
 30
0.0
 11
143.5
 21
98.94149999999992
 31
0.0
  0
LINE
  5
308
  8
3
 10
133.0
 20
208.05850000000001
 30
0.0
 11
143.5
 21
208.05850000000001
 31
0.0
  0
LINE
  5
309
  8
3
 10
133.0
 20
183.94149999999991
 30
0.0
 11
143.5
 21
183.94149999999991
 31
0.0
  0
LINE
  5
30A
  8
0
 10
142.33799999999991
 20
39.220499999999987
 30
0.0
 11
143.5
 21
38.058499999999981
 31
0.0
  0
LINE
  5
30B
  8
0
 10
143.5
 20
13.941499999999991
 30
0.0
 11
142.33799999999991
 21
12.779499999999979
 31
0.0
  0
LINE
  5
30C
  8
0
 10
143.5
 20
38.058499999999981
 30
0.0
 11
143.5
 21
13.941499999999991
 31
0.0
  0
LINE
  5
30D
  8
0
 10
142.33799999999991
 20
39.220499999999987
 30
0.0
 11
142.33799999999991
 21
12.779499999999979
 31
0.0
  0
ARC
  5
30E
  8
2
 10
118.9417332349
 20
29.0
 30
0.0
 40
5.4569035086536211
 50
326.64929049969908
 51
33.350709500398608
  0
LINE
  5
30F
  8
2
 10
123.5000000001
 20
26.0
 30
0.0
 11
133.5
 21
26.0
 31
0.0
  0
ARC
  5
310
  8
2
 10
118.9417332349
 20
23.0
 30
0.0
 40
5.4569035086656132
 50
326.64929049969908
 51
33.350709500300717
  0
LINE
  5
311
  8
2
 10
133.5
 20
32.0
 30
0.0
 11
133.5
 21
20.0
 31
0.0
  0
LINE
  5
312
  8
2
 10
123.5000000001
 20
20.0
 30
0.0
 11
133.5
 21
20.0
 31
0.0
  0
LINE
  5
313
  8
2
 10
123.5000000001
 20
32.0
 30
0.0
 11
133.5
 21
32.0
 31
0.0
  0
LINE
  5
314
  8
2
 10
124.4282032304
 20
20.0
 30
0.0
 11
123.5000000001
 21
19.071796769700001
 31
0.0
  0
LINE
  5
315
  8
2
 10
123.5000000001
 20
32.928203230299999
 30
0.0
 11
124.4282032304
 21
32.0
 31
0.0
  0
LINE
  5
316
  8
0
 10
124.5
 20
41.999999999999972
 30
0.0
 11
129.5
 21
42.0
 31
0.0
  0
LINE
  5
317
  8
0
 10
129.5
 20
10.0
 30
0.0
 11
124.5
 21
10.0
 31
0.0
  0
LINE
  5
318
  8
0
 10
124.5
 20
10.0
 30
0.0
 11
123.5
 21
11.0
 31
0.0
  0
LINE
  5
319
  8
0
 10
123.5
 20
40.999999999999957
 30
0.0
 11
124.5
 21
41.999999999999972
 31
0.0
  0
ARC
  5
31A
  8
0
 10
128.94999999999999
 20
13.25
 30
0.0
 40
1.25
 50
296.10388113729988
 51
0.0
  0
ARC
  5
31B
  8
0
 10
128.94999999999999
 20
38.75
 30
0.0
 40
1.250000000000002
 50
0.0
 51
63.896118862700114
  0
LINE
  5
31C
  8
0
 10
130.19999999999999
 20
38.75
 30
0.0
 11
130.19999999999999
 21
13.25
 31
0.0
  0
LINE
  5
31D
  8
0
 10
133.0
 20
39.220499999999987
 30
0.0
 11
142.33799999999991
 21
39.220499999999987
 31
0.0
  0
LINE
  5
31E
  8
0
 10
142.33799999999991
 20
12.779500000000009
 30
0.0
 11
133.0
 21
12.779500000000009
 31
0.0
  0
LINE
  5
31F
  8
0
 10
130.19999999999999
 20
37.5
 30
0.0
 11
133.0
 21
37.5
 31
0.0
  0
LINE
  5
320
  8
0
 10
133.0
 20
14.5
 30
0.0
 11
130.19999999999999
 21
14.5
 31
0.0
  0
LINE
  5
321
  8
0
 10
129.5
 20
42.0
 30
0.0
 11
129.5
 21
10.0
 31
0.0
  0
LINE
  5
322
  8
0
 10
124.5
 20
10.0
 30
0.0
 11
124.5
 21
41.999999999999972
 31
0.0
  0
LINE
  5
323
  8
0
 10
123.5
 20
11.0
 30
0.0
 11
123.5
 21
40.999999999999957
 31
0.0
  0
LINE
  5
324
  8
0
 10
133.0
 20
12.779500000000009
 30
0.0
 11
133.0
 21
39.220499999999987
 31
0.0
  0
LINE
  5
325
  8
1
 10
121.0
 20
25.999999999999972
 30
0.0
 11
146.0
 21
25.999999999999972
 31
0.0
  0
LINE
  5
326
  8
3
 10
133.0
 20
13.94149999999993
 30
0.0
 11
143.5
 21
13.94149999999993
 31
0.0
  0
LINE
  5
327
  8
3
 10
133.0
 20
38.058500000000038
 30
0.0
 11
143.5
 21
38.058500000000038
 31
0.0
  0
ENDSEC
  0
EOF
