  0
SECTION
  2
HEADER
  9
$ACADVER
  1
AC1009
  9
$INSBASE
 10
0.0
 20
0.0
 30
0.0
  9
$EXTMIN
 10
0.0
 20
-2.960436562073669
 30
0.0
  9
$EXTMAX
 10
322.94574179045861
 20
223.60831367758161
 30
0.0
  9
$LIMMIN
 10
0.0
 20
0.0
  9
$LIMMAX
 10
375.0
 20
270.0
  9
$ORTHOMODE
 70
     1
  9
$REGENMODE
 70
     1
  9
$FILLMODE
 70
     1
  9
$QTEXTMODE
 70
     0
  9
$MIRRTEXT
 70
     0
  9
$DRAGMODE
 70
     2
  9
$LTSCALE
 40
10.0
  9
$OSMODE
 70
    55
  9
$ATTMODE
 70
     1
  9
$TEXTSIZE
 40
0.2
  9
$TRACEWID
 40
0.05
  9
$TEXTSTYLE
  7
STANDARD
  9
$CLAYER
  8
0
  9
$CELTYPE
  6
BYLAYER
  9
$CECOLOR
 62
   256
  9
$DIMSCALE
 40
1.0
  9
$DIMASZ
 40
3.0
  9
$DIMEXO
 40
2.0
  9
$DIMDLI
 40
0.38
  9
$DIMRND
 40
0.0
  9
$DIMDLE
 40
0.0
  9
$DIMEXE
 40
2.0
  9
$DIMTP
 40
0.0
  9
$DIMTM
 40
0.0
  9
$DIMTXT
 40
3.2000000000000002
  9
$DIMCEN
 40
0.0
  9
$DIMTSZ
 40
0.0
  9
$DIMTOL
 70
     0
  9
$DIMLIM
 70
     0
  9
$DIMTIH
 70
     0
  9
$DIMTOH
 70
     0
  9
$DIMSE1
 70
     0
  9
$DIMSE2
 70
     0
  9
$DIMTAD
 70
     1
  9
$DIMZIN
 70
     0
  9
$DIMBLK
  1

  9
$DIMASO
 70
     1
  9
$DIMSHO
 70
     0
  9
$DIMPOST
  1

  9
$DIMAPOST
  1

  9
$DIMALT
 70
     0
  9
$DIMALTD
 70
     2
  9
$DIMALTF
 40
25.399999999999999
  9
$DIMLFAC
 40
1.0
  9
$DIMTOFL
 70
     1
  9
$DIMTVP
 40
1.6000000000000001
  9
$DIMTIX
 70
     1
  9
$DIMSOXD
 70
     0
  9
$DIMSAH
 70
     0
  9
$DIMBLK1
  1

  9
$DIMBLK2
  1

  9
$DIMSTYLE
  2
STANDARD
  9
$DIMCLRD
 70
     0
  9
$DIMCLRE
 70
     0
  9
$DIMCLRT
 70
     0
  9
$DIMTFAC
 40
1.0
  9
$DIMGAP
 40
0.09
  9
$LUNITS
 70
     2
  9
$LUPREC
 70
     4
  9
$SKETCHINC
 40
0.1
  9
$FILLETRAD
 40
0.0
  9
$AUNITS
 70
     0
  9
$AUPREC
 70
     4
  9
$MENU
  1
E:\r13\win\SUPPORT\ACAD
  9
$ELEVATION
 40
0.0
  9
$PELEVATION
 40
0.0
  9
$THICKNESS
 40
0.0
  9
$LIMCHECK
 70
     0
  9
$BLIPMODE
 70
     0
  9
$CHAMFERA
 40
0.0
  9
$CHAMFERB
 40
0.0
  9
$SKPOLY
 70
     0
  9
$TDCREATE
 40
2449840.6305671302
  9
$TDUPDATE
 40
2456598.5512159262
  9
$TDINDWG
 40
0.0001894907
  9
$TDUSRTIMER
 40
0.0001894907
  9
$USRTIMER
 70
     1
  9
$ANGBASE
 50
0.0
  9
$ANGDIR
 70
     0
  9
$PDMODE
 70
     0
  9
$PDSIZE
 40
0.0
  9
$PLINEWID
 40
0.0
  9
$COORDS
 70
     1
  9
$SPLFRAME
 70
     0
  9
$SPLINETYPE
 70
     6
  9
$SPLINESEGS
 70
     8
  9
$ATTDIA
 70
     0
  9
$ATTREQ
 70
     1
  9
$HANDLING
 70
     1
  9
$HANDSEED
  5
2D2
  9
$SURFTAB1
 70
     6
  9
$SURFTAB2
 70
     6
  9
$SURFTYPE
 70
     6
  9
$SURFU
 70
     6
  9
$SURFV
 70
     6
  9
$UCSNAME
  2

  9
$UCSORG
 10
0.0
 20
0.0
 30
0.0
  9
$UCSXDIR
 10
1.0
 20
0.0
 30
0.0
  9
$UCSYDIR
 10
0.0
 20
1.0
 30
0.0
  9
$PUCSNAME
  2

  9
$PUCSORG
 10
0.0
 20
0.0
 30
0.0
  9
$PUCSXDIR
 10
1.0
 20
0.0
 30
0.0
  9
$PUCSYDIR
 10
0.0
 20
1.0
 30
0.0
  9
$USERI1
 70
     0
  9
$USERI2
 70
     1
  9
$USERI3
 70
     1
  9
$USERI4
 70
     0
  9
$USERI5
 70
     0
  9
$USERR1
 40
0.0
  9
$USERR2
 40
0.0
  9
$USERR3
 40
0.0
  9
$USERR4
 40
0.0
  9
$USERR5
 40
0.0
  9
$WORLDVIEW
 70
     1
  9
$SHADEDGE
 70
     3
  9
$SHADEDIF
 70
    70
  9
$TILEMODE
 70
     1
  9
$MAXACTVP
 70
    16
  9
$PLIMCHECK
 70
     0
  9
$PEXTMIN
 10
1.0000000000000000E+020
 20
1.0000000000000000E+020
 30
1.0000000000000000E+020
  9
$PEXTMAX
 10
-1.0000000000000000E+020
 20
-1.0000000000000000E+020
 30
-1.0000000000000000E+020
  9
$PLIMMIN
 10
0.0
 20
0.0
  9
$PLIMMAX
 10
12.0
 20
9.0
  9
$UNITMODE
 70
     0
  9
$VISRETAIN
 70
     0
  9
$PLINEGEN
 70
     0
  9
$PSLTSCALE
 70
     0
  0
ENDSEC
  0
SECTION
  2
TABLES
  0
TABLE
  2
VPORT
 70
     1
  0
VPORT
  2
*ACTIVE
 70
     0
 10
0.0
 20
0.0
 11
1.0
 21
1.0
 12
187.49427839065231
 22
174.91677254346851
 13
0.0
 23
0.0
 14
10.0
 24
10.0
 15
10.0
 25
10.0
 16
0.0
 26
0.0
 36
1.0
 17
0.0
 27
0.0
 37
0.0
 40
358.92027899574339
 41
1.7807262569832401
 42
50.0
 43
0.0
 44
0.0
 50
0.0
 51
0.0
 71
     0
 72
   500
 73
     1
 74
     0
 75
     0
 76
     0
 77
     0
 78
     2
  0
ENDTAB
  0
TABLE
  2
LTYPE
 70
     4
  0
LTYPE
  2
CONTINUOUS
 70
     0
  3
Solid Line
 72
    65
 73
     0
 40
0.0
  0
LTYPE
  2
CENTER
 70
     0
  3
____ _ ____ _ ____ _ ____ _ ____ _ ____ _ ____
 72
    65
 73
     4
 40
2.0
 49
1.25
 49
-0.25
 49
0.25
 49
-0.25
  0
LTYPE
  2
HIDDEN
 70
     0
  3
_ _ _ _ _ _ _ _ _ _ _ _ _ _ _ _ _ _ _ _ _ _ _
 72
    65
 73
     2
 40
0.375
 49
0.25
 49
-0.125
  0
LTYPE
  2
PHANTOM2
 70
     0
  3
___ _ _ ___ _ _ ___ _ _ ___ _ _
 72
    65
 73
     6
 40
1.25
 49
0.625
 49
-0.125
 49
0.125
 49
-0.125
 49
0.125
 49
-0.125
  0
ENDTAB
  0
TABLE
  2
LAYER
 70
     4
  0
LAYER
  2
0
 70
     0
 62
     7
  6
CONTINUOUS
  0
LAYER
  2
1
 70
     0
 62
     1
  6
CENTER
  0
LAYER
  2
2
 70
     0
 62
     2
  6
HIDDEN
  0
LAYER
  2
3
 70
     0
 62
     3
  6
CONTINUOUS
  0
ENDTAB
  0
TABLE
  2
STYLE
 70
     2
  0
STYLE
  2
STANDARD
 70
     0
 40
0.0
 41
1.0
 50
0.0
 71
     0
 42
0.2
  3
TXT
  4
BIGFONT
  0
STYLE
  2
STANDARD1
 70
     0
 40
0.0
 41
1.0
 50
0.0
 71
     0
 42
3.0
  3
txt
  4

  0
ENDTAB
  0
TABLE
  2
VIEW
 70
     1
  0
VIEW
  2
ALL
 70
     0
 40
270.0
 10
220.99159663865549
 20
135.0
 41
0.0
 11
0.0
 21
0.0
 31
1.0
 12
0.0
 22
0.0
 32
0.0
 42
0.0
 43
0.0
 44
0.0
 50
0.0
 71
     0
  0
ENDTAB
  0
TABLE
  2
UCS
 70
     0
  0
ENDTAB
  0
TABLE
  2
APPID
 70
     3
  0
APPID
  2
ACAD
 70
     0
  0
APPID
  2
ACAD_MLEADERVER
 70
     0
  0
APPID
  2
ACAD_NAV_VCDISPLAY
 70
     0
  0
ENDTAB
  0
TABLE
  2
DIMSTYLE
 70
     1
  0
DIMSTYLE
  2
STANDARD
 70
     0
  3

  4

  5

  6

  7

 40
1.0
 41
0.18
 42
0.0625
 43
0.38
 44
0.18
 45
0.0
 46
0.0
 47
0.0
 48
0.0
140
0.18
141
0.09
142
0.0
143
25.399999999999999
144
1.0
145
0.0
146
1.0
147
0.09
 71
     0
 72
     0
 73
     1
 74
     1
 75
     0
 76
     0
 77
     0
 78
     0
170
     0
171
     2
172
     0
173
     0
174
     0
175
     0
176
     0
177
     0
178
     0
  0
ENDTAB
  0
ENDSEC
  0
SECTION
  2
BLOCKS
  0
BLOCK
  8
0
  2
$MODEL_SPACE
 70
     0
 10
0.0
 20
0.0
 30
0.0
  3
$MODEL_SPACE
  1

  0
ENDBLK
  5
151
  8
0
  0
BLOCK
 67
     1
  8
0
  2
$PAPER_SPACE
 70
     0
 10
0.0
 20
0.0
 30
0.0
  3
$PAPER_SPACE
  1

  0
ENDBLK
  5
14F
 67
     1
  8
0
  0
ENDSEC
  0
SECTION
  2
ENTITIES
  0
LINE
  5
36
  8
1
 10
70.0
 20
93.660893372615547
 30
0.0
 11
70.0
 21
164.6608933726155
 31
0.0
  0
LINE
  5
37
  8
0
 10
76.0
 20
114.6608933726155
 30
0.0
 11
76.0
 21
154.6608933726155
 31
0.0
  0
LINE
  5
38
  8
0
 10
76.0
 20
154.6608933726155
 30
0.0
 11
64.0
 21
154.6608933726155
 31
0.0
  0
LINE
  5
39
  8
0
 10
64.0
 20
154.6608933726155
 30
0.0
 11
64.0
 21
114.6608933726155
 31
0.0
  0
LINE
  5
3A
  8
0
 10
64.0
 20
114.6608933726155
 30
0.0
 11
76.0
 21
114.6608933726155
 31
0.0
  0
LINE
  5
3B
  8
1
 10
193.47287089522931
 20
102.6608933726155
 30
0.0
 11
193.47287089522931
 21
164.6608933726155
 31
0.0
  0
LINE
  5
3C
  8
0
 10
259.47287089522928
 20
149.6608933726155
 30
0.0
 11
259.47287089522928
 21
114.6608933726155
 31
0.0
  0
LINE
  5
3D
  8
0
 10
259.47287089522928
 20
114.6608933726155
 30
0.0
 11
247.47287089522931
 21
114.6608933726155
 31
0.0
  0
LINE
  5
3E
  8
0
 10
247.47287089522931
 20
114.6608933726155
 30
0.0
 11
247.47287089522931
 21
136.6608933726155
 31
0.0
  0
ARC
  5
3F
  8
0
 10
237.47287089522931
 20
136.6608933726155
 30
0.0
 40
10.0
 50
0.0
 51
90.0
  0
ARC
  5
40
  8
0
 10
254.47287089522931
 20
149.6608933726155
 30
0.0
 40
5.0
 50
0.0
 51
90.0
  0
LINE
  5
41
  8
1
 10
253.47287089522931
 20
98.660893372615561
 30
0.0
 11
253.47287089522931
 21
159.6608933726155
 31
0.0
  0
LINE
  5
42
  8
2
 10
76.0
 20
146.6608933726155
 30
0.0
 11
64.0
 21
146.6608933726155
 31
0.0
  0
LINE
  5
43
  8
0
 10
250.97287089522931
 20
106.1608933726156
 30
0.0
 11
250.97287089522931
 21
104.5608933726155
 31
0.0
  0
LINE
  5
44
  8
0
 10
255.97287089522919
 20
106.1608933726155
 30
0.0
 11
255.97287089522931
 21
104.5608933726155
 31
0.0
  0
LINE
  5
45
  8
0
 10
247.97287089522931
 20
109.9108933726155
 30
0.0
 11
248.85406874171221
 21
109.16089337261501
 31
0.0
  0
LINE
  5
46
  8
0
 10
247.97287089522931
 20
109.9108933726155
 30
0.0
 11
247.97287089522931
 21
110.6608933726155
 31
0.0
  0
LINE
  5
47
  8
0
 10
258.97287089522928
 20
109.9108933726155
 30
0.0
 11
247.97287089522931
 21
109.9108933726155
 31
0.0
  0
LINE
  5
48
  8
0
 10
258.0916730487462
 20
109.1608933726166
 30
0.0
 11
258.97287089522928
 21
109.9108933726155
 31
0.0
  0
LINE
  5
49
  8
0
 10
258.97287089522928
 20
110.6608933726155
 30
0.0
 11
258.97287089522928
 21
109.9108933726155
 31
0.0
  0
LINE
  5
4A
  8
0
 10
258.0916730487462
 20
106.57589398944209
 30
0.0
 11
257.37287089523198
 21
106.1608933726156
 31
0.0
  0
ARC
  5
4B
  8
0
 10
256.93697251036701
 20
108.26328659827971
 30
0.0
 40
2.044658198744437
 50
235.61575253207371
 51
295.61575253331978
  0
ARC
  5
4C
  8
0
 10
253.4728708952164
 20
113.8613628095713
 30
0.0
 40
7.6427344100359971
 50
252.41204622597419
 51
287.5879537742274
  0
ARC
  5
4D
  8
0
 10
256.93697251036701
 20
110.8482859814531
 30
0.0
 40
2.044658198744437
 50
235.61575253207371
 51
304.38424746794522
  0
ARC
  5
4E
  8
0
 10
253.4728708952164
 20
116.4463621927447
 30
0.0
 40
7.6427344100359971
 50
252.41204622597411
 51
287.5879537742274
  0
ARC
  5
4F
  8
0
 10
250.00876928009151
 20
110.8482859814531
 30
0.0
 40
2.044658198744437
 50
235.61575253208139
 51
304.3842474679264
  0
ARC
  5
50
  8
0
 10
250.00876928009151
 20
108.26328659827971
 30
0.0
 40
2.044658198744437
 50
244.38424746668019
 51
304.3842474679264
  0
LINE
  5
51
  8
0
 10
248.85406874171221
 20
106.57589398944209
 30
0.0
 11
249.57287089522649
 21
106.1608933726156
 31
0.0
  0
LINE
  5
52
  8
0
 10
258.0916730487462
 20
106.57589398944209
 30
0.0
 11
258.0916730487462
 21
109.1608933726155
 31
0.0
  0
LINE
  5
53
  8
0
 10
257.37287089523022
 20
106.1608933726155
 30
0.0
 11
249.5728708952266
 21
106.1608933726156
 31
0.0
  0
LINE
  5
54
  8
0
 10
255.78227197198771
 20
106.5758939894522
 30
0.0
 11
255.78227197197961
 21
109.16089337260991
 31
0.0
  0
LINE
  5
55
  8
0
 10
251.1634698184707
 20
109.16089337259869
 30
0.0
 11
251.1634698184707
 21
106.57589398945019
 31
0.0
  0
LINE
  5
56
  8
0
 10
248.85406874171241
 20
106.57589398944221
 30
0.0
 11
248.85406874171221
 21
109.1608933726155
 31
0.0
  0
LINE
  5
57
  8
0
 10
247.97287089522931
 20
110.6608933726155
 30
0.0
 11
258.97287089522928
 21
110.6608933726155
 31
0.0
  0
LINE
  5
58
  8
0
 10
250.97287089522931
 20
104.5608933726155
 30
0.0
 11
255.97287089522931
 21
104.5608933726155
 31
0.0
  0
LINE
  5
59
  8
0
 10
255.07287089522919
 20
103.6608933726155
 30
0.0
 11
255.97287089522931
 21
104.5608933726155
 31
0.0
  0
LINE
  5
5A
  8
0
 10
250.97287089522931
 20
104.5608933726155
 30
0.0
 11
251.87287089522931
 21
103.6608933726155
 31
0.0
  0
LINE
  5
5B
  8
3
 10
251.4058708952291
 20
104.1278933726157
 30
0.0
 11
251.4058708952291
 21
106.1608933726156
 31
0.0
  0
LINE
  5
5C
  8
3
 10
255.53987089522951
 20
104.1278933726157
 30
0.0
 11
255.53987089522951
 21
106.1608933726155
 31
0.0
  0
LINE
  5
5D
  8
0
 10
255.07287089522919
 20
103.6608933726155
 30
0.0
 11
251.87287089522931
 21
103.6608933726155
 31
0.0
  0
LINE
  5
5E
  8
0
 10
250.97287089522931
 20
114.6608933726155
 30
0.0
 11
250.97287089522931
 21
110.6608933726155
 31
0.0
  0
LINE
  5
5F
  8
3
 10
251.4058708952291
 20
110.6608933726155
 30
0.0
 11
251.4058708952291
 21
114.6608933726155
 31
0.0
  0
LINE
  5
60
  8
3
 10
255.53987089522951
 20
110.6608933726155
 30
0.0
 11
255.53987089522951
 21
114.6608933726155
 31
0.0
  0
LINE
  5
61
  8
0
 10
255.97287089522931
 20
114.6608933726155
 30
0.0
 11
255.97287089522931
 21
110.6608933726155
 31
0.0
  0
LINE
  5
62
  8
0
 10
67.500000000000028
 20
106.1608933726156
 30
0.0
 11
67.5
 21
104.5608933726155
 31
0.0
  0
LINE
  5
63
  8
0
 10
72.499999999999943
 20
106.1608933726155
 30
0.0
 11
72.499999999999972
 21
104.5608933726155
 31
0.0
  0
LINE
  5
64
  8
0
 10
64.5
 20
109.9108933726155
 30
0.0
 11
65.999999999999829
 21
108.63422207287179
 31
0.0
  0
LINE
  5
65
  8
0
 10
64.5
 20
109.9108933726155
 30
0.0
 11
64.5
 21
110.6608933726155
 31
0.0
  0
LINE
  5
66
  8
0
 10
75.5
 20
109.9108933726155
 30
0.0
 11
64.5
 21
109.9108933726155
 31
0.0
  0
LINE
  5
67
  8
0
 10
74.000000000000171
 20
108.63422207287491
 30
0.0
 11
75.5
 21
109.9108933726155
 31
0.0
  0
LINE
  5
68
  8
0
 10
75.5
 20
110.6608933726155
 30
0.0
 11
75.5
 21
109.9108933726155
 31
0.0
  0
LINE
  5
69
  8
0
 10
64.5
 20
110.6608933726155
 30
0.0
 11
75.499999999999972
 21
110.6608933726155
 31
0.0
  0
LINE
  5
6A
  8
0
 10
67.5
 20
104.5608933726155
 30
0.0
 11
72.5
 21
104.5608933726155
 31
0.0
  0
LINE
  5
6B
  8
0
 10
71.599999999999966
 20
103.6608933726155
 30
0.0
 11
72.499999999999972
 21
104.5608933726155
 31
0.0
  0
LINE
  5
6C
  8
0
 10
67.5
 20
104.5608933726155
 30
0.0
 11
68.400000000000006
 21
103.6608933726155
 31
0.0
  0
LINE
  5
6D
  8
3
 10
67.932999999999794
 20
104.1278933726157
 30
0.0
 11
67.932999999999822
 21
106.1608933726156
 31
0.0
  0
LINE
  5
6E
  8
3
 10
72.067000000000206
 20
104.1278933726157
 30
0.0
 11
72.067000000000206
 21
106.1608933726155
 31
0.0
  0
LINE
  5
6F
  8
0
 10
71.599999999999966
 20
103.6608933726155
 30
0.0
 11
68.400000000000006
 21
103.6608933726155
 31
0.0
  0
LINE
  5
70
  8
3
 10
67.932999999999822
 20
110.6608933726155
 30
0.0
 11
67.932999999999822
 21
114.6608933726155
 31
0.0
  0
LINE
  5
71
  8
3
 10
72.067000000000235
 20
110.6608933726155
 30
0.0
 11
72.067000000000235
 21
114.6608933726155
 31
0.0
  0
LINE
  5
72
  8
0
 10
67.500000000000028
 20
114.6608933726155
 30
0.0
 11
67.500000000000028
 21
110.6608933726155
 31
0.0
  0
LINE
  5
73
  8
0
 10
72.499999999999972
 20
114.6608933726155
 30
0.0
 11
72.499999999999972
 21
110.6608933726155
 31
0.0
  0
LINE
  5
74
  8
0
 10
70.000000000000057
 20
109.16089337261739
 30
0.0
 11
69.999999999992724
 21
106.57589398944209
 31
0.0
  0
LINE
  5
75
  8
0
 10
66.100000000001387
 20
106.1608933726156
 30
0.0
 11
73.89999999999867
 21
106.1608933726156
 31
0.0
  0
LINE
  5
76
  8
0
 10
74.0
 20
106.21862839953531
 30
0.0
 11
73.899999999998613
 21
106.1608933726156
 31
0.0
  0
ARC
  5
77
  8
0
 10
72.0
 20
111.9953374058629
 30
0.0
 40
5.7767090063276196
 50
249.7438419996576
 51
290.25615800034228
  0
ARC
  5
78
  8
0
 10
72.0
 20
114.5803367890374
 30
0.0
 40
5.7767090063276196
 50
249.7438419996578
 51
290.2561580003424
  0
LINE
  5
79
  8
0
 10
74.000000000000171
 20
106.21862839953531
 30
0.0
 11
74.000000000000171
 21
109.1608933726166
 31
0.0
  0
LINE
  5
7A
  8
0
 10
65.999999999999829
 20
106.21862839953531
 30
0.0
 11
65.999999999999829
 21
109.1608933726166
 31
0.0
  0
ARC
  5
7B
  8
0
 10
68.0
 20
114.5803367890374
 30
0.0
 40
5.7767090063276196
 50
249.74384199965769
 51
290.25615800034228
  0
ARC
  5
7C
  8
0
 10
68.0
 20
111.9953374058629
 30
0.0
 40
5.7767090063276196
 50
249.7438419996576
 51
290.25615800034228
  0
LINE
  5
7D
  8
0
 10
66.0
 20
106.21862839953531
 30
0.0
 11
66.100000000001387
 21
106.1608933726156
 31
0.0
  0
LINE
  5
7E
  8
0
 10
72.17681452057144
 20
153.6608933726155
 30
0.0
 11
67.823185479426343
 21
153.6608933726155
 31
0.0
  0
POLYLINE
  5
7F
  8
0
 66
     1
 10
0.0
 20
0.0
 30
0.0
  0
VERTEX
  5
80
  8
0
 10
65.75
 20
154.6608933726155
 30
0.0
 42
0.2523896899305732
  0
VERTEX
  5
81
  8
0
 10
65.933177572733584
 20
154.32112303645951
 30
0.0
 42
0.0791269388941437
  0
VERTEX
  5
82
  8
0
 10
66.994796179957163
 20
153.841975008124
 30
0.0
 42
0.0384296704119539
 70
     2
 50
344.75699651520381
  0
VERTEX
  5
83
  8
0
 10
68.252745532766312
 20
153.6010649575519
 30
0.0
 42
0.0281067785316541
 50
344.75699651520381
  0
VERTEX
  5
84
  8
0
 10
70.0
 20
153.5027679150752
 30
0.0
 42
0.0281067785316616
  0
VERTEX
  5
85
  8
0
 10
71.747254467233674
 20
153.60106495755201
 30
0.0
 42
0.0384296704119641
  0
VERTEX
  5
86
  8
0
 10
73.005203820042823
 20
153.841975008124
 30
0.0
 42
0.0791269388941537
 70
     2
 50
15.243003484796169
  0
VERTEX
  5
87
  8
0
 10
74.111303259897213
 20
154.34119889337151
 30
0.0
 42
0.2981789072261019
 50
15.243003484796169
  0
VERTEX
  5
88
  8
0
 10
74.25
 20
154.6608933726155
 30
0.0
 42
0.2523896899305415
  0
SEQEND
  5
89
  8
0
  0
POLYLINE
  5
8A
  8
0
 66
     1
 10
0.0
 20
0.0
 30
0.0
  0
VERTEX
  5
8B
  8
0
 10
321.1957417904585
 20
154.6608933726155
 30
0.0
 42
-0.2523896899305732
  0
VERTEX
  5
8C
  8
0
 10
321.01256421772501
 20
154.32112303645951
 30
0.0
 42
-0.0791269388941437
  0
VERTEX
  5
8D
  8
0
 10
319.95094561050138
 20
153.841975008124
 30
0.0
 42
-0.0384296704119539
 70
     2
 50
195.24300348479619
  0
VERTEX
  5
8E
  8
0
 10
318.69299625769219
 20
153.6010649575519
 30
0.0
 42
-0.0281067785316541
  0
VERTEX
  5
8F
  8
0
 10
316.94574179045861
 20
153.5027679150752
 30
0.0
 42
-0.0281067785316616
  0
VERTEX
  5
90
  8
0
 10
315.19848732322492
 20
153.60106495755201
 30
0.0
 42
-0.0384296704119641
  0
VERTEX
  5
91
  8
0
 10
313.94053797041568
 20
153.841975008124
 30
0.0
 42
-0.0791269388941537
 70
     2
 50
164.75699651520389
  0
VERTEX
  5
92
  8
0
 10
312.83443853056127
 20
154.34119889337151
 30
0.0
 42
-0.2981789072261019
  0
VERTEX
  5
93
  8
0
 10
312.69574179045861
 20
154.6608933726155
 30
0.0
 42
-0.2523896899305415
  0
SEQEND
  5
94
  8
0
  0
LINE
  5
95
  8
0
 10
314.76892726988712
 20
153.6608933726155
 30
0.0
 11
319.12255631103221
 21
153.6608933726155
 31
0.0
  0
LINE
  5
96
  8
0
 10
320.94574179045861
 20
106.21862839953531
 30
0.0
 11
320.84574179045723
 21
106.1608933726156
 31
0.0
  0
ARC
  5
97
  8
0
 10
318.94574179045861
 20
111.9953374058629
 30
0.0
 40
5.7767090063276196
 50
249.74384199965769
 51
290.2561580003424
  0
ARC
  5
98
  8
0
 10
318.94574179045861
 20
114.5803367890374
 30
0.0
 40
5.7767090063276196
 50
249.74384199965769
 51
290.25615800034228
  0
LINE
  5
99
  8
0
 10
320.94574179045873
 20
106.21862839953531
 30
0.0
 11
320.94574179045873
 21
109.1608933726166
 31
0.0
  0
LINE
  5
9A
  8
0
 10
312.94574179045838
 20
106.21862839953531
 30
0.0
 11
312.94574179045838
 21
109.1608933726166
 31
0.0
  0
ARC
  5
9B
  8
0
 10
314.9457417904585
 20
114.5803367890374
 30
0.0
 40
5.7767090063276196
 50
249.7438419996576
 51
290.25615800034228
  0
ARC
  5
9C
  8
0
 10
314.9457417904585
 20
111.9953374058629
 30
0.0
 40
5.7767090063276196
 50
249.74384199965769
 51
290.2561580003424
  0
LINE
  5
9D
  8
0
 10
312.9457417904585
 20
106.21862839953531
 30
0.0
 11
313.04574179046
 21
106.1608933726156
 31
0.0
  0
LINE
  5
9E
  8
0
 10
320.84574179045723
 20
106.1608933726156
 30
0.0
 11
313.04574179045989
 21
106.1608933726156
 31
0.0
  0
LINE
  5
9F
  8
0
 10
316.9457417904585
 20
109.16089337261739
 30
0.0
 11
316.94574179046577
 21
106.57589398944209
 31
0.0
  0
LINE
  5
A0
  8
0
 10
314.44574179045861
 20
114.6608933726155
 30
0.0
 11
314.44574179045861
 21
110.6608933726155
 31
0.0
  0
LINE
  5
A1
  8
0
 10
319.4457417904585
 20
114.6608933726155
 30
0.0
 11
319.4457417904585
 21
110.6608933726155
 31
0.0
  0
LINE
  5
A2
  8
3
 10
314.87874179045832
 20
110.6608933726155
 30
0.0
 11
314.87874179045832
 21
114.6608933726155
 31
0.0
  0
LINE
  5
A3
  8
3
 10
319.01274179045868
 20
110.6608933726155
 30
0.0
 11
319.01274179045868
 21
114.6608933726155
 31
0.0
  0
LINE
  5
A4
  8
0
 10
315.34574179045859
 20
103.6608933726155
 30
0.0
 11
318.54574179045858
 21
103.6608933726155
 31
0.0
  0
LINE
  5
A5
  8
3
 10
314.87874179045832
 20
104.1278933726157
 30
0.0
 11
314.87874179045832
 21
106.1608933726155
 31
0.0
  0
LINE
  5
A6
  8
3
 10
319.01274179045879
 20
104.1278933726157
 30
0.0
 11
319.01274179045868
 21
106.1608933726156
 31
0.0
  0
LINE
  5
A7
  8
0
 10
319.4457417904585
 20
104.5608933726155
 30
0.0
 11
318.54574179045858
 21
103.6608933726155
 31
0.0
  0
LINE
  5
A8
  8
0
 10
315.34574179045859
 20
103.6608933726155
 30
0.0
 11
314.44574179045861
 21
104.5608933726155
 31
0.0
  0
LINE
  5
A9
  8
0
 10
319.4457417904585
 20
104.5608933726155
 30
0.0
 11
314.44574179045861
 21
104.5608933726155
 31
0.0
  0
LINE
  5
AA
  8
0
 10
322.44574179045861
 20
110.6608933726155
 30
0.0
 11
311.4457417904585
 21
110.6608933726155
 31
0.0
  0
LINE
  5
AB
  8
0
 10
311.4457417904585
 20
110.6608933726155
 30
0.0
 11
311.4457417904585
 21
109.9108933726155
 31
0.0
  0
LINE
  5
AC
  8
0
 10
312.94574179045838
 20
108.63422207287491
 30
0.0
 11
311.4457417904585
 21
109.9108933726155
 31
0.0
  0
LINE
  5
AD
  8
0
 10
311.4457417904585
 20
109.9108933726155
 30
0.0
 11
322.44574179045861
 21
109.9108933726155
 31
0.0
  0
LINE
  5
AE
  8
0
 10
322.44574179045861
 20
109.9108933726155
 30
0.0
 11
322.44574179045861
 21
110.6608933726155
 31
0.0
  0
LINE
  5
AF
  8
0
 10
322.44574179045861
 20
109.9108933726155
 30
0.0
 11
320.94574179045873
 21
108.63422207287179
 31
0.0
  0
LINE
  5
B0
  8
0
 10
314.44574179045861
 20
106.1608933726155
 30
0.0
 11
314.44574179045861
 21
104.5608933726155
 31
0.0
  0
LINE
  5
B1
  8
0
 10
319.4457417904585
 20
106.1608933726156
 30
0.0
 11
319.4457417904585
 21
104.5608933726155
 31
0.0
  0
LINE
  5
B2
  8
2
 10
310.9457417904585
 20
146.6608933726155
 30
0.0
 11
322.94574179045861
 21
146.6608933726155
 31
0.0
  0
LINE
  5
B3
  8
0
 10
322.94574179045861
 20
114.6608933726155
 30
0.0
 11
310.9457417904585
 21
114.6608933726155
 31
0.0
  0
LINE
  5
B4
  8
0
 10
322.94574179045861
 20
154.6608933726155
 30
0.0
 11
322.94574179045861
 21
114.6608933726155
 31
0.0
  0
LINE
  5
B5
  8
0
 10
310.9457417904585
 20
154.6608933726155
 30
0.0
 11
322.94574179045861
 21
154.6608933726155
 31
0.0
  0
LINE
  5
B6
  8
0
 10
310.9457417904585
 20
114.6608933726155
 30
0.0
 11
310.9457417904585
 21
154.6608933726155
 31
0.0
  0
LINE
  5
B7
  8
1
 10
316.94574179045861
 20
93.660893372615547
 30
0.0
 11
316.94574179045861
 21
164.6608933726155
 31
0.0
  0
LINE
  5
B8
  8
0
 10
259.47287089522922
 20
210.35831367758149
 30
0.0
 11
127.47287089522931
 21
210.35831367758149
 31
0.0
  0
LINE
  5
B9
  8
0
 10
127.47287089522931
 20
210.35831367758149
 30
0.0
 11
127.47287089522931
 21
222.35831367758161
 31
0.0
  0
LINE
  5
BA
  8
0
 10
259.47287089522922
 20
210.35831367758149
 30
0.0
 11
259.47287089522922
 21
222.35831367758161
 31
0.0
  0
LINE
  5
BB
  8
0
 10
259.47287089522922
 20
222.35831367758161
 30
0.0
 11
127.47287089522931
 21
222.35831367758161
 31
0.0
  0
LINE
  5
BC
  8
0
 10
259.47287089522922
 20
58.107672350374592
 30
0.0
 11
127.47287089522931
 21
58.107672350374592
 31
0.0
  0
LINE
  5
BD
  8
0
 10
259.47287089522922
 20
46.107672350374592
 30
0.0
 11
259.47287089522922
 21
58.107672350374592
 31
0.0
  0
LINE
  5
BE
  8
0
 10
127.47287089522931
 20
46.107672350374592
 30
0.0
 11
127.47287089522931
 21
58.107672350374592
 31
0.0
  0
LINE
  5
BF
  8
0
 10
259.47287089522922
 20
46.107672350374592
 30
0.0
 11
127.47287089522931
 21
46.107672350374592
 31
0.0
  0
CIRCLE
  5
C0
  8
0
 10
133.47287089522931
 20
216.35831367758161
 30
0.0
 40
4.200000000000002
  0
CIRCLE
  5
C1
  8
0
 10
133.47287089522931
 20
216.35831367758161
 30
0.0
 40
4.2500000000000142
  0
LINE
  5
C2
  8
1
 10
140.72287089522931
 20
216.35831367758161
 30
0.0
 11
126.22287089522921
 21
216.35831367758161
 31
0.0
  0
LINE
  5
C3
  8
1
 10
133.47287089522931
 20
223.60831367758161
 30
0.0
 11
133.47287089522931
 21
209.10831367758149
 31
0.0
  0
LINE
  5
C4
  8
1
 10
253.47287089522931
 20
223.60831367758161
 30
0.0
 11
253.47287089522931
 21
209.10831367758149
 31
0.0
  0
LINE
  5
C5
  8
1
 10
246.22287089522919
 20
216.35831367758161
 30
0.0
 11
260.72287089522928
 21
216.35831367758161
 31
0.0
  0
CIRCLE
  5
C6
  8
0
 10
253.47287089522931
 20
216.35831367758161
 30
0.0
 40
4.2500000000000142
  0
CIRCLE
  5
C7
  8
0
 10
253.47287089522931
 20
216.35831367758161
 30
0.0
 40
4.200000000000002
  0
LINE
  5
C8
  8
0
 10
139.47287089522931
 20
58.107672350374592
 30
0.0
 11
139.47287089522931
 21
46.107672350374592
 31
0.0
  0
CIRCLE
  5
C9
  8
0
 10
133.47287089522931
 20
52.1076723503746
 30
0.0
 40
5.5
  0
CIRCLE
  5
CA
  8
0
 10
133.47287089522931
 20
52.1076723503746
 30
0.0
 40
3.8999999999999999
  0
LINE
  5
CB
  8
0
 10
128.8540687417123
 20
52.107672350374543
 30
0.0
 11
131.1634698184707
 21
48.107672350374592
 31
0.0
  0
LINE
  5
CC
  8
0
 10
131.16346981847079
 20
56.1076723503746
 30
0.0
 11
128.8540687417123
 21
52.107672350374543
 31
0.0
  0
LINE
  5
CD
  8
0
 10
135.7822719719878
 20
56.107672350374543
 30
0.0
 11
131.16346981847079
 21
56.1076723503746
 31
0.0
  0
LINE
  5
CE
  8
0
 10
138.0916730487462
 20
52.107672350374543
 30
0.0
 11
135.7822719719878
 21
56.107672350374543
 31
0.0
  0
LINE
  5
CF
  8
0
 10
135.7822719719878
 20
48.107672350374592
 30
0.0
 11
138.0916730487462
 21
52.107672350374543
 31
0.0
  0
LINE
  5
D0
  8
0
 10
131.1634698184707
 20
48.107672350374592
 30
0.0
 11
135.7822719719878
 21
48.107672350374592
 31
0.0
  0
CIRCLE
  5
D1
  8
0
 10
133.47287089522931
 20
52.1076723503746
 30
0.0
 40
2.0669999999999988
  0
CIRCLE
  5
D2
  8
3
 10
133.47287089522931
 20
52.1076723503746
 30
0.0
 40
2.5
  0
CIRCLE
  5
D3
  8
3
 10
253.47287089522931
 20
52.1076723503746
 30
0.0
 40
2.5
  0
CIRCLE
  5
D4
  8
0
 10
253.47287089522931
 20
52.1076723503746
 30
0.0
 40
2.0669999999999988
  0
LINE
  5
D5
  8
0
 10
255.7822719719878
 20
48.107672350374592
 30
0.0
 11
251.16346981847079
 21
48.107672350374592
 31
0.0
  0
LINE
  5
D6
  8
0
 10
251.16346981847079
 20
48.107672350374592
 30
0.0
 11
248.8540687417123
 21
52.107672350374543
 31
0.0
  0
LINE
  5
D7
  8
0
 10
248.8540687417123
 20
52.107672350374543
 30
0.0
 11
251.16346981847079
 21
56.107672350374543
 31
0.0
  0
LINE
  5
D8
  8
0
 10
251.16346981847079
 20
56.107672350374543
 30
0.0
 11
255.78227197198771
 21
56.1076723503746
 31
0.0
  0
LINE
  5
D9
  8
0
 10
255.78227197198771
 20
56.1076723503746
 30
0.0
 11
258.0916730487462
 21
52.107672350374543
 31
0.0
  0
LINE
  5
DA
  8
0
 10
258.0916730487462
 20
52.107672350374543
 30
0.0
 11
255.7822719719878
 21
48.107672350374592
 31
0.0
  0
CIRCLE
  5
DB
  8
0
 10
253.47287089522931
 20
52.1076723503746
 30
0.0
 40
3.8999999999999999
  0
CIRCLE
  5
DC
  8
0
 10
253.47287089522931
 20
52.1076723503746
 30
0.0
 40
5.5
  0
LINE
  5
DD
  8
0
 10
247.47287089522931
 20
58.107672350374592
 30
0.0
 11
247.47287089522931
 21
46.107672350374592
 31
0.0
  0
LINE
  5
DE
  8
0
 10
237.47287089522931
 20
146.6608933726155
 30
0.0
 11
149.47287089522919
 21
146.6608933726155
 31
0.0
  0
LINE
  5
DF
  8
0
 10
130.97287089522931
 20
114.6608933726155
 30
0.0
 11
130.97287089522931
 21
110.6608933726155
 31
0.0
  0
LINE
  5
E0
  8
3
 10
131.40587089522899
 20
110.6608933726155
 30
0.0
 11
131.40587089522899
 21
114.6608933726155
 31
0.0
  0
LINE
  5
E1
  8
3
 10
135.5398708952294
 20
110.6608933726155
 30
0.0
 11
135.5398708952294
 21
114.6608933726155
 31
0.0
  0
LINE
  5
E2
  8
0
 10
135.97287089522919
 20
114.6608933726155
 30
0.0
 11
135.97287089522919
 21
110.6608933726155
 31
0.0
  0
LINE
  5
E3
  8
0
 10
131.87287089522931
 20
103.6608933726155
 30
0.0
 11
135.07287089522919
 21
103.6608933726155
 31
0.0
  0
LINE
  5
E4
  8
3
 10
131.40587089522899
 20
104.1278933726157
 30
0.0
 11
131.40587089522899
 21
106.1608933726155
 31
0.0
  0
LINE
  5
E5
  8
3
 10
135.5398708952294
 20
104.1278933726157
 30
0.0
 11
135.5398708952294
 21
106.1608933726156
 31
0.0
  0
LINE
  5
E6
  8
0
 10
135.97287089522919
 20
104.5608933726155
 30
0.0
 11
135.07287089522919
 21
103.6608933726155
 31
0.0
  0
LINE
  5
E7
  8
0
 10
131.87287089522931
 20
103.6608933726155
 30
0.0
 11
130.97287089522931
 21
104.5608933726155
 31
0.0
  0
LINE
  5
E8
  8
0
 10
135.97287089522919
 20
104.5608933726155
 30
0.0
 11
130.97287089522931
 21
104.5608933726155
 31
0.0
  0
LINE
  5
E9
  8
0
 10
138.97287089522919
 20
110.6608933726155
 30
0.0
 11
127.97287089522931
 21
110.6608933726155
 31
0.0
  0
LINE
  5
EA
  8
0
 10
138.09167304874609
 20
106.57589398944221
 30
0.0
 11
138.09167304874629
 21
109.1608933726155
 31
0.0
  0
LINE
  5
EB
  8
0
 10
135.7822719719878
 20
109.16089337259869
 30
0.0
 11
135.7822719719878
 21
106.57589398945019
 31
0.0
  0
LINE
  5
EC
  8
0
 10
131.16346981847079
 20
106.5758939894522
 30
0.0
 11
131.16346981847889
 21
109.16089337260991
 31
0.0
  0
LINE
  5
ED
  8
0
 10
129.57287089522831
 20
106.1608933726155
 30
0.0
 11
137.3728708952319
 21
106.1608933726156
 31
0.0
  0
LINE
  5
EE
  8
0
 10
128.8540687417123
 20
106.57589398944209
 30
0.0
 11
128.8540687417123
 21
109.1608933726155
 31
0.0
  0
LINE
  5
EF
  8
0
 10
138.09167304874629
 20
106.57589398944209
 30
0.0
 11
137.3728708952321
 21
106.1608933726156
 31
0.0
  0
ARC
  5
F0
  8
0
 10
136.93697251036701
 20
108.26328659827971
 30
0.0
 40
2.044658198744437
 50
235.61575253207371
 51
295.61575253331989
  0
ARC
  5
F1
  8
0
 10
136.93697251036701
 20
110.8482859814531
 30
0.0
 40
2.044658198744437
 50
235.6157525320736
 51
304.38424746791873
  0
ARC
  5
F2
  8
0
 10
133.47287089524221
 20
116.4463621927447
 30
0.0
 40
7.6427344100359971
 50
252.4120462257726
 51
287.58795377402589
  0
ARC
  5
F3
  8
0
 10
130.0087692800916
 20
110.8482859814531
 30
0.0
 40
2.044658198744437
 50
235.61575253205481
 51
304.3842474679264
  0
ARC
  5
F4
  8
0
 10
133.47287089524221
 20
113.8613628095713
 30
0.0
 40
7.6427344100359971
 50
252.4120462257726
 51
287.58795377402578
  0
ARC
  5
F5
  8
0
 10
130.0087692800916
 20
108.26328659827971
 30
0.0
 40
2.044658198744437
 50
244.38424746668019
 51
304.3842474679264
  0
LINE
  5
F6
  8
0
 10
128.8540687417123
 20
106.57589398944209
 30
0.0
 11
129.5728708952266
 21
106.1608933726156
 31
0.0
  0
LINE
  5
F7
  8
0
 10
127.97287089522931
 20
110.6608933726155
 30
0.0
 11
127.97287089522931
 21
109.9108933726155
 31
0.0
  0
LINE
  5
F8
  8
0
 10
128.8540687417123
 20
109.1608933726166
 30
0.0
 11
127.97287089522931
 21
109.9108933726155
 31
0.0
  0
LINE
  5
F9
  8
0
 10
127.97287089522931
 20
109.9108933726155
 30
0.0
 11
138.97287089522919
 21
109.9108933726155
 31
0.0
  0
LINE
  5
FA
  8
0
 10
138.97287089522919
 20
109.9108933726155
 30
0.0
 11
138.97287089522919
 21
110.6608933726155
 31
0.0
  0
LINE
  5
FB
  8
0
 10
138.97287089522919
 20
109.9108933726155
 30
0.0
 11
138.09167304874629
 21
109.16089337261501
 31
0.0
  0
LINE
  5
FC
  8
0
 10
130.97287089522931
 20
106.1608933726155
 30
0.0
 11
130.97287089522931
 21
104.5608933726155
 31
0.0
  0
LINE
  5
FD
  8
0
 10
135.97287089522919
 20
106.1608933726156
 30
0.0
 11
135.97287089522919
 21
104.5608933726155
 31
0.0
  0
LINE
  5
FE
  8
1
 10
133.47287089522931
 20
98.660893372615561
 30
0.0
 11
133.47287089522931
 21
159.6608933726155
 31
0.0
  0
ARC
  5
FF
  8
0
 10
132.47287089522919
 20
149.6608933726155
 30
0.0
 40
5.0
 50
90.000000000000028
 51
180.0
  0
ARC
  5
100
  8
0
 10
149.47287089522919
 20
136.6608933726155
 30
0.0
 40
10.0
 50
90.000000000000028
 51
180.0
  0
LINE
  5
101
  8
0
 10
139.47287089522931
 20
114.6608933726155
 30
0.0
 11
139.47287089522931
 21
136.6608933726155
 31
0.0
  0
LINE
  5
102
  8
0
 10
127.47287089522921
 20
114.6608933726155
 30
0.0
 11
139.47287089522931
 21
114.6608933726155
 31
0.0
  0
LINE
  5
103
  8
0
 10
127.47287089522921
 20
149.6608933726155
 30
0.0
 11
127.47287089522921
 21
114.6608933726155
 31
0.0
  0
LINE
  5
104
  8
0
 10
132.47287089522919
 20
154.6608933726155
 30
0.0
 11
254.47287089522931
 21
154.6608933726155
 31
0.0
  0
LINE
  5
105
  8
1
 10
141.97287089522931
 20
52.1076723503746
 30
0.0
 11
124.97287089522931
 21
52.1076723503746
 31
0.0
  0
LINE
  5
106
  8
1
 10
133.47287089522931
 20
60.607672350374592
 30
0.0
 11
133.47287089522931
 21
43.607672350374592
 31
0.0
  0
LINE
  5
107
  8
1
 10
261.97287089522922
 20
52.1076723503746
 30
0.0
 11
244.97287089522919
 21
52.1076723503746
 31
0.0
  0
LINE
  5
108
  8
1
 10
253.47287089522931
 20
60.607672350374592
 30
0.0
 11
253.47287089522931
 21
43.607672350374592
 31
0.0
  0
LINE
  5
109
  8
0
 10
254.62757143360849
 20
214.35831367758161
 30
0.0
 11
255.7822719719878
 21
216.35831367758161
 31
0.0
  0
LINE
  5
10A
  8
0
 10
255.7822719719878
 20
216.35831367758161
 30
0.0
 11
254.62757143360849
 21
218.35831367758141
 31
0.0
  0
LINE
  5
10B
  8
0
 10
254.62757143360849
 20
218.35831367758141
 30
0.0
 11
252.31817035684961
 21
218.35831367758141
 31
0.0
  0
LINE
  5
10C
  8
0
 10
252.31817035684961
 20
218.35831367758141
 30
0.0
 11
251.16346981847079
 21
216.35831367758141
 31
0.0
  0
LINE
  5
10D
  8
0
 10
251.16346981847079
 20
216.35831367758141
 30
0.0
 11
252.31817035685029
 21
214.35831367758121
 31
0.0
  0
LINE
  5
10E
  8
0
 10
252.31817035685029
 20
214.35831367758121
 30
0.0
 11
254.62757143360849
 21
214.35831367758161
 31
0.0
  0
LINE
  5
10F
  8
0
 10
132.31817035685029
 20
214.35831367758121
 30
0.0
 11
134.62757143360841
 21
214.35831367758161
 31
0.0
  0
LINE
  5
110
  8
0
 10
131.16346981847079
 20
216.35831367758141
 30
0.0
 11
132.31817035685029
 21
214.35831367758121
 31
0.0
  0
LINE
  5
111
  8
0
 10
132.31817035684961
 20
218.35831367758141
 30
0.0
 11
131.16346981847079
 21
216.35831367758141
 31
0.0
  0
LINE
  5
112
  8
0
 10
134.62757143360841
 20
218.35831367758141
 30
0.0
 11
132.31817035684961
 21
218.35831367758141
 31
0.0
  0
LINE
  5
113
  8
0
 10
135.7822719719878
 20
216.35831367758161
 30
0.0
 11
134.62757143360841
 21
218.35831367758141
 31
0.0
  0
LINE
  5
114
  8
0
 10
134.62757143360841
 20
214.35831367758161
 30
0.0
 11
135.7822719719878
 21
216.35831367758161
 31
0.0
  0
TEXT
  5
23B
  8
0
 62
     3
 10
0.0
 20
0.0
 30
0.0
 40
10.0
  1
SQ2-120B
  7
STANDARD1
  0
ENDSEC
  0
EOF
