  0
SECTION
  2
HEADER
  9
$ACADVER
  1
AC1009
  9
$INSBASE
 10
0.0
 20
0.0
 30
0.0
  9
$EXTMIN
 10
0.0
 20
-2.960436562073669
 30
0.0
  9
$EXTMAX
 10
327.73434252313717
 20
216.1570500043251
 30
0.0
  9
$LIMMIN
 10
0.0
 20
0.0
  9
$LIMMAX
 10
375.0
 20
270.0
  9
$ORTHOMODE
 70
     1
  9
$REGENMODE
 70
     1
  9
$FILLMODE
 70
     1
  9
$QTEXTMODE
 70
     0
  9
$MIRRTEXT
 70
     0
  9
$DRAGMODE
 70
     2
  9
$LTSCALE
 40
10.0
  9
$OSMODE
 70
    55
  9
$ATTMODE
 70
     1
  9
$TEXTSIZE
 40
0.2
  9
$TRACEWID
 40
0.05
  9
$TEXTSTYLE
  7
STANDARD
  9
$CLAYER
  8
0
  9
$CELTYPE
  6
BYLAYER
  9
$CECOLOR
 62
   256
  9
$DIMSCALE
 40
1.0
  9
$DIMASZ
 40
3.0
  9
$DIMEXO
 40
2.0
  9
$DIMDLI
 40
0.38
  9
$DIMRND
 40
0.0
  9
$DIMDLE
 40
0.0
  9
$DIMEXE
 40
2.0
  9
$DIMTP
 40
0.0
  9
$DIMTM
 40
0.0
  9
$DIMTXT
 40
3.2000000000000002
  9
$DIMCEN
 40
0.0
  9
$DIMTSZ
 40
0.0
  9
$DIMTOL
 70
     0
  9
$DIMLIM
 70
     0
  9
$DIMTIH
 70
     0
  9
$DIMTOH
 70
     0
  9
$DIMSE1
 70
     0
  9
$DIMSE2
 70
     0
  9
$DIMTAD
 70
     1
  9
$DIMZIN
 70
     0
  9
$DIMBLK
  1

  9
$DIMASO
 70
     1
  9
$DIMSHO
 70
     0
  9
$DIMPOST
  1

  9
$DIMAPOST
  1

  9
$DIMALT
 70
     0
  9
$DIMALTD
 70
     2
  9
$DIMALTF
 40
25.399999999999999
  9
$DIMLFAC
 40
1.0
  9
$DIMTOFL
 70
     1
  9
$DIMTVP
 40
1.6000000000000001
  9
$DIMTIX
 70
     1
  9
$DIMSOXD
 70
     0
  9
$DIMSAH
 70
     0
  9
$DIMBLK1
  1

  9
$DIMBLK2
  1

  9
$DIMSTYLE
  2
STANDARD
  9
$DIMCLRD
 70
     0
  9
$DIMCLRE
 70
     0
  9
$DIMCLRT
 70
     0
  9
$DIMTFAC
 40
1.0
  9
$DIMGAP
 40
0.09
  9
$LUNITS
 70
     2
  9
$LUPREC
 70
     4
  9
$SKETCHINC
 40
0.1
  9
$FILLETRAD
 40
0.0
  9
$AUNITS
 70
     0
  9
$AUPREC
 70
     4
  9
$MENU
  1
E:\r13\win\SUPPORT\ACAD
  9
$ELEVATION
 40
0.0
  9
$PELEVATION
 40
0.0
  9
$THICKNESS
 40
0.0
  9
$LIMCHECK
 70
     0
  9
$BLIPMODE
 70
     0
  9
$CHAMFERA
 40
0.0
  9
$CHAMFERB
 40
0.0
  9
$SKPOLY
 70
     0
  9
$TDCREATE
 40
2449840.6305902782
  9
$TDUPDATE
 40
2456598.5512793059
  9
$TDINDWG
 40
0.0001677894
  9
$TDUSRTIMER
 40
0.0001677894
  9
$USRTIMER
 70
     1
  9
$ANGBASE
 50
0.0
  9
$ANGDIR
 70
     0
  9
$PDMODE
 70
     0
  9
$PDSIZE
 40
0.0
  9
$PLINEWID
 40
0.0
  9
$COORDS
 70
     1
  9
$SPLFRAME
 70
     0
  9
$SPLINETYPE
 70
     6
  9
$SPLINESEGS
 70
     8
  9
$ATTDIA
 70
     0
  9
$ATTREQ
 70
     1
  9
$HANDLING
 70
     1
  9
$HANDSEED
  5
2D2
  9
$SURFTAB1
 70
     6
  9
$SURFTAB2
 70
     6
  9
$SURFTYPE
 70
     6
  9
$SURFU
 70
     6
  9
$SURFV
 70
     6
  9
$UCSNAME
  2

  9
$UCSORG
 10
0.0
 20
0.0
 30
0.0
  9
$UCSXDIR
 10
1.0
 20
0.0
 30
0.0
  9
$UCSYDIR
 10
0.0
 20
1.0
 30
0.0
  9
$PUCSNAME
  2

  9
$PUCSORG
 10
0.0
 20
0.0
 30
0.0
  9
$PUCSXDIR
 10
1.0
 20
0.0
 30
0.0
  9
$PUCSYDIR
 10
0.0
 20
1.0
 30
0.0
  9
$USERI1
 70
     0
  9
$USERI2
 70
     1
  9
$USERI3
 70
     1
  9
$USERI4
 70
     0
  9
$USERI5
 70
     0
  9
$USERR1
 40
0.0
  9
$USERR2
 40
0.0
  9
$USERR3
 40
0.0
  9
$USERR4
 40
0.0
  9
$USERR5
 40
0.0
  9
$WORLDVIEW
 70
     1
  9
$SHADEDGE
 70
     3
  9
$SHADEDIF
 70
    70
  9
$TILEMODE
 70
     1
  9
$MAXACTVP
 70
    16
  9
$PLIMCHECK
 70
     0
  9
$PEXTMIN
 10
1.0000000000000000E+020
 20
1.0000000000000000E+020
 30
1.0000000000000000E+020
  9
$PEXTMAX
 10
-1.0000000000000000E+020
 20
-1.0000000000000000E+020
 30
-1.0000000000000000E+020
  9
$PLIMMIN
 10
0.0
 20
0.0
  9
$PLIMMAX
 10
12.0
 20
9.0
  9
$UNITMODE
 70
     0
  9
$VISRETAIN
 70
     0
  9
$PLINEGEN
 70
     0
  9
$PSLTSCALE
 70
     0
  0
ENDSEC
  0
SECTION
  2
TABLES
  0
TABLE
  2
VPORT
 70
     1
  0
VPORT
  2
*ACTIVE
 70
     0
 10
0.0
 20
0.0
 11
1.0
 21
1.0
 12
187.49427839065231
 22
174.91677254346851
 13
0.0
 23
0.0
 14
10.0
 24
10.0
 15
10.0
 25
10.0
 16
0.0
 26
0.0
 36
1.0
 17
0.0
 27
0.0
 37
0.0
 40
358.92027899574339
 41
1.7807262569832401
 42
50.0
 43
0.0
 44
0.0
 50
0.0
 51
0.0
 71
     0
 72
   500
 73
     1
 74
     0
 75
     0
 76
     0
 77
     0
 78
     2
  0
ENDTAB
  0
TABLE
  2
LTYPE
 70
     4
  0
LTYPE
  2
CONTINUOUS
 70
     0
  3
Solid Line
 72
    65
 73
     0
 40
0.0
  0
LTYPE
  2
CENTER
 70
     0
  3
____ _ ____ _ ____ _ ____ _ ____ _ ____ _ ____
 72
    65
 73
     4
 40
2.0
 49
1.25
 49
-0.25
 49
0.25
 49
-0.25
  0
LTYPE
  2
HIDDEN
 70
     0
  3
_ _ _ _ _ _ _ _ _ _ _ _ _ _ _ _ _ _ _ _ _ _ _
 72
    65
 73
     2
 40
0.375
 49
0.25
 49
-0.125
  0
LTYPE
  2
PHANTOM2
 70
     0
  3
___ _ _ ___ _ _ ___ _ _ ___ _ _
 72
    65
 73
     6
 40
1.25
 49
0.625
 49
-0.125
 49
0.125
 49
-0.125
 49
0.125
 49
-0.125
  0
ENDTAB
  0
TABLE
  2
LAYER
 70
     4
  0
LAYER
  2
0
 70
     0
 62
     7
  6
CONTINUOUS
  0
LAYER
  2
1
 70
     0
 62
     1
  6
CENTER
  0
LAYER
  2
2
 70
     0
 62
     2
  6
HIDDEN
  0
LAYER
  2
3
 70
     0
 62
     3
  6
CONTINUOUS
  0
ENDTAB
  0
TABLE
  2
STYLE
 70
     2
  0
STYLE
  2
STANDARD
 70
     0
 40
0.0
 41
1.0
 50
0.0
 71
     0
 42
0.2
  3
TXT
  4
BIGFONT
  0
STYLE
  2
STANDARD1
 70
     0
 40
0.0
 41
1.0
 50
0.0
 71
     0
 42
3.0
  3
txt
  4

  0
ENDTAB
  0
TABLE
  2
VIEW
 70
     1
  0
VIEW
  2
ALL
 70
     0
 40
270.0
 10
220.99159663865549
 20
135.0
 41
0.0
 11
0.0
 21
0.0
 31
1.0
 12
0.0
 22
0.0
 32
0.0
 42
0.0
 43
0.0
 44
0.0
 50
0.0
 71
     0
  0
ENDTAB
  0
TABLE
  2
UCS
 70
     0
  0
ENDTAB
  0
TABLE
  2
APPID
 70
     3
  0
APPID
  2
ACAD
 70
     0
  0
APPID
  2
ACAD_MLEADERVER
 70
     0
  0
APPID
  2
ACAD_NAV_VCDISPLAY
 70
     0
  0
ENDTAB
  0
TABLE
  2
DIMSTYLE
 70
     1
  0
DIMSTYLE
  2
STANDARD
 70
     0
  3

  4

  5

  6

  7

 40
1.0
 41
0.18
 42
0.0625
 43
0.38
 44
0.18
 45
0.0
 46
0.0
 47
0.0
 48
0.0
140
0.18
141
0.09
142
0.0
143
25.399999999999999
144
1.0
145
0.0
146
1.0
147
0.09
 71
     0
 72
     0
 73
     1
 74
     1
 75
     0
 76
     0
 77
     0
 78
     0
170
     0
171
     2
172
     0
173
     0
174
     0
175
     0
176
     0
177
     0
178
     0
  0
ENDTAB
  0
ENDSEC
  0
SECTION
  2
BLOCKS
  0
BLOCK
  8
0
  2
$MODEL_SPACE
 70
     0
 10
0.0
 20
0.0
 30
0.0
  3
$MODEL_SPACE
  1

  0
ENDBLK
  5
151
  8
0
  0
BLOCK
 67
     1
  8
0
  2
$PAPER_SPACE
 70
     0
 10
0.0
 20
0.0
 30
0.0
  3
$PAPER_SPACE
  1

  0
ENDBLK
  5
14F
 67
     1
  8
0
  0
ENDSEC
  0
SECTION
  2
ENTITIES
  0
LINE
  5
36
  8
1
 10
52.410706869719348
 20
94.80770375948731
 30
0.0
 11
52.410706869719348
 21
165.80770375948731
 31
0.0
  0
LINE
  5
37
  8
0
 10
58.410706869719348
 20
115.8077037594873
 30
0.0
 11
58.410706869719348
 21
155.80770375948731
 31
0.0
  0
LINE
  5
38
  8
0
 10
58.410706869719348
 20
155.80770375948731
 30
0.0
 11
46.410706869719348
 21
155.80770375948731
 31
0.0
  0
LINE
  5
39
  8
0
 10
46.410706869719348
 20
155.80770375948731
 30
0.0
 11
46.410706869719348
 21
115.8077037594873
 31
0.0
  0
LINE
  5
3A
  8
0
 10
46.410706869719348
 20
115.8077037594873
 30
0.0
 11
58.410706869719348
 21
115.8077037594873
 31
0.0
  0
LINE
  5
3B
  8
1
 10
187.07252469642819
 20
105.8077037594873
 30
0.0
 11
187.07252469642819
 21
165.80770375948731
 31
0.0
  0
LINE
  5
3C
  8
0
 10
283.07252469642827
 20
150.80770375948731
 30
0.0
 11
283.07252469642827
 21
115.8077037594873
 31
0.0
  0
LINE
  5
3D
  8
0
 10
283.07252469642827
 20
115.8077037594873
 30
0.0
 11
271.07252469642827
 21
115.8077037594873
 31
0.0
  0
LINE
  5
3E
  8
0
 10
271.07252469642827
 20
115.8077037594873
 30
0.0
 11
271.07252469642827
 21
137.80770375948731
 31
0.0
  0
ARC
  5
3F
  8
0
 10
261.07252469642827
 20
137.80770375948731
 30
0.0
 40
10.0
 50
0.0
 51
90.0
  0
ARC
  5
40
  8
0
 10
278.07252469642827
 20
150.80770375948731
 30
0.0
 40
5.0
 50
0.0
 51
90.0
  0
LINE
  5
41
  8
1
 10
277.07252469642827
 20
99.80770375948731
 30
0.0
 11
277.07252469642827
 21
160.80770375948731
 31
0.0
  0
LINE
  5
42
  8
2
 10
58.410706869719348
 20
147.80770375948731
 30
0.0
 11
46.410706869719348
 21
147.80770375948731
 31
0.0
  0
LINE
  5
43
  8
0
 10
274.57252469642827
 20
107.3077037594873
 30
0.0
 11
274.57252469642827
 21
105.7077037594873
 31
0.0
  0
LINE
  5
44
  8
0
 10
279.57252469642822
 20
107.3077037594873
 30
0.0
 11
279.57252469642827
 21
105.7077037594873
 31
0.0
  0
LINE
  5
45
  8
0
 10
271.57252469642827
 20
111.0577037594873
 30
0.0
 11
272.45372254291118
 21
110.3077037594867
 31
0.0
  0
LINE
  5
46
  8
0
 10
271.57252469642827
 20
111.0577037594873
 30
0.0
 11
271.57252469642827
 21
111.8077037594873
 31
0.0
  0
LINE
  5
47
  8
0
 10
282.57252469642827
 20
111.0577037594873
 30
0.0
 11
271.57252469642827
 21
111.0577037594873
 31
0.0
  0
LINE
  5
48
  8
0
 10
281.6913268499452
 20
110.3077037594884
 30
0.0
 11
282.57252469642827
 21
111.0577037594873
 31
0.0
  0
LINE
  5
49
  8
0
 10
282.57252469642827
 20
111.8077037594873
 30
0.0
 11
282.57252469642827
 21
111.0577037594873
 31
0.0
  0
LINE
  5
4A
  8
0
 10
281.6913268499452
 20
107.7227043763139
 30
0.0
 11
280.97252469643098
 21
107.3077037594873
 31
0.0
  0
ARC
  5
4B
  8
0
 10
280.53662631156601
 20
109.4100969851514
 30
0.0
 40
2.044658198744437
 50
235.61575253207371
 51
295.61575253331978
  0
ARC
  5
4C
  8
0
 10
277.07252469641543
 20
115.008173196443
 30
0.0
 40
7.6427344100359971
 50
252.41204622597419
 51
287.5879537742274
  0
ARC
  5
4D
  8
0
 10
280.53662631156601
 20
111.99509636832479
 30
0.0
 40
2.044658198744437
 50
235.61575253207371
 51
304.38424746794522
  0
ARC
  5
4E
  8
0
 10
277.07252469641543
 20
117.59317257961639
 30
0.0
 40
7.6427344100359971
 50
252.41204622597411
 51
287.5879537742274
  0
ARC
  5
4F
  8
0
 10
273.60842308129048
 20
111.99509636832479
 30
0.0
 40
2.044658198744437
 50
235.61575253208139
 51
304.3842474679264
  0
ARC
  5
50
  8
0
 10
273.60842308129048
 20
109.4100969851514
 30
0.0
 40
2.044658198744437
 50
244.38424746668019
 51
304.3842474679264
  0
LINE
  5
51
  8
0
 10
272.45372254291118
 20
107.7227043763139
 30
0.0
 11
273.17252469642551
 21
107.3077037594873
 31
0.0
  0
LINE
  5
52
  8
0
 10
281.6913268499452
 20
107.7227043763139
 30
0.0
 11
281.6913268499452
 21
110.3077037594873
 31
0.0
  0
LINE
  5
53
  8
0
 10
280.97252469642922
 20
107.3077037594873
 30
0.0
 11
273.17252469642563
 21
107.3077037594873
 31
0.0
  0
LINE
  5
54
  8
0
 10
279.38192577318671
 20
107.722704376324
 30
0.0
 11
279.38192577317869
 21
110.3077037594817
 31
0.0
  0
LINE
  5
55
  8
0
 10
274.76312361966973
 20
110.3077037594705
 30
0.0
 11
274.76312361966973
 21
107.722704376322
 31
0.0
  0
LINE
  5
56
  8
0
 10
272.45372254291141
 20
107.7227043763139
 30
0.0
 11
272.45372254291118
 21
110.3077037594873
 31
0.0
  0
LINE
  5
57
  8
0
 10
271.57252469642827
 20
111.8077037594873
 30
0.0
 11
282.57252469642827
 21
111.8077037594873
 31
0.0
  0
LINE
  5
58
  8
0
 10
274.57252469642827
 20
105.7077037594873
 30
0.0
 11
279.57252469642827
 21
105.7077037594873
 31
0.0
  0
LINE
  5
59
  8
0
 10
278.67252469642818
 20
104.8077037594873
 30
0.0
 11
279.57252469642827
 21
105.7077037594873
 31
0.0
  0
LINE
  5
5A
  8
0
 10
274.57252469642827
 20
105.7077037594873
 30
0.0
 11
275.47252469642831
 21
104.8077037594873
 31
0.0
  0
LINE
  5
5B
  8
3
 10
275.0055246964281
 20
105.27470375948749
 30
0.0
 11
275.0055246964281
 21
107.3077037594873
 31
0.0
  0
LINE
  5
5C
  8
3
 10
279.13952469642851
 20
105.27470375948749
 30
0.0
 11
279.13952469642851
 21
107.3077037594873
 31
0.0
  0
LINE
  5
5D
  8
0
 10
278.67252469642818
 20
104.8077037594873
 30
0.0
 11
275.47252469642831
 21
104.8077037594873
 31
0.0
  0
LINE
  5
5E
  8
0
 10
274.57252469642827
 20
115.8077037594873
 30
0.0
 11
274.57252469642827
 21
111.8077037594873
 31
0.0
  0
LINE
  5
5F
  8
3
 10
275.0055246964281
 20
111.8077037594873
 30
0.0
 11
275.0055246964281
 21
115.8077037594873
 31
0.0
  0
LINE
  5
60
  8
3
 10
279.13952469642851
 20
111.8077037594873
 30
0.0
 11
279.13952469642851
 21
115.8077037594873
 31
0.0
  0
LINE
  5
61
  8
0
 10
279.57252469642827
 20
115.8077037594873
 30
0.0
 11
279.57252469642827
 21
111.8077037594873
 31
0.0
  0
LINE
  5
62
  8
0
 10
49.91070686971937
 20
107.3077037594873
 30
0.0
 11
49.910706869719348
 21
105.7077037594873
 31
0.0
  0
LINE
  5
63
  8
0
 10
54.910706869719291
 20
107.3077037594873
 30
0.0
 11
54.91070686971932
 21
105.7077037594873
 31
0.0
  0
LINE
  5
64
  8
0
 10
46.910706869719348
 20
111.0577037594873
 30
0.0
 11
48.410706869719171
 21
109.7810324597436
 31
0.0
  0
LINE
  5
65
  8
0
 10
46.910706869719348
 20
111.0577037594873
 30
0.0
 11
46.910706869719348
 21
111.8077037594873
 31
0.0
  0
LINE
  5
66
  8
0
 10
57.910706869719341
 20
111.0577037594873
 30
0.0
 11
46.910706869719348
 21
111.0577037594873
 31
0.0
  0
LINE
  5
67
  8
0
 10
56.410706869719519
 20
109.7810324597466
 30
0.0
 11
57.910706869719341
 21
111.0577037594873
 31
0.0
  0
LINE
  5
68
  8
0
 10
57.910706869719341
 20
111.8077037594873
 30
0.0
 11
57.910706869719341
 21
111.0577037594873
 31
0.0
  0
LINE
  5
69
  8
0
 10
46.910706869719348
 20
111.8077037594873
 30
0.0
 11
57.91070686971932
 21
111.8077037594873
 31
0.0
  0
LINE
  5
6A
  8
0
 10
49.910706869719348
 20
105.7077037594873
 30
0.0
 11
54.910706869719348
 21
105.7077037594873
 31
0.0
  0
LINE
  5
6B
  8
0
 10
54.010706869719307
 20
104.8077037594873
 30
0.0
 11
54.91070686971932
 21
105.7077037594873
 31
0.0
  0
LINE
  5
6C
  8
0
 10
49.910706869719348
 20
105.7077037594873
 30
0.0
 11
50.810706869719347
 21
104.8077037594873
 31
0.0
  0
LINE
  5
6D
  8
3
 10
50.343706869719142
 20
105.27470375948749
 30
0.0
 11
50.343706869719171
 21
107.3077037594873
 31
0.0
  0
LINE
  5
6E
  8
3
 10
54.477706869719547
 20
105.27470375948749
 30
0.0
 11
54.477706869719547
 21
107.3077037594873
 31
0.0
  0
LINE
  5
6F
  8
0
 10
54.010706869719307
 20
104.8077037594873
 30
0.0
 11
50.810706869719347
 21
104.8077037594873
 31
0.0
  0
LINE
  5
70
  8
3
 10
50.343706869719171
 20
111.8077037594873
 30
0.0
 11
50.343706869719171
 21
115.8077037594873
 31
0.0
  0
LINE
  5
71
  8
3
 10
54.477706869719583
 20
111.8077037594873
 30
0.0
 11
54.477706869719583
 21
115.8077037594873
 31
0.0
  0
LINE
  5
72
  8
0
 10
49.91070686971937
 20
115.8077037594873
 30
0.0
 11
49.91070686971937
 21
111.8077037594873
 31
0.0
  0
LINE
  5
73
  8
0
 10
54.91070686971932
 20
115.8077037594873
 30
0.0
 11
54.91070686971932
 21
111.8077037594873
 31
0.0
  0
LINE
  5
74
  8
0
 10
52.410706869719412
 20
110.3077037594891
 30
0.0
 11
52.410706869712072
 21
107.7227043763139
 31
0.0
  0
LINE
  5
75
  8
0
 10
48.510706869720728
 20
107.3077037594873
 30
0.0
 11
56.310706869718018
 21
107.3077037594873
 31
0.0
  0
LINE
  5
76
  8
0
 10
56.410706869719348
 20
107.365438786407
 30
0.0
 11
56.310706869717961
 21
107.3077037594873
 31
0.0
  0
ARC
  5
77
  8
0
 10
54.410706869719348
 20
113.1421477927347
 30
0.0
 40
5.7767090063276196
 50
249.7438419996576
 51
290.25615800034228
  0
ARC
  5
78
  8
0
 10
54.410706869719348
 20
115.7271471759092
 30
0.0
 40
5.7767090063276196
 50
249.7438419996578
 51
290.2561580003424
  0
LINE
  5
79
  8
0
 10
56.410706869719519
 20
107.365438786407
 30
0.0
 11
56.410706869719519
 21
110.3077037594884
 31
0.0
  0
LINE
  5
7A
  8
0
 10
48.410706869719171
 20
107.365438786407
 30
0.0
 11
48.410706869719171
 21
110.3077037594884
 31
0.0
  0
ARC
  5
7B
  8
0
 10
50.410706869719341
 20
115.7271471759092
 30
0.0
 40
5.7767090063276196
 50
249.74384199965769
 51
290.25615800034228
  0
ARC
  5
7C
  8
0
 10
50.410706869719341
 20
113.1421477927347
 30
0.0
 40
5.7767090063276196
 50
249.7438419996576
 51
290.25615800034228
  0
LINE
  5
7D
  8
0
 10
48.410706869719348
 20
107.365438786407
 30
0.0
 11
48.510706869720728
 21
107.3077037594873
 31
0.0
  0
LINE
  5
7E
  8
0
 10
54.587521390290789
 20
154.80770375948731
 30
0.0
 11
50.233892349145691
 21
154.80770375948731
 31
0.0
  0
POLYLINE
  5
7F
  8
0
 66
     1
 10
0.0
 20
0.0
 30
0.0
  0
VERTEX
  5
80
  8
0
 10
48.160706869719348
 20
155.80770375948731
 30
0.0
 42
0.2523896899305732
  0
VERTEX
  5
81
  8
0
 10
48.343884442452932
 20
155.4679334233312
 30
0.0
 42
0.0791269388941437
  0
VERTEX
  5
82
  8
0
 10
49.405503049676518
 20
154.98878539499569
 30
0.0
 42
0.0384296704119539
 70
     2
 50
344.75699651520381
  0
VERTEX
  5
83
  8
0
 10
50.66345240248566
 20
154.7478753444237
 30
0.0
 42
0.0281067785316541
 50
344.75699651520381
  0
VERTEX
  5
84
  8
0
 10
52.410706869719348
 20
154.64957830194689
 30
0.0
 42
0.0281067785316616
  0
VERTEX
  5
85
  8
0
 10
54.157961336953029
 20
154.7478753444237
 30
0.0
 42
0.0384296704119641
  0
VERTEX
  5
86
  8
0
 10
55.415910689762171
 20
154.98878539499569
 30
0.0
 42
0.0791269388941537
 70
     2
 50
15.243003484796169
  0
VERTEX
  5
87
  8
0
 10
56.522010129616561
 20
155.48800928024329
 30
0.0
 42
0.2981789072261019
 50
15.243003484796169
  0
VERTEX
  5
88
  8
0
 10
56.660706869719341
 20
155.80770375948731
 30
0.0
 42
0.2523896899305415
  0
SEQEND
  5
89
  8
0
  0
POLYLINE
  5
8A
  8
0
 66
     1
 10
0.0
 20
0.0
 30
0.0
  0
VERTEX
  5
8B
  8
0
 10
325.98434252313717
 20
155.80770375948731
 30
0.0
 42
-0.2523896899305732
  0
VERTEX
  5
8C
  8
0
 10
325.80116495040357
 20
155.4679334233312
 30
0.0
 42
-0.0791269388941437
  0
VERTEX
  5
8D
  8
0
 10
324.73954634318
 20
154.98878539499569
 30
0.0
 42
-0.0384296704119539
 70
     2
 50
195.24300348479619
  0
VERTEX
  5
8E
  8
0
 10
323.48159699037092
 20
154.7478753444237
 30
0.0
 42
-0.0281067785316541
  0
VERTEX
  5
8F
  8
0
 10
321.73434252313717
 20
154.64957830194689
 30
0.0
 42
-0.0281067785316616
  0
VERTEX
  5
90
  8
0
 10
319.9870880559036
 20
154.7478753444237
 30
0.0
 42
-0.0384296704119641
  0
VERTEX
  5
91
  8
0
 10
318.72913870309429
 20
154.98878539499569
 30
0.0
 42
-0.0791269388941537
 70
     2
 50
164.75699651520389
  0
VERTEX
  5
92
  8
0
 10
317.62303926324
 20
155.48800928024329
 30
0.0
 42
-0.2981789072261019
  0
VERTEX
  5
93
  8
0
 10
317.48434252313717
 20
155.80770375948731
 30
0.0
 42
-0.2523896899305415
  0
SEQEND
  5
94
  8
0
  0
LINE
  5
95
  8
0
 10
319.55752800256579
 20
154.80770375948731
 30
0.0
 11
323.91115704371089
 21
154.80770375948731
 31
0.0
  0
LINE
  5
96
  8
0
 10
325.73434252313717
 20
107.365438786407
 30
0.0
 11
325.63434252313579
 21
107.3077037594873
 31
0.0
  0
ARC
  5
97
  8
0
 10
323.73434252313717
 20
113.1421477927347
 30
0.0
 40
5.7767090063276196
 50
249.74384199965769
 51
290.2561580003424
  0
ARC
  5
98
  8
0
 10
323.73434252313717
 20
115.7271471759092
 30
0.0
 40
5.7767090063276196
 50
249.74384199965769
 51
290.25615800034228
  0
LINE
  5
99
  8
0
 10
325.73434252313729
 20
107.365438786407
 30
0.0
 11
325.73434252313729
 21
110.3077037594884
 31
0.0
  0
LINE
  5
9A
  8
0
 10
317.734342523137
 20
107.365438786407
 30
0.0
 11
317.734342523137
 21
110.3077037594884
 31
0.0
  0
ARC
  5
9B
  8
0
 10
319.73434252313717
 20
115.7271471759092
 30
0.0
 40
5.7767090063276196
 50
249.7438419996576
 51
290.25615800034228
  0
ARC
  5
9C
  8
0
 10
319.73434252313717
 20
113.1421477927347
 30
0.0
 40
5.7767090063276196
 50
249.74384199965769
 51
290.2561580003424
  0
LINE
  5
9D
  8
0
 10
317.73434252313717
 20
107.365438786407
 30
0.0
 11
317.83434252313862
 21
107.3077037594873
 31
0.0
  0
LINE
  5
9E
  8
0
 10
325.63434252313579
 20
107.3077037594873
 30
0.0
 11
317.8343425231385
 21
107.3077037594873
 31
0.0
  0
LINE
  5
9F
  8
0
 10
321.73434252313712
 20
110.3077037594891
 30
0.0
 11
321.73434252314451
 21
107.7227043763139
 31
0.0
  0
LINE
  5
A0
  8
0
 10
319.23434252313717
 20
115.8077037594873
 30
0.0
 11
319.23434252313717
 21
111.8077037594873
 31
0.0
  0
LINE
  5
A1
  8
0
 10
324.23434252313717
 20
115.8077037594873
 30
0.0
 11
324.23434252313717
 21
111.8077037594873
 31
0.0
  0
LINE
  5
A2
  8
3
 10
319.66734252313699
 20
111.8077037594873
 30
0.0
 11
319.66734252313699
 21
115.8077037594873
 31
0.0
  0
LINE
  5
A3
  8
3
 10
323.80134252313741
 20
111.8077037594873
 30
0.0
 11
323.80134252313741
 21
115.8077037594873
 31
0.0
  0
LINE
  5
A4
  8
0
 10
320.13434252313721
 20
104.8077037594873
 30
0.0
 11
323.3343425231372
 21
104.8077037594873
 31
0.0
  0
LINE
  5
A5
  8
3
 10
319.66734252313699
 20
105.27470375948749
 30
0.0
 11
319.66734252313699
 21
107.3077037594873
 31
0.0
  0
LINE
  5
A6
  8
3
 10
323.80134252313741
 20
105.27470375948749
 30
0.0
 11
323.80134252313741
 21
107.3077037594873
 31
0.0
  0
LINE
  5
A7
  8
0
 10
324.23434252313717
 20
105.7077037594873
 30
0.0
 11
323.3343425231372
 21
104.8077037594873
 31
0.0
  0
LINE
  5
A8
  8
0
 10
320.13434252313721
 20
104.8077037594873
 30
0.0
 11
319.23434252313717
 21
105.7077037594873
 31
0.0
  0
LINE
  5
A9
  8
0
 10
324.23434252313717
 20
105.7077037594873
 30
0.0
 11
319.23434252313717
 21
105.7077037594873
 31
0.0
  0
LINE
  5
AA
  8
0
 10
327.23434252313729
 20
111.8077037594873
 30
0.0
 11
316.23434252313717
 21
111.8077037594873
 31
0.0
  0
LINE
  5
AB
  8
0
 10
316.23434252313717
 20
111.8077037594873
 30
0.0
 11
316.23434252313717
 21
111.0577037594873
 31
0.0
  0
LINE
  5
AC
  8
0
 10
317.734342523137
 20
109.7810324597466
 30
0.0
 11
316.23434252313717
 21
111.0577037594873
 31
0.0
  0
LINE
  5
AD
  8
0
 10
316.23434252313717
 20
111.0577037594873
 30
0.0
 11
327.23434252313729
 21
111.0577037594873
 31
0.0
  0
LINE
  5
AE
  8
0
 10
327.23434252313729
 20
111.0577037594873
 30
0.0
 11
327.23434252313729
 21
111.8077037594873
 31
0.0
  0
LINE
  5
AF
  8
0
 10
327.23434252313729
 20
111.0577037594873
 30
0.0
 11
325.73434252313729
 21
109.7810324597436
 31
0.0
  0
LINE
  5
B0
  8
0
 10
319.23434252313717
 20
107.3077037594873
 30
0.0
 11
319.23434252313717
 21
105.7077037594873
 31
0.0
  0
LINE
  5
B1
  8
0
 10
324.23434252313717
 20
107.3077037594873
 30
0.0
 11
324.23434252313717
 21
105.7077037594873
 31
0.0
  0
LINE
  5
B2
  8
2
 10
315.73434252313717
 20
147.80770375948731
 30
0.0
 11
327.73434252313717
 21
147.80770375948731
 31
0.0
  0
LINE
  5
B3
  8
0
 10
327.73434252313717
 20
115.8077037594873
 30
0.0
 11
315.73434252313717
 21
115.8077037594873
 31
0.0
  0
LINE
  5
B4
  8
0
 10
327.73434252313717
 20
155.80770375948731
 30
0.0
 11
327.73434252313717
 21
115.8077037594873
 31
0.0
  0
LINE
  5
B5
  8
0
 10
315.73434252313717
 20
155.80770375948731
 30
0.0
 11
327.73434252313717
 21
155.80770375948731
 31
0.0
  0
LINE
  5
B6
  8
0
 10
315.73434252313717
 20
115.8077037594873
 30
0.0
 11
315.73434252313717
 21
155.80770375948731
 31
0.0
  0
LINE
  5
B7
  8
1
 10
321.73434252313717
 20
94.80770375948731
 30
0.0
 11
321.73434252313717
 21
165.80770375948731
 31
0.0
  0
LINE
  5
B8
  8
0
 10
283.07252469642822
 20
202.95705000432511
 30
0.0
 11
91.072524696428275
 21
202.95705000432511
 31
0.0
  0
LINE
  5
B9
  8
0
 10
91.072524696428275
 20
202.95705000432511
 30
0.0
 11
91.072524696428275
 21
214.95705000432511
 31
0.0
  0
LINE
  5
BA
  8
0
 10
283.07252469642822
 20
202.95705000432511
 30
0.0
 11
283.07252469642827
 21
214.95705000432511
 31
0.0
  0
LINE
  5
BB
  8
0
 10
283.07252469642827
 20
214.95705000432511
 30
0.0
 11
91.072524696428275
 21
214.95705000432511
 31
0.0
  0
LINE
  5
BC
  8
0
 10
283.07252469642827
 20
47.992936418981849
 30
0.0
 11
91.072524696428275
 21
47.992936418981827
 31
0.0
  0
LINE
  5
BD
  8
0
 10
283.07252469642822
 20
59.992936418981849
 30
0.0
 11
283.07252469642827
 21
47.992936418981849
 31
0.0
  0
LINE
  5
BE
  8
0
 10
91.072524696428275
 20
59.992936418981849
 30
0.0
 11
91.072524696428275
 21
47.992936418981827
 31
0.0
  0
LINE
  5
BF
  8
0
 10
283.07252469642822
 20
59.992936418981849
 30
0.0
 11
91.072524696428275
 21
59.992936418981849
 31
0.0
  0
CIRCLE
  5
C0
  8
0
 10
97.072524696428275
 20
208.95705000432511
 30
0.0
 40
4.25
  0
CIRCLE
  5
C1
  8
0
 10
97.072524696428275
 20
208.95705000432511
 30
0.0
 40
4.1999999999999877
  0
LINE
  5
C2
  8
1
 10
104.27252469642821
 20
208.95705000432511
 30
0.0
 11
89.872524696428286
 21
208.95705000432511
 31
0.0
  0
LINE
  5
C3
  8
1
 10
97.072524696428275
 20
216.1570500043251
 30
0.0
 11
97.072524696428275
 21
201.75705000432509
 31
0.0
  0
LINE
  5
C4
  8
1
 10
277.07252469642827
 20
216.1570500043251
 30
0.0
 11
277.07252469642827
 21
201.75705000432509
 31
0.0
  0
LINE
  5
C5
  8
1
 10
269.87252469642829
 20
208.95705000432511
 30
0.0
 11
284.27252469642832
 21
208.95705000432511
 31
0.0
  0
CIRCLE
  5
C6
  8
0
 10
277.07252469642827
 20
208.95705000432511
 30
0.0
 40
4.1999999999999877
  0
CIRCLE
  5
C7
  8
0
 10
277.07252469642827
 20
208.95705000432511
 30
0.0
 40
4.25
  0
LINE
  5
C8
  8
0
 10
261.07252469642827
 20
147.80770375948731
 30
0.0
 11
113.0725246964283
 21
147.80770375948731
 31
0.0
  0
LINE
  5
C9
  8
0
 10
94.572524696428275
 20
115.8077037594873
 30
0.0
 11
94.572524696428275
 21
111.8077037594873
 31
0.0
  0
LINE
  5
CA
  8
3
 10
95.005524696428026
 20
111.8077037594873
 30
0.0
 11
95.005524696428026
 21
115.8077037594873
 31
0.0
  0
LINE
  5
CB
  8
3
 10
99.139524696428452
 20
111.8077037594873
 30
0.0
 11
99.139524696428452
 21
115.8077037594873
 31
0.0
  0
LINE
  5
CC
  8
0
 10
99.572524696428246
 20
115.8077037594873
 30
0.0
 11
99.572524696428246
 21
111.8077037594873
 31
0.0
  0
LINE
  5
CD
  8
0
 10
95.472524696428309
 20
104.8077037594873
 30
0.0
 11
98.672524696428283
 21
104.8077037594873
 31
0.0
  0
LINE
  5
CE
  8
3
 10
95.005524696428026
 20
105.27470375948749
 30
0.0
 11
95.005524696428026
 21
107.3077037594873
 31
0.0
  0
LINE
  5
CF
  8
3
 10
99.139524696428495
 20
105.27470375948749
 30
0.0
 11
99.139524696428452
 21
107.3077037594873
 31
0.0
  0
LINE
  5
D0
  8
0
 10
99.572524696428275
 20
105.7077037594873
 30
0.0
 11
98.672524696428283
 21
104.8077037594873
 31
0.0
  0
LINE
  5
D1
  8
0
 10
95.472524696428309
 20
104.8077037594873
 30
0.0
 11
94.572524696428275
 21
105.7077037594873
 31
0.0
  0
LINE
  5
D2
  8
0
 10
99.572524696428275
 20
105.7077037594873
 30
0.0
 11
94.572524696428275
 21
105.7077037594873
 31
0.0
  0
LINE
  5
D3
  8
0
 10
102.5725246964283
 20
111.8077037594873
 30
0.0
 11
91.572524696428275
 21
111.8077037594873
 31
0.0
  0
LINE
  5
D4
  8
0
 10
101.6913268499451
 20
107.7227043763139
 30
0.0
 11
101.6913268499453
 21
110.3077037594873
 31
0.0
  0
LINE
  5
D5
  8
0
 10
99.381925773186822
 20
110.3077037594705
 30
0.0
 11
99.381925773186822
 21
107.722704376322
 31
0.0
  0
LINE
  5
D6
  8
0
 10
94.763123619669841
 20
107.722704376324
 30
0.0
 11
94.763123619677899
 21
110.3077037594817
 31
0.0
  0
LINE
  5
D7
  8
0
 10
93.172524696427331
 20
107.3077037594873
 30
0.0
 11
100.9725246964309
 21
107.3077037594873
 31
0.0
  0
LINE
  5
D8
  8
0
 10
92.453722542911351
 20
107.7227043763139
 30
0.0
 11
92.453722542911351
 21
110.3077037594873
 31
0.0
  0
LINE
  5
D9
  8
0
 10
101.6913268499453
 20
107.7227043763139
 30
0.0
 11
100.97252469643109
 21
107.3077037594873
 31
0.0
  0
ARC
  5
DA
  8
0
 10
100.5366263115661
 20
109.4100969851514
 30
0.0
 40
2.044658198744437
 50
235.61575253207371
 51
295.61575253331989
  0
ARC
  5
DB
  8
0
 10
100.5366263115661
 20
111.99509636832479
 30
0.0
 40
2.044658198744437
 50
235.6157525320736
 51
304.38424746791873
  0
ARC
  5
DC
  8
0
 10
97.072524696441164
 20
117.59317257961639
 30
0.0
 40
7.6427344100359971
 50
252.4120462257726
 51
287.58795377402589
  0
ARC
  5
DD
  8
0
 10
93.608423081290596
 20
111.99509636832479
 30
0.0
 40
2.044658198744437
 50
235.61575253205481
 51
304.3842474679264
  0
ARC
  5
DE
  8
0
 10
97.072524696441164
 20
115.008173196443
 30
0.0
 40
7.6427344100359971
 50
252.4120462257726
 51
287.58795377402578
  0
ARC
  5
DF
  8
0
 10
93.608423081290596
 20
109.4100969851514
 30
0.0
 40
2.044658198744437
 50
244.38424746668019
 51
304.3842474679264
  0
LINE
  5
E0
  8
0
 10
92.453722542911351
 20
107.7227043763139
 30
0.0
 11
93.172524696425569
 21
107.3077037594873
 31
0.0
  0
LINE
  5
E1
  8
0
 10
91.572524696428275
 20
111.8077037594873
 30
0.0
 11
91.572524696428275
 21
111.0577037594873
 31
0.0
  0
LINE
  5
E2
  8
0
 10
92.453722542911351
 20
110.3077037594884
 30
0.0
 11
91.572524696428275
 21
111.0577037594873
 31
0.0
  0
LINE
  5
E3
  8
0
 10
91.572524696428275
 20
111.0577037594873
 30
0.0
 11
102.5725246964283
 21
111.0577037594873
 31
0.0
  0
LINE
  5
E4
  8
0
 10
102.5725246964283
 20
111.0577037594873
 30
0.0
 11
102.5725246964283
 21
111.8077037594873
 31
0.0
  0
LINE
  5
E5
  8
0
 10
102.5725246964283
 20
111.0577037594873
 30
0.0
 11
101.6913268499453
 21
110.3077037594867
 31
0.0
  0
LINE
  5
E6
  8
0
 10
94.572524696428331
 20
107.3077037594873
 30
0.0
 11
94.572524696428275
 21
105.7077037594873
 31
0.0
  0
LINE
  5
E7
  8
0
 10
99.572524696428246
 20
107.3077037594873
 30
0.0
 11
99.572524696428275
 21
105.7077037594873
 31
0.0
  0
LINE
  5
E8
  8
1
 10
97.072524696428275
 20
99.80770375948731
 30
0.0
 11
97.072524696428275
 21
160.80770375948731
 31
0.0
  0
ARC
  5
E9
  8
0
 10
96.072524696428275
 20
150.80770375948731
 30
0.0
 40
5.0
 50
90.000000000000028
 51
180.0
  0
ARC
  5
EA
  8
0
 10
113.0725246964283
 20
137.80770375948731
 30
0.0
 40
10.0
 50
90.000000000000028
 51
180.0
  0
LINE
  5
EB
  8
0
 10
103.0725246964282
 20
115.8077037594873
 30
0.0
 11
103.0725246964282
 21
137.80770375948731
 31
0.0
  0
LINE
  5
EC
  8
0
 10
91.072524696428275
 20
115.8077037594873
 30
0.0
 11
103.0725246964282
 21
115.8077037594873
 31
0.0
  0
LINE
  5
ED
  8
0
 10
91.072524696428275
 20
150.80770375948731
 30
0.0
 11
91.072524696428275
 21
115.8077037594873
 31
0.0
  0
LINE
  5
EE
  8
0
 10
96.072524696428275
 20
155.80770375948731
 30
0.0
 11
278.07252199903002
 21
155.8077037594872
 31
0.0
  0
LINE
  5
EF
  8
0
 10
103.0725246964282
 20
59.992936418981849
 30
0.0
 11
103.0725246964283
 21
47.992936418981827
 31
0.0
  0
CIRCLE
  5
F0
  8
0
 10
97.072524696428275
 20
53.992936418981863
 30
0.0
 40
5.499999999999992
  0
CIRCLE
  5
F1
  8
0
 10
97.072524696428303
 20
53.992936418981877
 30
0.0
 40
3.8999999999999999
  0
LINE
  5
F2
  8
0
 10
92.453722542911308
 20
53.99293641898182
 30
0.0
 11
94.763123619669756
 21
49.992936418981877
 31
0.0
  0
LINE
  5
F3
  8
0
 10
94.763123619669798
 20
57.992936418981877
 30
0.0
 11
92.453722542911308
 21
53.99293641898182
 31
0.0
  0
LINE
  5
F4
  8
0
 10
99.381925773186794
 20
57.992936418981827
 30
0.0
 11
94.763123619669798
 21
57.992936418981877
 31
0.0
  0
LINE
  5
F5
  8
0
 10
101.6913268499452
 20
53.99293641898182
 30
0.0
 11
99.381925773186794
 21
57.992936418981827
 31
0.0
  0
LINE
  5
F6
  8
0
 10
99.381925773186794
 20
49.992936418981877
 30
0.0
 11
101.6913268499452
 21
53.99293641898182
 31
0.0
  0
LINE
  5
F7
  8
0
 10
94.763123619669756
 20
49.992936418981877
 30
0.0
 11
99.381925773186794
 21
49.992936418981877
 31
0.0
  0
CIRCLE
  5
F8
  8
0
 10
97.072524696428303
 20
53.992936418981877
 30
0.0
 40
2.0669999999999988
  0
CIRCLE
  5
F9
  8
3
 10
97.072524696428303
 20
53.992936418981877
 30
0.0
 40
2.5
  0
CIRCLE
  5
FA
  8
3
 10
277.07252469642822
 20
53.992936418981877
 30
0.0
 40
2.5
  0
CIRCLE
  5
FB
  8
0
 10
277.07252469642822
 20
53.992936418981877
 30
0.0
 40
2.0669999999999988
  0
LINE
  5
FC
  8
0
 10
279.38192577318682
 20
49.992936418981877
 30
0.0
 11
274.76312361966973
 21
49.992936418981877
 31
0.0
  0
LINE
  5
FD
  8
0
 10
274.76312361966973
 20
49.992936418981877
 30
0.0
 11
272.45372254291129
 21
53.99293641898182
 31
0.0
  0
LINE
  5
FE
  8
0
 10
272.45372254291129
 20
53.99293641898182
 30
0.0
 11
274.76312361966973
 21
57.992936418981827
 31
0.0
  0
LINE
  5
FF
  8
0
 10
274.76312361966973
 20
57.992936418981827
 30
0.0
 11
279.38192577318671
 21
57.992936418981877
 31
0.0
  0
LINE
  5
100
  8
0
 10
279.38192577318671
 20
57.992936418981877
 30
0.0
 11
281.6913268499452
 21
53.99293641898182
 31
0.0
  0
LINE
  5
101
  8
0
 10
281.6913268499452
 20
53.99293641898182
 30
0.0
 11
279.38192577318682
 21
49.992936418981877
 31
0.0
  0
CIRCLE
  5
102
  8
0
 10
277.07252469642822
 20
53.992936418981877
 30
0.0
 40
3.8999999999999999
  0
CIRCLE
  5
103
  8
0
 10
277.07252469642827
 20
53.992936418981863
 30
0.0
 40
5.499999999999992
  0
LINE
  5
104
  8
0
 10
271.07252469642827
 20
59.992936418981849
 30
0.0
 11
271.07252469642827
 21
47.992936418981827
 31
0.0
  0
LINE
  5
105
  8
1
 10
105.5725246964282
 20
53.992936418981863
 30
0.0
 11
88.572524696428275
 21
53.992936418981863
 31
0.0
  0
LINE
  5
106
  8
1
 10
97.072524696428275
 20
62.492936418981841
 30
0.0
 11
97.072524696428275
 21
45.492936418981849
 31
0.0
  0
LINE
  5
107
  8
1
 10
285.57252469642827
 20
53.992936418981863
 30
0.0
 11
268.57252469642827
 21
53.992936418981863
 31
0.0
  0
LINE
  5
108
  8
1
 10
277.07252469642827
 20
62.492936418981841
 30
0.0
 11
277.07252469642827
 21
45.492936418981849
 31
0.0
  0
LINE
  5
109
  8
0
 10
278.22722523480752
 20
206.95705000432531
 30
0.0
 11
279.38192577318682
 21
208.95705000432531
 31
0.0
  0
LINE
  5
10A
  8
0
 10
279.38192577318682
 20
208.95705000432531
 30
0.0
 11
278.22722523480752
 21
210.957050004325
 31
0.0
  0
LINE
  5
10B
  8
0
 10
278.22722523480752
 20
210.957050004325
 30
0.0
 11
275.91782415804869
 21
210.957050004325
 31
0.0
  0
LINE
  5
10C
  8
0
 10
275.91782415804869
 20
210.957050004325
 30
0.0
 11
274.76312361966978
 21
208.957050004325
 31
0.0
  0
LINE
  5
10D
  8
0
 10
274.76312361966978
 20
208.957050004325
 30
0.0
 11
275.91782415804943
 21
206.9570500043248
 31
0.0
  0
LINE
  5
10E
  8
0
 10
275.91782415804943
 20
206.9570500043248
 30
0.0
 11
278.22722523480752
 21
206.95705000432531
 31
0.0
  0
LINE
  5
10F
  8
0
 10
95.917824158049314
 20
206.9570500043248
 30
0.0
 11
98.227225234807463
 21
206.95705000432531
 31
0.0
  0
LINE
  5
110
  8
0
 10
94.763123619669784
 20
208.957050004325
 30
0.0
 11
95.917824158049314
 21
206.9570500043248
 31
0.0
  0
LINE
  5
111
  8
0
 10
95.917824158048617
 20
210.957050004325
 30
0.0
 11
94.763123619669784
 21
208.957050004325
 31
0.0
  0
LINE
  5
112
  8
0
 10
98.227225234807463
 20
210.957050004325
 30
0.0
 11
95.917824158048617
 21
210.957050004325
 31
0.0
  0
LINE
  5
113
  8
0
 10
99.381925773186765
 20
208.95705000432531
 30
0.0
 11
98.227225234807463
 21
210.957050004325
 31
0.0
  0
LINE
  5
114
  8
0
 10
98.227225234807463
 20
206.95705000432531
 30
0.0
 11
99.381925773186765
 21
208.95705000432531
 31
0.0
  0
TEXT
  5
23B
  8
0
 62
     3
 10
0.0
 20
0.0
 30
0.0
 40
10.0
  1
SQ2-180B
  7
STANDARD1
  0
ENDSEC
  0
EOF
