  0
SECTION
  2
HEADER
  9
$ACADVER
  1
AC1009
  9
$INSBASE
 10
0.0
 20
0.0
 30
0.0
  9
$EXTMIN
 10
0.0
 20
-2.960436562073669
 30
0.0
  9
$EXTMAX
 10
292.01036067091832
 20
221.47163361616961
 30
0.0
  9
$LIMMIN
 10
0.0
 20
0.0
  9
$LIMMAX
 10
375.0
 20
270.0
  9
$ORTHOMODE
 70
     1
  9
$REGENMODE
 70
     1
  9
$FILLMODE
 70
     1
  9
$QTEXTMODE
 70
     0
  9
$MIRRTEXT
 70
     0
  9
$DRAGMODE
 70
     2
  9
$LTSCALE
 40
10.0
  9
$OSMODE
 70
    55
  9
$ATTMODE
 70
     1
  9
$TEXTSIZE
 40
0.2
  9
$TRACEWID
 40
0.05
  9
$TEXTSTYLE
  7
STANDARD
  9
$CLAYER
  8
0
  9
$CELTYPE
  6
BYLAYER
  9
$CECOLOR
 62
   256
  9
$DIMSCALE
 40
1.0
  9
$DIMASZ
 40
3.0
  9
$DIMEXO
 40
2.0
  9
$DIMDLI
 40
0.38
  9
$DIMRND
 40
0.0
  9
$DIMDLE
 40
0.0
  9
$DIMEXE
 40
2.0
  9
$DIMTP
 40
0.0
  9
$DIMTM
 40
0.0
  9
$DIMTXT
 40
3.2000000000000002
  9
$DIMCEN
 40
0.0
  9
$DIMTSZ
 40
0.0
  9
$DIMTOL
 70
     0
  9
$DIMLIM
 70
     0
  9
$DIMTIH
 70
     0
  9
$DIMTOH
 70
     0
  9
$DIMSE1
 70
     0
  9
$DIMSE2
 70
     0
  9
$DIMTAD
 70
     1
  9
$DIMZIN
 70
     0
  9
$DIMBLK
  1

  9
$DIMASO
 70
     1
  9
$DIMSHO
 70
     0
  9
$DIMPOST
  1

  9
$DIMAPOST
  1

  9
$DIMALT
 70
     0
  9
$DIMALTD
 70
     2
  9
$DIMALTF
 40
25.399999999999999
  9
$DIMLFAC
 40
1.0
  9
$DIMTOFL
 70
     1
  9
$DIMTVP
 40
1.6000000000000001
  9
$DIMTIX
 70
     1
  9
$DIMSOXD
 70
     0
  9
$DIMSAH
 70
     0
  9
$DIMBLK1
  1

  9
$DIMBLK2
  1

  9
$DIMSTYLE
  2
STANDARD
  9
$DIMCLRD
 70
     0
  9
$DIMCLRE
 70
     0
  9
$DIMCLRT
 70
     0
  9
$DIMTFAC
 40
1.0
  9
$DIMGAP
 40
0.09
  9
$LUNITS
 70
     2
  9
$LUPREC
 70
     4
  9
$SKETCHINC
 40
0.1
  9
$FILLETRAD
 40
0.0
  9
$AUNITS
 70
     0
  9
$AUPREC
 70
     4
  9
$MENU
  1
E:\r13\win\SUPPORT\ACAD
  9
$ELEVATION
 40
0.0
  9
$PELEVATION
 40
0.0
  9
$THICKNESS
 40
0.0
  9
$LIMCHECK
 70
     0
  9
$BLIPMODE
 70
     0
  9
$CHAMFERA
 40
0.0
  9
$CHAMFERB
 40
0.0
  9
$SKPOLY
 70
     0
  9
$TDCREATE
 40
2449840.6305208332
  9
$TDUPDATE
 40
2456598.5513448501
  9
$TDINDWG
 40
0.0001558681
  9
$TDUSRTIMER
 40
0.0001558681
  9
$USRTIMER
 70
     1
  9
$ANGBASE
 50
0.0
  9
$ANGDIR
 70
     0
  9
$PDMODE
 70
     0
  9
$PDSIZE
 40
0.0
  9
$PLINEWID
 40
0.0
  9
$COORDS
 70
     1
  9
$SPLFRAME
 70
     0
  9
$SPLINETYPE
 70
     6
  9
$SPLINESEGS
 70
     8
  9
$ATTDIA
 70
     0
  9
$ATTREQ
 70
     1
  9
$HANDLING
 70
     1
  9
$HANDSEED
  5
2D0
  9
$SURFTAB1
 70
     6
  9
$SURFTAB2
 70
     6
  9
$SURFTYPE
 70
     6
  9
$SURFU
 70
     6
  9
$SURFV
 70
     6
  9
$UCSNAME
  2

  9
$UCSORG
 10
0.0
 20
0.0
 30
0.0
  9
$UCSXDIR
 10
1.0
 20
0.0
 30
0.0
  9
$UCSYDIR
 10
0.0
 20
1.0
 30
0.0
  9
$PUCSNAME
  2

  9
$PUCSORG
 10
0.0
 20
0.0
 30
0.0
  9
$PUCSXDIR
 10
1.0
 20
0.0
 30
0.0
  9
$PUCSYDIR
 10
0.0
 20
1.0
 30
0.0
  9
$USERI1
 70
     0
  9
$USERI2
 70
     1
  9
$USERI3
 70
     1
  9
$USERI4
 70
     0
  9
$USERI5
 70
     0
  9
$USERR1
 40
0.0
  9
$USERR2
 40
0.0
  9
$USERR3
 40
0.0
  9
$USERR4
 40
0.0
  9
$USERR5
 40
0.0
  9
$WORLDVIEW
 70
     1
  9
$SHADEDGE
 70
     3
  9
$SHADEDIF
 70
    70
  9
$TILEMODE
 70
     1
  9
$MAXACTVP
 70
    16
  9
$PLIMCHECK
 70
     0
  9
$PEXTMIN
 10
1.0000000000000000E+020
 20
1.0000000000000000E+020
 30
1.0000000000000000E+020
  9
$PEXTMAX
 10
-1.0000000000000000E+020
 20
-1.0000000000000000E+020
 30
-1.0000000000000000E+020
  9
$PLIMMIN
 10
0.0
 20
0.0
  9
$PLIMMAX
 10
12.0
 20
9.0
  9
$UNITMODE
 70
     0
  9
$VISRETAIN
 70
     0
  9
$PLINEGEN
 70
     0
  9
$PSLTSCALE
 70
     0
  0
ENDSEC
  0
SECTION
  2
TABLES
  0
TABLE
  2
VPORT
 70
     1
  0
VPORT
  2
*ACTIVE
 70
     0
 10
0.0
 20
0.0
 11
1.0
 21
1.0
 12
187.49427839065231
 22
174.91677254346851
 13
0.0
 23
0.0
 14
10.0
 24
10.0
 15
10.0
 25
10.0
 16
0.0
 26
0.0
 36
1.0
 17
0.0
 27
0.0
 37
0.0
 40
358.92027899574339
 41
1.7807262569832401
 42
50.0
 43
0.0
 44
0.0
 50
0.0
 51
0.0
 71
     0
 72
   500
 73
     1
 74
     0
 75
     0
 76
     0
 77
     0
 78
     2
  0
ENDTAB
  0
TABLE
  2
LTYPE
 70
     4
  0
LTYPE
  2
CONTINUOUS
 70
     0
  3
Solid Line
 72
    65
 73
     0
 40
0.0
  0
LTYPE
  2
CENTER
 70
     0
  3
____ _ ____ _ ____ _ ____ _ ____ _ ____ _ ____
 72
    65
 73
     4
 40
2.0
 49
1.25
 49
-0.25
 49
0.25
 49
-0.25
  0
LTYPE
  2
HIDDEN
 70
     0
  3
_ _ _ _ _ _ _ _ _ _ _ _ _ _ _ _ _ _ _ _ _ _ _
 72
    65
 73
     2
 40
0.375
 49
0.25
 49
-0.125
  0
LTYPE
  2
PHANTOM2
 70
     0
  3
___ _ _ ___ _ _ ___ _ _ ___ _ _
 72
    65
 73
     6
 40
1.25
 49
0.625
 49
-0.125
 49
0.125
 49
-0.125
 49
0.125
 49
-0.125
  0
ENDTAB
  0
TABLE
  2
LAYER
 70
     4
  0
LAYER
  2
0
 70
     0
 62
     7
  6
CONTINUOUS
  0
LAYER
  2
1
 70
     0
 62
     1
  6
CENTER
  0
LAYER
  2
2
 70
     0
 62
     2
  6
HIDDEN
  0
LAYER
  2
3
 70
     0
 62
     3
  6
CONTINUOUS
  0
ENDTAB
  0
TABLE
  2
STYLE
 70
     2
  0
STYLE
  2
STANDARD
 70
     0
 40
0.0
 41
1.0
 50
0.0
 71
     0
 42
0.2
  3
TXT
  4
BIGFONT
  0
STYLE
  2
STANDARD1
 70
     0
 40
0.0
 41
1.0
 50
0.0
 71
     0
 42
3.0
  3
txt
  4

  0
ENDTAB
  0
TABLE
  2
VIEW
 70
     1
  0
VIEW
  2
ALL
 70
     0
 40
270.0
 10
220.99159663865549
 20
135.0
 41
0.0
 11
0.0
 21
0.0
 31
1.0
 12
0.0
 22
0.0
 32
0.0
 42
0.0
 43
0.0
 44
0.0
 50
0.0
 71
     0
  0
ENDTAB
  0
TABLE
  2
UCS
 70
     0
  0
ENDTAB
  0
TABLE
  2
APPID
 70
     3
  0
APPID
  2
ACAD
 70
     0
  0
APPID
  2
ACAD_MLEADERVER
 70
     0
  0
APPID
  2
ACAD_NAV_VCDISPLAY
 70
     0
  0
ENDTAB
  0
TABLE
  2
DIMSTYLE
 70
     1
  0
DIMSTYLE
  2
STANDARD
 70
     0
  3

  4

  5

  6

  7

 40
1.0
 41
0.18
 42
0.0625
 43
0.38
 44
0.18
 45
0.0
 46
0.0
 47
0.0
 48
0.0
140
0.18
141
0.09
142
0.0
143
25.399999999999999
144
1.0
145
0.0
146
1.0
147
0.09
 71
     0
 72
     0
 73
     1
 74
     1
 75
     0
 76
     0
 77
     0
 78
     0
170
     0
171
     2
172
     0
173
     0
174
     0
175
     0
176
     0
177
     0
178
     0
  0
ENDTAB
  0
ENDSEC
  0
SECTION
  2
BLOCKS
  0
BLOCK
  8
0
  2
$MODEL_SPACE
 70
     0
 10
0.0
 20
0.0
 30
0.0
  3
$MODEL_SPACE
  1

  0
ENDBLK
  5
14F
  8
0
  0
BLOCK
 67
     1
  8
0
  2
$PAPER_SPACE
 70
     0
 10
0.0
 20
0.0
 30
0.0
  3
$PAPER_SPACE
  1

  0
ENDBLK
  5
14D
 67
     1
  8
0
  0
ENDSEC
  0
SECTION
  2
ENTITIES
  0
LINE
  5
36
  8
1
 10
86.010360670918317
 20
92.794859251864835
 30
0.0
 11
86.010360670918317
 21
164.29485925186481
 31
0.0
  0
LINE
  5
37
  8
0
 10
92.010360670918317
 20
114.29485925186481
 30
0.0
 11
92.010360670918317
 21
154.29485925186481
 31
0.0
  0
LINE
  5
38
  8
0
 10
92.010360670918317
 20
154.29485925186481
 30
0.0
 11
80.010360670918317
 21
154.29485925186481
 31
0.0
  0
LINE
  5
39
  8
0
 10
80.010360670918317
 20
154.29485925186481
 30
0.0
 11
80.010360670918317
 21
114.29485925186481
 31
0.0
  0
LINE
  5
3A
  8
0
 10
80.010360670918317
 20
114.29485925186481
 30
0.0
 11
92.010360670918317
 21
114.29485925186481
 31
0.0
  0
LINE
  5
3B
  8
1
 10
186.01036067091829
 20
102.79485925186481
 30
0.0
 11
186.01036067091829
 21
164.29485925186481
 31
0.0
  0
LINE
  5
3C
  8
0
 10
207.76036067091829
 20
149.29485925186481
 30
0.0
 11
207.76036067091829
 21
114.29485925186481
 31
0.0
  0
LINE
  5
3D
  8
0
 10
207.76036067091829
 20
114.29485925186481
 30
0.0
 11
195.76036067091829
 21
114.29485925186481
 31
0.0
  0
LINE
  5
3E
  8
0
 10
195.76036067091829
 20
114.29485925186481
 30
0.0
 11
195.76036067091829
 21
138.51690785619371
 31
0.0
  0
ARC
  5
3F
  8
0
 10
202.76036067091829
 20
149.29485925186481
 30
0.0
 40
5.0
 50
0.0
 51
90.0
  0
LINE
  5
40
  8
1
 10
202.01036067091829
 20
98.29485925186485
 30
0.0
 11
202.01036067091829
 21
159.29485925186481
 31
0.0
  0
LINE
  5
41
  8
2
 10
92.010360670918317
 20
146.29485925186481
 30
0.0
 11
80.010360670918317
 21
146.29485925186481
 31
0.0
  0
LINE
  5
42
  8
0
 10
199.51036067091829
 20
105.79485925186491
 30
0.0
 11
199.51036067091829
 21
104.1948592518648
 31
0.0
  0
LINE
  5
43
  8
0
 10
204.51036067091829
 20
105.79485925186481
 30
0.0
 11
204.51036067091829
 21
104.1948592518648
 31
0.0
  0
LINE
  5
44
  8
0
 10
196.51036067091829
 20
109.54485925186481
 30
0.0
 11
197.39155851740131
 21
108.7948592518642
 31
0.0
  0
LINE
  5
45
  8
0
 10
196.51036067091829
 20
109.54485925186481
 30
0.0
 11
196.51036067091829
 21
110.29485925186481
 31
0.0
  0
LINE
  5
46
  8
0
 10
207.51036067091829
 20
109.54485925186481
 30
0.0
 11
196.51036067091829
 21
109.54485925186481
 31
0.0
  0
LINE
  5
47
  8
0
 10
206.6291628244353
 20
108.7948592518659
 30
0.0
 11
207.51036067091829
 21
109.54485925186481
 31
0.0
  0
LINE
  5
48
  8
0
 10
207.51036067091829
 20
110.29485925186481
 30
0.0
 11
207.51036067091829
 21
109.54485925186481
 31
0.0
  0
LINE
  5
49
  8
0
 10
206.6291628244353
 20
106.2098598686914
 30
0.0
 11
205.91036067092099
 21
105.79485925186491
 31
0.0
  0
ARC
  5
4A
  8
0
 10
205.474462286056
 20
107.89725247752899
 30
0.0
 40
2.044658198744437
 50
235.61575253207371
 51
295.61575253331978
  0
ARC
  5
4B
  8
0
 10
202.01036067090541
 20
113.49532868882061
 30
0.0
 40
7.6427344100359971
 50
252.41204622597419
 51
287.5879537742274
  0
ARC
  5
4C
  8
0
 10
205.474462286056
 20
110.48225186070241
 30
0.0
 40
2.044658198744437
 50
235.61575253207371
 51
304.38424746794522
  0
ARC
  5
4D
  8
0
 10
202.01036067090541
 20
116.080328071994
 30
0.0
 40
7.6427344100359971
 50
252.41204622597411
 51
287.5879537742274
  0
ARC
  5
4E
  8
0
 10
198.5462590557805
 20
110.48225186070241
 30
0.0
 40
2.044658198744437
 50
235.61575253208139
 51
304.3842474679264
  0
ARC
  5
4F
  8
0
 10
198.5462590557805
 20
107.89725247752899
 30
0.0
 40
2.044658198744437
 50
244.38424746668019
 51
304.3842474679264
  0
LINE
  5
50
  8
0
 10
197.39155851740131
 20
106.2098598686914
 30
0.0
 11
198.1103606709155
 21
105.79485925186491
 31
0.0
  0
LINE
  5
51
  8
0
 10
206.6291628244353
 20
106.2098598686914
 30
0.0
 11
206.6291628244353
 21
108.79485925186481
 31
0.0
  0
LINE
  5
52
  8
0
 10
205.91036067091929
 20
105.79485925186481
 30
0.0
 11
198.11036067091561
 21
105.79485925186491
 31
0.0
  0
LINE
  5
53
  8
0
 10
204.31976174767681
 20
106.2098598687015
 30
0.0
 11
204.31976174766871
 21
108.79485925185929
 31
0.0
  0
LINE
  5
54
  8
0
 10
199.70095959415971
 20
108.7948592518481
 30
0.0
 11
199.70095959415971
 21
106.2098598686995
 31
0.0
  0
LINE
  5
55
  8
0
 10
197.39155851740139
 20
106.2098598686915
 30
0.0
 11
197.39155851740131
 21
108.79485925186481
 31
0.0
  0
LINE
  5
56
  8
0
 10
196.51036067091829
 20
110.29485925186481
 30
0.0
 11
207.51036067091829
 21
110.29485925186481
 31
0.0
  0
LINE
  5
57
  8
0
 10
199.51036067091829
 20
104.1948592518648
 30
0.0
 11
204.51036067091829
 21
104.1948592518648
 31
0.0
  0
LINE
  5
58
  8
0
 10
203.61036067091831
 20
103.29485925186481
 30
0.0
 11
204.51036067091829
 21
104.1948592518648
 31
0.0
  0
LINE
  5
59
  8
0
 10
199.51036067091829
 20
104.1948592518648
 30
0.0
 11
200.41036067091829
 21
103.29485925186481
 31
0.0
  0
LINE
  5
5A
  8
3
 10
199.94336067091811
 20
103.761859251865
 30
0.0
 11
199.94336067091811
 21
105.79485925186481
 31
0.0
  0
LINE
  5
5B
  8
3
 10
204.07736067091849
 20
103.761859251865
 30
0.0
 11
204.07736067091849
 21
105.79485925186481
 31
0.0
  0
LINE
  5
5C
  8
0
 10
203.61036067091831
 20
103.29485925186481
 30
0.0
 11
200.41036067091829
 21
103.29485925186481
 31
0.0
  0
LINE
  5
5D
  8
0
 10
199.51036067091829
 20
114.29485925186481
 30
0.0
 11
199.51036067091829
 21
110.29485925186481
 31
0.0
  0
LINE
  5
5E
  8
3
 10
199.94336067091811
 20
110.29485925186491
 30
0.0
 11
199.94336067091811
 21
114.29485925186481
 31
0.0
  0
LINE
  5
5F
  8
3
 10
204.07736067091861
 20
110.29485925186491
 30
0.0
 11
204.07736067091861
 21
114.29485925186481
 31
0.0
  0
LINE
  5
60
  8
0
 10
204.51036067091829
 20
114.29485925186481
 30
0.0
 11
204.51036067091829
 21
110.29485925186481
 31
0.0
  0
LINE
  5
61
  8
0
 10
83.510360670918345
 20
105.79485925186491
 30
0.0
 11
83.510360670918317
 21
104.1948592518648
 31
0.0
  0
LINE
  5
62
  8
0
 10
88.510360670918246
 20
105.79485925186481
 30
0.0
 11
88.510360670918288
 21
104.1948592518648
 31
0.0
  0
LINE
  5
63
  8
0
 10
80.510360670918317
 20
109.54485925186481
 30
0.0
 11
82.010360670918146
 21
108.2681879521211
 31
0.0
  0
LINE
  5
64
  8
0
 10
80.510360670918317
 20
109.54485925186481
 30
0.0
 11
80.510360670918317
 21
110.29485925186481
 31
0.0
  0
LINE
  5
65
  8
0
 10
91.510360670918317
 20
109.54485925186481
 30
0.0
 11
80.510360670918317
 21
109.54485925186481
 31
0.0
  0
LINE
  5
66
  8
0
 10
90.010360670918516
 20
108.26818795212419
 30
0.0
 11
91.510360670918317
 21
109.54485925186481
 31
0.0
  0
LINE
  5
67
  8
0
 10
91.510360670918317
 20
110.29485925186481
 30
0.0
 11
91.510360670918317
 21
109.54485925186481
 31
0.0
  0
LINE
  5
68
  8
0
 10
80.510360670918317
 20
110.29485925186481
 30
0.0
 11
91.510360670918274
 21
110.29485925186481
 31
0.0
  0
LINE
  5
69
  8
0
 10
83.510360670918317
 20
104.1948592518648
 30
0.0
 11
88.510360670918317
 21
104.1948592518648
 31
0.0
  0
LINE
  5
6A
  8
0
 10
87.610360670918269
 20
103.29485925186481
 30
0.0
 11
88.510360670918288
 21
104.1948592518648
 31
0.0
  0
LINE
  5
6B
  8
0
 10
83.510360670918317
 20
104.1948592518648
 30
0.0
 11
84.410360670918323
 21
103.29485925186481
 31
0.0
  0
LINE
  5
6C
  8
3
 10
83.943360670918125
 20
103.761859251865
 30
0.0
 11
83.943360670918125
 21
105.79485925186481
 31
0.0
  0
LINE
  5
6D
  8
3
 10
88.077360670918523
 20
103.761859251865
 30
0.0
 11
88.077360670918523
 21
105.79485925186481
 31
0.0
  0
LINE
  5
6E
  8
0
 10
87.610360670918269
 20
103.29485925186481
 30
0.0
 11
84.410360670918323
 21
103.29485925186481
 31
0.0
  0
LINE
  5
6F
  8
3
 10
83.943360670918125
 20
110.29485925186491
 30
0.0
 11
83.943360670918125
 21
114.29485925186481
 31
0.0
  0
LINE
  5
70
  8
3
 10
88.077360670918551
 20
110.29485925186491
 30
0.0
 11
88.077360670918551
 21
114.29485925186481
 31
0.0
  0
LINE
  5
71
  8
0
 10
83.510360670918345
 20
114.29485925186481
 30
0.0
 11
83.510360670918345
 21
110.29485925186481
 31
0.0
  0
LINE
  5
72
  8
0
 10
88.510360670918288
 20
114.29485925186481
 30
0.0
 11
88.510360670918288
 21
110.29485925186481
 31
0.0
  0
LINE
  5
73
  8
0
 10
86.010360670918374
 20
108.7948592518667
 30
0.0
 11
86.010360670911041
 21
106.2098598686914
 31
0.0
  0
LINE
  5
74
  8
0
 10
82.110360670919704
 20
105.79485925186491
 30
0.0
 11
89.910360670916987
 21
105.79485925186491
 31
0.0
  0
LINE
  5
75
  8
0
 10
90.010360670918317
 20
105.85259427878459
 30
0.0
 11
89.91036067091693
 21
105.79485925186491
 31
0.0
  0
ARC
  5
76
  8
0
 10
88.010360670918317
 20
111.6293032851122
 30
0.0
 40
5.7767090063276196
 50
249.7438419996576
 51
290.25615800034228
  0
ARC
  5
77
  8
0
 10
88.010360670918317
 20
114.21430266828671
 30
0.0
 40
5.7767090063276196
 50
249.7438419996578
 51
290.2561580003424
  0
LINE
  5
78
  8
0
 10
90.010360670918487
 20
105.85259427878459
 30
0.0
 11
90.010360670918487
 21
108.794859251866
 31
0.0
  0
LINE
  5
79
  8
0
 10
82.010360670918146
 20
105.85259427878459
 30
0.0
 11
82.010360670918146
 21
108.794859251866
 31
0.0
  0
ARC
  5
7A
  8
0
 10
84.010360670918317
 20
114.21430266828671
 30
0.0
 40
5.7767090063276196
 50
249.74384199965769
 51
290.25615800034228
  0
ARC
  5
7B
  8
0
 10
84.010360670918317
 20
111.6293032851122
 30
0.0
 40
5.7767090063276196
 50
249.7438419996576
 51
290.25615800034228
  0
LINE
  5
7C
  8
0
 10
82.010360670918317
 20
105.85259427878459
 30
0.0
 11
82.110360670919704
 21
105.79485925186491
 31
0.0
  0
LINE
  5
7D
  8
0
 10
88.187175191489743
 20
153.29485925186481
 30
0.0
 11
83.83354615034466
 21
153.29485925186481
 31
0.0
  0
POLYLINE
  5
7E
  8
0
 66
     1
 10
0.0
 20
0.0
 30
0.0
  0
VERTEX
  5
7F
  8
0
 10
81.760360670918317
 20
154.29485925186481
 30
0.0
 42
0.2523896899305732
  0
VERTEX
  5
80
  8
0
 10
81.943538243651915
 20
153.95508891570881
 30
0.0
 42
0.0791269388941437
  0
VERTEX
  5
81
  8
0
 10
83.005156850875494
 20
153.47594088737321
 30
0.0
 42
0.0384296704119539
 70
     2
 50
344.75699651520381
  0
VERTEX
  5
82
  8
0
 10
84.263106203684629
 20
153.23503083680129
 30
0.0
 42
0.0281067785316541
 50
344.75699651520381
  0
VERTEX
  5
83
  8
0
 10
86.010360670918317
 20
153.13673379432441
 30
0.0
 42
0.0281067785316616
  0
VERTEX
  5
84
  8
0
 10
87.757615138152005
 20
153.23503083680129
 30
0.0
 42
0.0384296704119641
  0
VERTEX
  5
85
  8
0
 10
89.01556449096114
 20
153.47594088737321
 30
0.0
 42
0.0791269388941537
 70
     2
 50
15.243003484796169
  0
VERTEX
  5
86
  8
0
 10
90.121663930815544
 20
153.97516477262079
 30
0.0
 42
0.2981789072261019
 50
15.243003484796169
  0
VERTEX
  5
87
  8
0
 10
90.260360670918317
 20
154.29485925186481
 30
0.0
 42
0.2523896899305415
  0
SEQEND
  5
88
  8
0
  0
POLYLINE
  5
89
  8
0
 66
     1
 10
0.0
 20
0.0
 30
0.0
  0
VERTEX
  5
8A
  8
0
 10
290.26036067091832
 20
154.29485925186481
 30
0.0
 42
-0.2523896899305732
  0
VERTEX
  5
8B
  8
0
 10
290.07718309818472
 20
153.95508891570881
 30
0.0
 42
-0.0791269388941437
  0
VERTEX
  5
8C
  8
0
 10
289.01556449096108
 20
153.47594088737321
 30
0.0
 42
-0.0384296704119539
 70
     2
 50
195.24300348479619
  0
VERTEX
  5
8D
  8
0
 10
287.757615138152
 20
153.23503083680129
 30
0.0
 42
-0.0281067785316541
  0
VERTEX
  5
8E
  8
0
 10
286.01036067091832
 20
153.13673379432441
 30
0.0
 42
-0.0281067785316616
  0
VERTEX
  5
8F
  8
0
 10
284.26310620368457
 20
153.23503083680129
 30
0.0
 42
-0.0384296704119641
  0
VERTEX
  5
90
  8
0
 10
283.00515685087549
 20
153.47594088737321
 30
0.0
 42
-0.0791269388941537
 70
     2
 50
164.75699651520389
  0
VERTEX
  5
91
  8
0
 10
281.89905741102109
 20
153.97516477262079
 30
0.0
 42
-0.2981789072261019
  0
VERTEX
  5
92
  8
0
 10
281.76036067091832
 20
154.29485925186481
 30
0.0
 42
-0.2523896899305415
  0
SEQEND
  5
93
  8
0
  0
LINE
  5
94
  8
0
 10
283.83354615034688
 20
153.29485925186481
 30
0.0
 11
288.18717519149197
 21
153.29485925186481
 31
0.0
  0
LINE
  5
95
  8
0
 10
290.01036067091832
 20
105.85259427878459
 30
0.0
 11
289.91036067091687
 21
105.79485925186491
 31
0.0
  0
ARC
  5
96
  8
0
 10
288.01036067091832
 20
111.6293032851122
 30
0.0
 40
5.7767090063276196
 50
249.74384199965769
 51
290.2561580003424
  0
ARC
  5
97
  8
0
 10
288.01036067091832
 20
114.21430266828671
 30
0.0
 40
5.7767090063276196
 50
249.74384199965769
 51
290.25615800034228
  0
LINE
  5
98
  8
0
 10
290.01036067091849
 20
105.85259427878459
 30
0.0
 11
290.01036067091849
 21
108.794859251866
 31
0.0
  0
LINE
  5
99
  8
0
 10
282.0103606709182
 20
105.85259427878459
 30
0.0
 11
282.0103606709182
 21
108.794859251866
 31
0.0
  0
ARC
  5
9A
  8
0
 10
284.01036067091832
 20
114.21430266828671
 30
0.0
 40
5.7767090063276196
 50
249.7438419996576
 51
290.25615800034228
  0
ARC
  5
9B
  8
0
 10
284.01036067091832
 20
111.6293032851122
 30
0.0
 40
5.7767090063276196
 50
249.74384199965769
 51
290.2561580003424
  0
LINE
  5
9C
  8
0
 10
282.01036067091832
 20
105.85259427878459
 30
0.0
 11
282.1103606709197
 21
105.79485925186491
 31
0.0
  0
LINE
  5
9D
  8
0
 10
289.91036067091687
 20
105.79485925186491
 30
0.0
 11
282.1103606709197
 21
105.79485925186491
 31
0.0
  0
LINE
  5
9E
  8
0
 10
286.0103606709182
 20
108.7948592518667
 30
0.0
 11
286.01036067092559
 21
106.2098598686914
 31
0.0
  0
LINE
  5
9F
  8
0
 10
283.51036067091832
 20
114.29485925186481
 30
0.0
 11
283.51036067091832
 21
110.29485925186481
 31
0.0
  0
LINE
  5
A0
  8
0
 10
288.51036067091832
 20
114.29485925186481
 30
0.0
 11
288.51036067091832
 21
110.29485925186481
 31
0.0
  0
LINE
  5
A1
  8
3
 10
283.94336067091808
 20
110.29485925186491
 30
0.0
 11
283.94336067091808
 21
114.29485925186481
 31
0.0
  0
LINE
  5
A2
  8
3
 10
288.07736067091849
 20
110.29485925186491
 30
0.0
 11
288.07736067091849
 21
114.29485925186481
 31
0.0
  0
LINE
  5
A3
  8
0
 10
284.41036067091829
 20
103.29485925186481
 30
0.0
 11
287.61036067091828
 21
103.29485925186481
 31
0.0
  0
LINE
  5
A4
  8
3
 10
283.94336067091808
 20
103.761859251865
 30
0.0
 11
283.94336067091808
 21
105.79485925186481
 31
0.0
  0
LINE
  5
A5
  8
3
 10
288.07736067091849
 20
103.761859251865
 30
0.0
 11
288.07736067091849
 21
105.79485925186481
 31
0.0
  0
LINE
  5
A6
  8
0
 10
288.51036067091832
 20
104.1948592518648
 30
0.0
 11
287.61036067091828
 21
103.29485925186481
 31
0.0
  0
LINE
  5
A7
  8
0
 10
284.41036067091829
 20
103.29485925186481
 30
0.0
 11
283.51036067091832
 21
104.1948592518648
 31
0.0
  0
LINE
  5
A8
  8
0
 10
288.51036067091832
 20
104.1948592518648
 30
0.0
 11
283.51036067091832
 21
104.1948592518648
 31
0.0
  0
LINE
  5
A9
  8
0
 10
291.51036067091832
 20
110.29485925186481
 30
0.0
 11
280.51036067091832
 21
110.29485925186481
 31
0.0
  0
LINE
  5
AA
  8
0
 10
280.51036067091832
 20
110.29485925186481
 30
0.0
 11
280.51036067091832
 21
109.54485925186481
 31
0.0
  0
LINE
  5
AB
  8
0
 10
282.0103606709182
 20
108.26818795212419
 30
0.0
 11
280.51036067091832
 21
109.54485925186481
 31
0.0
  0
LINE
  5
AC
  8
0
 10
280.51036067091832
 20
109.54485925186481
 30
0.0
 11
291.51036067091832
 21
109.54485925186481
 31
0.0
  0
LINE
  5
AD
  8
0
 10
291.51036067091832
 20
109.54485925186481
 30
0.0
 11
291.51036067091832
 21
110.29485925186481
 31
0.0
  0
LINE
  5
AE
  8
0
 10
291.51036067091832
 20
109.54485925186481
 30
0.0
 11
290.01036067091849
 21
108.2681879521211
 31
0.0
  0
LINE
  5
AF
  8
0
 10
283.51036067091837
 20
105.79485925186481
 30
0.0
 11
283.51036067091832
 21
104.1948592518648
 31
0.0
  0
LINE
  5
B0
  8
0
 10
288.51036067091832
 20
105.79485925186491
 30
0.0
 11
288.51036067091832
 21
104.1948592518648
 31
0.0
  0
LINE
  5
B1
  8
2
 10
280.01036067091832
 20
146.29485925186481
 30
0.0
 11
292.01036067091832
 21
146.29485925186481
 31
0.0
  0
LINE
  5
B2
  8
0
 10
292.01036067091832
 20
114.29485925186481
 30
0.0
 11
280.01036067091832
 21
114.29485925186481
 31
0.0
  0
LINE
  5
B3
  8
0
 10
292.01036067091832
 20
154.29485925186481
 30
0.0
 11
292.01036067091832
 21
114.29485925186481
 31
0.0
  0
LINE
  5
B4
  8
0
 10
280.01036067091832
 20
154.29485925186481
 30
0.0
 11
292.01036067091832
 21
154.29485925186481
 31
0.0
  0
LINE
  5
B5
  8
0
 10
280.01036067091832
 20
114.29485925186481
 30
0.0
 11
280.01036067091832
 21
154.29485925186481
 31
0.0
  0
LINE
  5
B6
  8
1
 10
286.01036067091832
 20
92.794859251864835
 30
0.0
 11
286.01036067091832
 21
164.29485925186481
 31
0.0
  0
LINE
  5
B7
  8
0
 10
207.76036067091829
 20
208.2216336161695
 30
0.0
 11
164.26036067091829
 21
208.22163361616961
 31
0.0
  0
LINE
  5
B8
  8
0
 10
164.26036067091829
 20
208.22163361616961
 30
0.0
 11
164.26036067091829
 21
220.2216336161695
 31
0.0
  0
LINE
  5
B9
  8
0
 10
207.76036067091829
 20
208.2216336161695
 30
0.0
 11
207.76036067091829
 21
220.22163361616961
 31
0.0
  0
LINE
  5
BA
  8
0
 10
207.76036067091829
 20
220.22163361616961
 30
0.0
 11
164.26036067091829
 21
220.2216336161695
 31
0.0
  0
CIRCLE
  5
BB
  8
0
 10
170.01036067091829
 20
214.22163361616961
 30
0.0
 40
4.2000000000000171
  0
CIRCLE
  5
BC
  8
0
 10
170.01036067091829
 20
214.22163361616961
 30
0.0
 40
4.2499999999999849
  0
LINE
  5
BD
  8
1
 10
177.26036067091829
 20
214.22163361616961
 30
0.0
 11
162.7603606709186
 21
214.22163361616961
 31
0.0
  0
LINE
  5
BE
  8
1
 10
170.01036067091829
 20
221.47163361616961
 30
0.0
 11
170.01036067091829
 21
206.97163361617001
 31
0.0
  0
LINE
  5
BF
  8
1
 10
202.01036067091829
 20
221.47163361616961
 30
0.0
 11
202.01036067091829
 21
206.97163361617001
 31
0.0
  0
LINE
  5
C0
  8
1
 10
194.76036067091829
 20
214.22163361616961
 30
0.0
 11
209.260360670918
 21
214.22163361616961
 31
0.0
  0
LINE
  5
C1
  8
0
 10
167.51036067091829
 20
114.29485925186481
 30
0.0
 11
167.51036067091829
 21
110.29485925186481
 31
0.0
  0
LINE
  5
C2
  8
3
 10
167.94336067091811
 20
110.29485925186491
 30
0.0
 11
167.94336067091811
 21
114.29485925186481
 31
0.0
  0
LINE
  5
C3
  8
3
 10
172.07736067091849
 20
110.29485925186491
 30
0.0
 11
172.07736067091849
 21
114.29485925186481
 31
0.0
  0
LINE
  5
C4
  8
0
 10
172.51036067091829
 20
114.29485925186481
 30
0.0
 11
172.51036067091829
 21
110.29485925186481
 31
0.0
  0
LINE
  5
C5
  8
0
 10
168.41036067091829
 20
103.29485925186481
 30
0.0
 11
171.61036067091831
 21
103.29485925186481
 31
0.0
  0
LINE
  5
C6
  8
3
 10
167.94336067091811
 20
103.761859251865
 30
0.0
 11
167.94336067091811
 21
105.79485925186481
 31
0.0
  0
LINE
  5
C7
  8
3
 10
172.07736067091849
 20
103.761859251865
 30
0.0
 11
172.07736067091849
 21
105.79485925186481
 31
0.0
  0
LINE
  5
C8
  8
0
 10
172.51036067091829
 20
104.1948592518648
 30
0.0
 11
171.61036067091831
 21
103.29485925186481
 31
0.0
  0
LINE
  5
C9
  8
0
 10
168.41036067091829
 20
103.29485925186481
 30
0.0
 11
167.51036067091829
 21
104.1948592518648
 31
0.0
  0
LINE
  5
CA
  8
0
 10
172.51036067091829
 20
104.1948592518648
 30
0.0
 11
167.51036067091829
 21
104.1948592518648
 31
0.0
  0
LINE
  5
CB
  8
0
 10
175.51036067091829
 20
110.29485925186481
 30
0.0
 11
164.51036067091829
 21
110.29485925186481
 31
0.0
  0
LINE
  5
CC
  8
0
 10
174.62916282443521
 20
106.2098598686915
 30
0.0
 11
174.6291628244353
 21
108.79485925186481
 31
0.0
  0
LINE
  5
CD
  8
0
 10
172.31976174767681
 20
108.7948592518481
 30
0.0
 11
172.31976174767681
 21
106.2098598686995
 31
0.0
  0
LINE
  5
CE
  8
0
 10
167.70095959415991
 20
106.2098598687015
 30
0.0
 11
167.7009595941679
 21
108.79485925185929
 31
0.0
  0
LINE
  5
CF
  8
0
 10
166.1103606709174
 20
105.79485925186481
 30
0.0
 11
173.91036067092091
 21
105.79485925186491
 31
0.0
  0
LINE
  5
D0
  8
0
 10
165.39155851740139
 20
106.2098598686914
 30
0.0
 11
165.39155851740139
 21
108.79485925186481
 31
0.0
  0
LINE
  5
D1
  8
0
 10
174.6291628244353
 20
106.2098598686914
 30
0.0
 11
173.91036067092111
 21
105.79485925186491
 31
0.0
  0
ARC
  5
D2
  8
0
 10
173.47446228605611
 20
107.89725247752899
 30
0.0
 40
2.044658198744437
 50
235.61575253207371
 51
295.61575253331989
  0
ARC
  5
D3
  8
0
 10
173.47446228605611
 20
110.48225186070241
 30
0.0
 40
2.044658198744437
 50
235.6157525320736
 51
304.38424746791873
  0
ARC
  5
D4
  8
0
 10
170.01036067093119
 20
116.080328071994
 30
0.0
 40
7.6427344100359971
 50
252.4120462257726
 51
287.58795377402589
  0
ARC
  5
D5
  8
0
 10
166.54625905578061
 20
110.48225186070241
 30
0.0
 40
2.044658198744437
 50
235.61575253205481
 51
304.3842474679264
  0
ARC
  5
D6
  8
0
 10
170.01036067093119
 20
113.49532868882061
 30
0.0
 40
7.6427344100359971
 50
252.4120462257726
 51
287.58795377402578
  0
ARC
  5
D7
  8
0
 10
166.54625905578061
 20
107.89725247752899
 30
0.0
 40
2.044658198744437
 50
244.38424746668019
 51
304.3842474679264
  0
LINE
  5
D8
  8
0
 10
165.39155851740139
 20
106.2098598686914
 30
0.0
 11
166.11036067091561
 21
105.79485925186491
 31
0.0
  0
LINE
  5
D9
  8
0
 10
164.51036067091829
 20
110.29485925186481
 30
0.0
 11
164.51036067091829
 21
109.54485925186481
 31
0.0
  0
LINE
  5
DA
  8
0
 10
165.39155851740139
 20
108.7948592518659
 30
0.0
 11
164.51036067091829
 21
109.54485925186481
 31
0.0
  0
LINE
  5
DB
  8
0
 10
164.51036067091829
 20
109.54485925186481
 30
0.0
 11
175.51036067091829
 21
109.54485925186481
 31
0.0
  0
LINE
  5
DC
  8
0
 10
175.51036067091829
 20
109.54485925186481
 30
0.0
 11
175.51036067091829
 21
110.29485925186481
 31
0.0
  0
LINE
  5
DD
  8
0
 10
175.51036067091829
 20
109.54485925186481
 30
0.0
 11
174.6291628244353
 21
108.7948592518642
 31
0.0
  0
LINE
  5
DE
  8
0
 10
167.5103606709184
 20
105.79485925186481
 30
0.0
 11
167.51036067091829
 21
104.1948592518648
 31
0.0
  0
LINE
  5
DF
  8
0
 10
172.51036067091829
 20
105.79485925186491
 30
0.0
 11
172.51036067091829
 21
104.1948592518648
 31
0.0
  0
LINE
  5
E0
  8
1
 10
170.01036067091829
 20
98.29485925186485
 30
0.0
 11
170.01036067091829
 21
159.29485925186481
 31
0.0
  0
ARC
  5
E1
  8
0
 10
169.26036067091829
 20
149.29485925186481
 30
0.0
 40
5.0
 50
90.000000000000028
 51
180.0
  0
ARC
  5
E2
  8
0
 10
186.01036067091829
 20
136.29485925186481
 30
0.0
 40
10.0
 50
12.838568140984091
 51
167.1614318590205
  0
LINE
  5
E3
  8
0
 10
176.26036067091829
 20
114.29485925186481
 30
0.0
 11
176.26036067091829
 21
138.51690785619371
 31
0.0
  0
LINE
  5
E4
  8
0
 10
164.26036067091829
 20
114.29485925186481
 30
0.0
 11
176.26036067091829
 21
114.29485925186481
 31
0.0
  0
LINE
  5
E5
  8
0
 10
164.26036067091829
 20
149.29485925186481
 30
0.0
 11
164.26036067091829
 21
114.29485925186481
 31
0.0
  0
LINE
  5
E6
  8
0
 10
169.26036067091829
 20
154.29485925186481
 30
0.0
 11
202.76036067091829
 21
154.29485925186481
 31
0.0
  0
LINE
  5
E7
  8
0
 10
207.76036067091829
 20
45.561649057055867
 30
0.0
 11
164.26036067091829
 21
45.561649057055902
 31
0.0
  0
LINE
  5
E8
  8
0
 10
207.76036067091829
 20
57.561649057055931
 30
0.0
 11
164.26036067091829
 21
57.561649057055867
 31
0.0
  0
LINE
  5
E9
  8
0
 10
164.26036067091829
 20
57.561649057055867
 30
0.0
 11
164.26036067091829
 21
45.561649057055902
 31
0.0
  0
LINE
  5
EA
  8
0
 10
207.76036067091829
 20
57.561649057055931
 30
0.0
 11
207.76036067091829
 21
45.561649057055867
 31
0.0
  0
LINE
  5
EB
  8
0
 10
176.26036067091829
 20
57.561649057055902
 30
0.0
 11
176.26036067091829
 21
45.561649057055881
 31
0.0
  0
CIRCLE
  5
EC
  8
0
 10
170.0103606709184
 20
51.561649057055888
 30
0.0
 40
3.8999999999999999
  0
LINE
  5
ED
  8
0
 10
165.39155851740139
 20
51.561649057055838
 30
0.0
 11
167.7009595941598
 21
47.561649057055902
 31
0.0
  0
LINE
  5
EE
  8
0
 10
167.70095959415991
 20
55.561649057055902
 30
0.0
 11
165.39155851740139
 21
51.561649057055838
 31
0.0
  0
LINE
  5
EF
  8
0
 10
172.31976174767689
 20
55.561649057055831
 30
0.0
 11
167.70095959415991
 21
55.561649057055902
 31
0.0
  0
LINE
  5
F0
  8
0
 10
174.6291628244353
 20
51.561649057055831
 30
0.0
 11
172.31976174767689
 21
55.561649057055831
 31
0.0
  0
LINE
  5
F1
  8
0
 10
172.31976174767689
 20
47.561649057055881
 30
0.0
 11
174.6291628244353
 21
51.561649057055831
 31
0.0
  0
LINE
  5
F2
  8
0
 10
167.7009595941598
 20
47.561649057055902
 30
0.0
 11
172.31976174767689
 21
47.561649057055881
 31
0.0
  0
CIRCLE
  5
F3
  8
0
 10
170.0103606709184
 20
51.561649057055888
 30
0.0
 40
2.0669999999999988
  0
CIRCLE
  5
F4
  8
3
 10
170.0103606709184
 20
51.561649057055888
 30
0.0
 40
2.5
  0
CIRCLE
  5
F5
  8
0
 10
170.01036067091829
 20
51.561649057055888
 30
0.0
 40
5.5
  0
CIRCLE
  5
F6
  8
0
 10
202.01036067091829
 20
51.561649057055888
 30
0.0
 40
5.5
  0
CIRCLE
  5
F7
  8
3
 10
202.0103606709182
 20
51.561649057055888
 30
0.0
 40
2.5
  0
CIRCLE
  5
F8
  8
0
 10
202.0103606709182
 20
51.561649057055888
 30
0.0
 40
2.0669999999999988
  0
LINE
  5
F9
  8
0
 10
204.31976174767681
 20
47.561649057055902
 30
0.0
 11
199.70095959415971
 21
47.561649057055881
 31
0.0
  0
LINE
  5
FA
  8
0
 10
199.70095959415971
 20
47.561649057055881
 30
0.0
 11
197.39155851740131
 21
51.561649057055831
 31
0.0
  0
LINE
  5
FB
  8
0
 10
197.39155851740131
 20
51.561649057055831
 30
0.0
 11
199.70095959415971
 21
55.561649057055831
 31
0.0
  0
LINE
  5
FC
  8
0
 10
199.70095959415971
 20
55.561649057055831
 30
0.0
 11
204.31976174767669
 21
55.561649057055902
 31
0.0
  0
LINE
  5
FD
  8
0
 10
204.31976174767669
 20
55.561649057055902
 30
0.0
 11
206.62916282443521
 21
51.561649057055838
 31
0.0
  0
LINE
  5
FE
  8
0
 10
206.62916282443521
 20
51.561649057055838
 30
0.0
 11
204.31976174767681
 21
47.561649057055902
 31
0.0
  0
CIRCLE
  5
FF
  8
0
 10
202.0103606709182
 20
51.561649057055888
 30
0.0
 40
3.8999999999999999
  0
LINE
  5
100
  8
0
 10
195.76036067091829
 20
57.561649057055902
 30
0.0
 11
195.76036067091829
 21
45.561649057055881
 31
0.0
  0
LINE
  5
101
  8
1
 10
178.51036067091829
 20
51.561649057055888
 30
0.0
 11
161.51036067091829
 21
51.561649057055888
 31
0.0
  0
LINE
  5
102
  8
1
 10
170.01036067091829
 20
60.061649057055881
 30
0.0
 11
170.01036067091829
 21
43.061649057055881
 31
0.0
  0
LINE
  5
103
  8
1
 10
210.51036067091829
 20
51.561649057055888
 30
0.0
 11
193.51036067091829
 21
51.561649057055888
 31
0.0
  0
LINE
  5
104
  8
1
 10
202.01036067091829
 20
60.061649057055881
 30
0.0
 11
202.01036067091829
 21
43.061649057055881
 31
0.0
  0
CIRCLE
  5
105
  8
0
 10
202.01036067091829
 20
214.22163361616961
 30
0.0
 40
4.2499999999999849
  0
CIRCLE
  5
106
  8
0
 10
202.01036067091829
 20
214.22163361616961
 30
0.0
 40
4.2000000000000171
  0
LINE
  5
107
  8
0
 10
203.16506120929739
 20
212.22163361616981
 30
0.0
 11
204.31976174767669
 21
214.22163361616981
 31
0.0
  0
LINE
  5
108
  8
0
 10
204.31976174767669
 20
214.22163361616981
 30
0.0
 11
203.16506120929739
 21
216.22163361616961
 31
0.0
  0
LINE
  5
109
  8
0
 10
203.16506120929739
 20
216.22163361616961
 30
0.0
 11
200.8556601325385
 21
216.22163361616961
 31
0.0
  0
LINE
  5
10A
  8
0
 10
200.8556601325385
 20
216.22163361616961
 30
0.0
 11
199.70095959415971
 21
214.22163361616961
 31
0.0
  0
LINE
  5
10B
  8
0
 10
199.70095959415971
 20
214.22163361616961
 30
0.0
 11
200.8556601325393
 21
212.2216336161693
 31
0.0
  0
LINE
  5
10C
  8
0
 10
200.8556601325393
 20
212.2216336161693
 30
0.0
 11
203.16506120929739
 21
212.22163361616981
 31
0.0
  0
LINE
  5
10D
  8
0
 10
168.85566013253921
 20
212.2216336161693
 30
0.0
 11
171.16506120929739
 21
212.22163361616981
 31
0.0
  0
LINE
  5
10E
  8
0
 10
167.70095959415971
 20
214.22163361616961
 30
0.0
 11
168.85566013253921
 21
212.2216336161693
 31
0.0
  0
LINE
  5
10F
  8
0
 10
168.8556601325385
 20
216.22163361616961
 30
0.0
 11
167.70095959415971
 21
214.22163361616961
 31
0.0
  0
LINE
  5
110
  8
0
 10
171.16506120929739
 20
216.22163361616961
 30
0.0
 11
168.8556601325385
 21
216.22163361616961
 31
0.0
  0
LINE
  5
111
  8
0
 10
172.31976174767669
 20
214.22163361616981
 30
0.0
 11
171.16506120929739
 21
216.22163361616961
 31
0.0
  0
LINE
  5
112
  8
0
 10
171.16506120929739
 20
212.22163361616981
 30
0.0
 11
172.31976174767669
 21
214.22163361616981
 31
0.0
  0
TEXT
  5
239
  8
0
 62
     3
 10
0.0
 20
0.0
 30
0.0
 40
10.0
  1
SQ2-32B
  7
STANDARD1
  0
ENDSEC
  0
EOF
