  0
SECTION
  2
HEADER
  9
$ACADVER
  1
AC1009
  9
$INSBASE
 10
0.0
 20
0.0
 30
0.0
  9
$EXTMIN
 10
0.0
 20
-2.960436562073669
 30
0.0
  9
$EXTMAX
 10
305.68499402349539
 20
227.44678634047449
 30
0.0
  9
$LIMMIN
 10
0.0
 20
0.0
  9
$LIMMAX
 10
375.0
 20
270.0
  9
$ORTHOMODE
 70
     1
  9
$REGENMODE
 70
     1
  9
$FILLMODE
 70
     1
  9
$QTEXTMODE
 70
     0
  9
$MIRRTEXT
 70
     0
  9
$DRAGMODE
 70
     2
  9
$LTSCALE
 40
10.0
  9
$OSMODE
 70
    55
  9
$ATTMODE
 70
     1
  9
$TEXTSIZE
 40
0.2
  9
$TRACEWID
 40
0.05
  9
$TEXTSTYLE
  7
STANDARD
  9
$CLAYER
  8
0
  9
$CELTYPE
  6
BYLAYER
  9
$CECOLOR
 62
   256
  9
$DIMSCALE
 40
1.0
  9
$DIMASZ
 40
3.0
  9
$DIMEXO
 40
2.0
  9
$DIMDLI
 40
0.38
  9
$DIMRND
 40
0.0
  9
$DIMDLE
 40
0.0
  9
$DIMEXE
 40
2.0
  9
$DIMTP
 40
0.0
  9
$DIMTM
 40
0.0
  9
$DIMTXT
 40
3.2000000000000002
  9
$DIMCEN
 40
0.0
  9
$DIMTSZ
 40
0.0
  9
$DIMTOL
 70
     0
  9
$DIMLIM
 70
     0
  9
$DIMTIH
 70
     0
  9
$DIMTOH
 70
     0
  9
$DIMSE1
 70
     0
  9
$DIMSE2
 70
     0
  9
$DIMTAD
 70
     1
  9
$DIMZIN
 70
     0
  9
$DIMBLK
  1

  9
$DIMASO
 70
     1
  9
$DIMSHO
 70
     0
  9
$DIMPOST
  1

  9
$DIMAPOST
  1

  9
$DIMALT
 70
     0
  9
$DIMALTD
 70
     2
  9
$DIMALTF
 40
25.399999999999999
  9
$DIMLFAC
 40
1.0
  9
$DIMTOFL
 70
     1
  9
$DIMTVP
 40
1.6000000000000001
  9
$DIMTIX
 70
     1
  9
$DIMSOXD
 70
     0
  9
$DIMSAH
 70
     0
  9
$DIMBLK1
  1

  9
$DIMBLK2
  1

  9
$DIMSTYLE
  2
STANDARD
  9
$DIMCLRD
 70
     0
  9
$DIMCLRE
 70
     0
  9
$DIMCLRT
 70
     0
  9
$DIMTFAC
 40
1.0
  9
$DIMGAP
 40
0.09
  9
$LUNITS
 70
     2
  9
$LUPREC
 70
     4
  9
$SKETCHINC
 40
0.1
  9
$FILLETRAD
 40
0.0
  9
$AUNITS
 70
     0
  9
$AUPREC
 70
     4
  9
$MENU
  1
E:\r13\win\SUPPORT\ACAD
  9
$ELEVATION
 40
0.0
  9
$PELEVATION
 40
0.0
  9
$THICKNESS
 40
0.0
  9
$LIMCHECK
 70
     0
  9
$BLIPMODE
 70
     0
  9
$CHAMFERA
 40
0.0
  9
$CHAMFERB
 40
0.0
  9
$SKPOLY
 70
     0
  9
$TDCREATE
 40
2449840.6305439821
  9
$TDUPDATE
 40
2456598.5514786341
  9
$TDINDWG
 40
0.0001994444
  9
$TDUSRTIMER
 40
0.0001994444
  9
$USRTIMER
 70
     1
  9
$ANGBASE
 50
0.0
  9
$ANGDIR
 70
     0
  9
$PDMODE
 70
     0
  9
$PDSIZE
 40
0.0
  9
$PLINEWID
 40
0.0
  9
$COORDS
 70
     1
  9
$SPLFRAME
 70
     0
  9
$SPLINETYPE
 70
     6
  9
$SPLINESEGS
 70
     8
  9
$ATTDIA
 70
     0
  9
$ATTREQ
 70
     1
  9
$HANDLING
 70
     1
  9
$HANDSEED
  5
2D2
  9
$SURFTAB1
 70
     6
  9
$SURFTAB2
 70
     6
  9
$SURFTYPE
 70
     6
  9
$SURFU
 70
     6
  9
$SURFV
 70
     6
  9
$UCSNAME
  2

  9
$UCSORG
 10
0.0
 20
0.0
 30
0.0
  9
$UCSXDIR
 10
1.0
 20
0.0
 30
0.0
  9
$UCSYDIR
 10
0.0
 20
1.0
 30
0.0
  9
$PUCSNAME
  2

  9
$PUCSORG
 10
0.0
 20
0.0
 30
0.0
  9
$PUCSXDIR
 10
1.0
 20
0.0
 30
0.0
  9
$PUCSYDIR
 10
0.0
 20
1.0
 30
0.0
  9
$USERI1
 70
     0
  9
$USERI2
 70
     1
  9
$USERI3
 70
     1
  9
$USERI4
 70
     0
  9
$USERI5
 70
     0
  9
$USERR1
 40
0.0
  9
$USERR2
 40
0.0
  9
$USERR3
 40
0.0
  9
$USERR4
 40
0.0
  9
$USERR5
 40
0.0
  9
$WORLDVIEW
 70
     1
  9
$SHADEDGE
 70
     3
  9
$SHADEDIF
 70
    70
  9
$TILEMODE
 70
     1
  9
$MAXACTVP
 70
    16
  9
$PLIMCHECK
 70
     0
  9
$PEXTMIN
 10
1.0000000000000000E+020
 20
1.0000000000000000E+020
 30
1.0000000000000000E+020
  9
$PEXTMAX
 10
-1.0000000000000000E+020
 20
-1.0000000000000000E+020
 30
-1.0000000000000000E+020
  9
$PLIMMIN
 10
0.0
 20
0.0
  9
$PLIMMAX
 10
12.0
 20
9.0
  9
$UNITMODE
 70
     0
  9
$VISRETAIN
 70
     0
  9
$PLINEGEN
 70
     0
  9
$PSLTSCALE
 70
     0
  0
ENDSEC
  0
SECTION
  2
TABLES
  0
TABLE
  2
VPORT
 70
     1
  0
VPORT
  2
*ACTIVE
 70
     0
 10
0.0
 20
0.0
 11
1.0
 21
1.0
 12
187.49427839065231
 22
174.91677254346851
 13
0.0
 23
0.0
 14
10.0
 24
10.0
 15
10.0
 25
10.0
 16
0.0
 26
0.0
 36
1.0
 17
0.0
 27
0.0
 37
0.0
 40
358.92027899574339
 41
1.7807262569832401
 42
50.0
 43
0.0
 44
0.0
 50
0.0
 51
0.0
 71
     0
 72
   500
 73
     1
 74
     0
 75
     0
 76
     0
 77
     0
 78
     2
  0
ENDTAB
  0
TABLE
  2
LTYPE
 70
     4
  0
LTYPE
  2
CONTINUOUS
 70
     0
  3
Solid Line
 72
    65
 73
     0
 40
0.0
  0
LTYPE
  2
CENTER
 70
     0
  3
____ _ ____ _ ____ _ ____ _ ____ _ ____ _ ____
 72
    65
 73
     4
 40
2.0
 49
1.25
 49
-0.25
 49
0.25
 49
-0.25
  0
LTYPE
  2
HIDDEN
 70
     0
  3
_ _ _ _ _ _ _ _ _ _ _ _ _ _ _ _ _ _ _ _ _ _ _
 72
    65
 73
     2
 40
0.375
 49
0.25
 49
-0.125
  0
LTYPE
  2
PHANTOM2
 70
     0
  3
___ _ _ ___ _ _ ___ _ _ ___ _ _
 72
    65
 73
     6
 40
1.25
 49
0.625
 49
-0.125
 49
0.125
 49
-0.125
 49
0.125
 49
-0.125
  0
ENDTAB
  0
TABLE
  2
LAYER
 70
     4
  0
LAYER
  2
0
 70
     0
 62
     7
  6
CONTINUOUS
  0
LAYER
  2
1
 70
     0
 62
     1
  6
CENTER
  0
LAYER
  2
2
 70
     0
 62
     2
  6
HIDDEN
  0
LAYER
  2
3
 70
     0
 62
     3
  6
CONTINUOUS
  0
ENDTAB
  0
TABLE
  2
STYLE
 70
     2
  0
STYLE
  2
STANDARD
 70
     0
 40
0.0
 41
1.0
 50
0.0
 71
     0
 42
0.2
  3
TXT
  4
BIGFONT
  0
STYLE
  2
STANDARD1
 70
     0
 40
0.0
 41
1.0
 50
0.0
 71
     0
 42
3.0
  3
txt
  4

  0
ENDTAB
  0
TABLE
  2
VIEW
 70
     1
  0
VIEW
  2
ALL
 70
     0
 40
270.0
 10
220.99159663865549
 20
135.0
 41
0.0
 11
0.0
 21
0.0
 31
1.0
 12
0.0
 22
0.0
 32
0.0
 42
0.0
 43
0.0
 44
0.0
 50
0.0
 71
     0
  0
ENDTAB
  0
TABLE
  2
UCS
 70
     0
  0
ENDTAB
  0
TABLE
  2
APPID
 70
     3
  0
APPID
  2
ACAD
 70
     0
  0
APPID
  2
ACAD_MLEADERVER
 70
     0
  0
APPID
  2
ACAD_NAV_VCDISPLAY
 70
     0
  0
ENDTAB
  0
TABLE
  2
DIMSTYLE
 70
     1
  0
DIMSTYLE
  2
STANDARD
 70
     0
  3

  4

  5

  6

  7

 40
1.0
 41
0.18
 42
0.0625
 43
0.38
 44
0.18
 45
0.0
 46
0.0
 47
0.0
 48
0.0
140
0.18
141
0.09
142
0.0
143
25.399999999999999
144
1.0
145
0.0
146
1.0
147
0.09
 71
     0
 72
     0
 73
     1
 74
     1
 75
     0
 76
     0
 77
     0
 78
     0
170
     0
171
     2
172
     0
173
     0
174
     0
175
     0
176
     0
177
     0
178
     0
  0
ENDTAB
  0
ENDSEC
  0
SECTION
  2
BLOCKS
  0
BLOCK
  8
0
  2
$MODEL_SPACE
 70
     0
 10
0.0
 20
0.0
 30
0.0
  3
$MODEL_SPACE
  1

  0
ENDBLK
  5
151
  8
0
  0
BLOCK
 67
     1
  8
0
  2
$PAPER_SPACE
 70
     0
 10
0.0
 20
0.0
 30
0.0
  3
$PAPER_SPACE
  1

  0
ENDBLK
  5
14F
 67
     1
  8
0
  0
ENDSEC
  0
SECTION
  2
ENTITIES
  0
LINE
  5
36
  8
1
 10
79.684994023495364
 20
99.0
 30
0.0
 11
79.684994023495364
 21
170.0
 31
0.0
  0
LINE
  5
37
  8
0
 10
85.684994023495349
 20
120.0
 30
0.0
 11
85.684994023495349
 21
160.0
 31
0.0
  0
LINE
  5
38
  8
0
 10
85.684994023495349
 20
160.0
 30
0.0
 11
73.684994023495364
 21
160.0
 31
0.0
  0
LINE
  5
39
  8
0
 10
73.684994023495364
 20
160.0
 30
0.0
 11
73.684994023495364
 21
120.0
 31
0.0
  0
LINE
  5
3A
  8
0
 10
73.684994023495364
 20
120.0
 30
0.0
 11
85.684994023495349
 21
120.0
 31
0.0
  0
LINE
  5
3B
  8
1
 10
189.68499402349531
 20
108.0
 30
0.0
 11
189.68499402349531
 21
170.0
 31
0.0
  0
LINE
  5
3C
  8
0
 10
239.68499402349539
 20
155.0
 30
0.0
 11
239.68499402349539
 21
120.0
 31
0.0
  0
LINE
  5
3D
  8
0
 10
239.68499402349539
 20
120.0
 30
0.0
 11
227.68499402349539
 21
120.0
 31
0.0
  0
LINE
  5
3E
  8
0
 10
227.68499402349539
 20
120.0
 30
0.0
 11
227.68499402349539
 21
142.0
 31
0.0
  0
ARC
  5
3F
  8
0
 10
217.68499402349539
 20
142.0
 30
0.0
 40
10.0
 50
0.0
 51
90.0
  0
ARC
  5
40
  8
0
 10
234.68499402349539
 20
155.0
 30
0.0
 40
5.0
 50
0.0
 51
90.0
  0
LINE
  5
41
  8
1
 10
233.68499402349539
 20
104.0
 30
0.0
 11
233.68499402349539
 21
165.0
 31
0.0
  0
LINE
  5
42
  8
2
 10
85.684994023495349
 20
152.0
 30
0.0
 11
73.684994023495364
 21
152.0
 31
0.0
  0
LINE
  5
43
  8
0
 10
231.18499402349539
 20
111.5
 30
0.0
 11
231.18499402349531
 21
109.90000000000001
 31
0.0
  0
LINE
  5
44
  8
0
 10
236.18499402349531
 20
111.5
 30
0.0
 11
236.18499402349531
 21
109.89999999999991
 31
0.0
  0
LINE
  5
45
  8
0
 10
228.18499402349539
 20
115.25
 30
0.0
 11
229.0661918699783
 21
114.4999999999994
 31
0.0
  0
LINE
  5
46
  8
0
 10
228.18499402349539
 20
115.25
 30
0.0
 11
228.18499402349539
 21
116.0
 31
0.0
  0
LINE
  5
47
  8
0
 10
239.18499402349539
 20
115.25
 30
0.0
 11
228.18499402349539
 21
115.25
 31
0.0
  0
LINE
  5
48
  8
0
 10
238.30379617701229
 20
114.50000000000109
 30
0.0
 11
239.18499402349539
 21
115.25
 31
0.0
  0
LINE
  5
49
  8
0
 10
239.18499402349539
 20
116.0
 30
0.0
 11
239.18499402349539
 21
115.25
 31
0.0
  0
LINE
  5
4A
  8
0
 10
238.30379617701229
 20
111.9150006168266
 30
0.0
 11
237.5849940234981
 21
111.5
 31
0.0
  0
ARC
  5
4B
  8
0
 10
237.1490956386331
 20
113.6023932256641
 30
0.0
 40
2.044658198744437
 50
235.61575253207371
 51
295.61575253331978
  0
ARC
  5
4C
  8
0
 10
233.68499402348249
 20
119.2004694369557
 30
0.0
 40
7.6427344100359971
 50
252.41204622597419
 51
287.5879537742274
  0
ARC
  5
4D
  8
0
 10
237.1490956386331
 20
116.1873926088375
 30
0.0
 40
2.044658198744437
 50
235.61575253207371
 51
304.38424746794522
  0
ARC
  5
4E
  8
0
 10
233.68499402348249
 20
121.7854688201291
 30
0.0
 40
7.6427344100359971
 50
252.41204622597411
 51
287.5879537742274
  0
ARC
  5
4F
  8
0
 10
230.2208924083576
 20
116.1873926088375
 30
0.0
 40
2.044658198744437
 50
235.61575253208139
 51
304.3842474679264
  0
ARC
  5
50
  8
0
 10
230.2208924083576
 20
113.6023932256641
 30
0.0
 40
2.044658198744437
 50
244.38424746668019
 51
304.3842474679264
  0
LINE
  5
51
  8
0
 10
229.0661918699783
 20
111.9150006168266
 30
0.0
 11
229.78499402349249
 21
111.5
 31
0.0
  0
LINE
  5
52
  8
0
 10
238.30379617701229
 20
111.9150006168266
 30
0.0
 11
238.30379617701229
 21
114.5
 31
0.0
  0
LINE
  5
53
  8
0
 10
237.58499402349631
 20
111.5
 30
0.0
 11
229.78499402349269
 21
111.5
 31
0.0
  0
LINE
  5
54
  8
0
 10
235.9943951002538
 20
111.91500061683671
 30
0.0
 11
235.9943951002457
 21
114.4999999999944
 31
0.0
  0
LINE
  5
55
  8
0
 10
231.37559294673679
 20
114.4999999999832
 30
0.0
 11
231.37559294673679
 21
111.9150006168347
 31
0.0
  0
LINE
  5
56
  8
0
 10
229.0661918699785
 20
111.9150006168266
 30
0.0
 11
229.0661918699783
 21
114.5
 31
0.0
  0
LINE
  5
57
  8
0
 10
228.18499402349539
 20
116.0
 30
0.0
 11
239.18499402349539
 21
116.0
 31
0.0
  0
LINE
  5
58
  8
0
 10
231.18499402349531
 20
109.90000000000001
 30
0.0
 11
236.18499402349539
 21
109.89999999999991
 31
0.0
  0
LINE
  5
59
  8
0
 10
235.2849940234953
 20
108.9999999999999
 30
0.0
 11
236.18499402349531
 21
109.89999999999991
 31
0.0
  0
LINE
  5
5A
  8
0
 10
231.18499402349531
 20
109.90000000000001
 30
0.0
 11
232.0849940234954
 21
109.0
 31
0.0
  0
LINE
  5
5B
  8
3
 10
231.61799402349521
 20
109.4670000000002
 30
0.0
 11
231.61799402349521
 21
111.5
 31
0.0
  0
LINE
  5
5C
  8
3
 10
235.7519940234956
 20
109.4670000000002
 30
0.0
 11
235.7519940234956
 21
111.5
 31
0.0
  0
LINE
  5
5D
  8
0
 10
235.2849940234953
 20
108.9999999999999
 30
0.0
 11
232.0849940234954
 21
109.0
 31
0.0
  0
LINE
  5
5E
  8
0
 10
231.18499402349539
 20
120.0
 30
0.0
 11
231.18499402349539
 21
116.0
 31
0.0
  0
LINE
  5
5F
  8
3
 10
231.61799402349521
 20
116.0
 30
0.0
 11
231.61799402349521
 21
120.0
 31
0.0
  0
LINE
  5
60
  8
3
 10
235.7519940234956
 20
116.0
 30
0.0
 11
235.7519940234956
 21
120.0
 31
0.0
  0
LINE
  5
61
  8
0
 10
236.18499402349531
 20
120.0
 30
0.0
 11
236.18499402349531
 21
116.0
 31
0.0
  0
LINE
  5
62
  8
0
 10
77.184994023495392
 20
111.5
 30
0.0
 11
77.184994023495364
 21
109.90000000000001
 31
0.0
  0
LINE
  5
63
  8
0
 10
82.184994023495307
 20
111.5
 30
0.0
 11
82.184994023495335
 21
109.89999999999991
 31
0.0
  0
LINE
  5
64
  8
0
 10
74.184994023495364
 20
115.25
 30
0.0
 11
75.684994023495193
 21
113.9733287002563
 31
0.0
  0
LINE
  5
65
  8
0
 10
74.184994023495364
 20
115.25
 30
0.0
 11
74.184994023495364
 21
116.0
 31
0.0
  0
LINE
  5
66
  8
0
 10
85.184994023495364
 20
115.25
 30
0.0
 11
74.184994023495364
 21
115.25
 31
0.0
  0
LINE
  5
67
  8
0
 10
83.684994023495534
 20
113.9733287002593
 30
0.0
 11
85.184994023495364
 21
115.25
 31
0.0
  0
LINE
  5
68
  8
0
 10
85.184994023495364
 20
116.0
 30
0.0
 11
85.184994023495364
 21
115.25
 31
0.0
  0
LINE
  5
69
  8
0
 10
74.184994023495364
 20
116.0
 30
0.0
 11
85.184994023495335
 21
116.0
 31
0.0
  0
LINE
  5
6A
  8
0
 10
77.184994023495364
 20
109.90000000000001
 30
0.0
 11
82.184994023495364
 21
109.89999999999991
 31
0.0
  0
LINE
  5
6B
  8
0
 10
81.284994023495315
 20
108.9999999999999
 30
0.0
 11
82.184994023495335
 21
109.89999999999991
 31
0.0
  0
LINE
  5
6C
  8
0
 10
77.184994023495364
 20
109.90000000000001
 30
0.0
 11
78.084994023495369
 21
109.0
 31
0.0
  0
LINE
  5
6D
  8
3
 10
77.617994023495157
 20
109.4670000000002
 30
0.0
 11
77.617994023495186
 21
111.5
 31
0.0
  0
LINE
  5
6E
  8
3
 10
81.75199402349557
 20
109.4670000000002
 30
0.0
 11
81.75199402349557
 21
111.5
 31
0.0
  0
LINE
  5
6F
  8
0
 10
81.284994023495315
 20
108.9999999999999
 30
0.0
 11
78.084994023495369
 21
109.0
 31
0.0
  0
LINE
  5
70
  8
3
 10
77.617994023495186
 20
116.0
 30
0.0
 11
77.617994023495186
 21
120.0
 31
0.0
  0
LINE
  5
71
  8
3
 10
81.751994023495598
 20
116.0
 30
0.0
 11
81.751994023495598
 21
120.0
 31
0.0
  0
LINE
  5
72
  8
0
 10
77.184994023495392
 20
120.0
 30
0.0
 11
77.184994023495392
 21
116.0
 31
0.0
  0
LINE
  5
73
  8
0
 10
82.184994023495335
 20
120.0
 30
0.0
 11
82.184994023495335
 21
116.0
 31
0.0
  0
LINE
  5
74
  8
0
 10
79.68499402349542
 20
114.5000000000018
 30
0.0
 11
79.684994023488073
 21
111.9150006168266
 31
0.0
  0
LINE
  5
75
  8
0
 10
75.784994023496751
 20
111.5
 30
0.0
 11
83.584994023494033
 21
111.5
 31
0.0
  0
LINE
  5
76
  8
0
 10
83.684994023495364
 20
111.5577350269197
 30
0.0
 11
83.584994023493977
 21
111.5
 31
0.0
  0
ARC
  5
77
  8
0
 10
81.684994023495364
 20
117.33444403324729
 30
0.0
 40
5.7767090063276196
 50
249.7438419996576
 51
290.25615800034228
  0
ARC
  5
78
  8
0
 10
81.684994023495364
 20
119.9194434164219
 30
0.0
 40
5.7767090063276196
 50
249.7438419996578
 51
290.2561580003424
  0
LINE
  5
79
  8
0
 10
83.684994023495534
 20
111.5577350269197
 30
0.0
 11
83.684994023495534
 21
114.50000000000109
 31
0.0
  0
LINE
  5
7A
  8
0
 10
75.684994023495193
 20
111.5577350269197
 30
0.0
 11
75.684994023495193
 21
114.50000000000109
 31
0.0
  0
ARC
  5
7B
  8
0
 10
77.684994023495364
 20
119.9194434164219
 30
0.0
 40
5.7767090063276196
 50
249.74384199965769
 51
290.25615800034228
  0
ARC
  5
7C
  8
0
 10
77.684994023495364
 20
117.33444403324729
 30
0.0
 40
5.7767090063276196
 50
249.7438419996576
 51
290.25615800034228
  0
LINE
  5
7D
  8
0
 10
75.684994023495364
 20
111.5577350269197
 30
0.0
 11
75.784994023496751
 21
111.5
 31
0.0
  0
LINE
  5
7E
  8
0
 10
81.861808544066804
 20
159.0
 30
0.0
 11
77.508179502921706
 21
159.0
 31
0.0
  0
POLYLINE
  5
7F
  8
0
 66
     1
 10
0.0
 20
0.0
 30
0.0
  0
VERTEX
  5
80
  8
0
 10
75.434994023495364
 20
160.0
 30
0.0
 42
0.2523896899305732
  0
VERTEX
  5
81
  8
0
 10
75.618171596228933
 20
159.66022966384389
 30
0.0
 42
0.0791269388941437
  0
VERTEX
  5
82
  8
0
 10
76.679790203452541
 20
159.18108163550841
 30
0.0
 42
0.0384296704119539
 70
     2
 50
344.75699651520381
  0
VERTEX
  5
83
  8
0
 10
77.937739556261675
 20
158.94017158493639
 30
0.0
 42
0.0281067785316541
 50
344.75699651520381
  0
VERTEX
  5
84
  8
0
 10
79.684994023495364
 20
158.84187454245961
 30
0.0
 42
0.0281067785316616
  0
VERTEX
  5
85
  8
0
 10
81.432248490729066
 20
158.94017158493639
 30
0.0
 42
0.0384296704119641
  0
VERTEX
  5
86
  8
0
 10
82.690197843538186
 20
159.18108163550841
 30
0.0
 42
0.0791269388941537
 70
     2
 50
15.243003484796169
  0
VERTEX
  5
87
  8
0
 10
83.796297283392576
 20
159.68030552075601
 30
0.0
 42
0.2981789072261019
 50
15.243003484796169
  0
VERTEX
  5
88
  8
0
 10
83.934994023495364
 20
160.0
 30
0.0
 42
0.2523896899305415
  0
SEQEND
  5
89
  8
0
  0
POLYLINE
  5
8A
  8
0
 66
     1
 10
0.0
 20
0.0
 30
0.0
  0
VERTEX
  5
8B
  8
0
 10
303.93499402349539
 20
160.0
 30
0.0
 42
-0.2523896899305732
  0
VERTEX
  5
8C
  8
0
 10
303.75181645076179
 20
159.66022966384389
 30
0.0
 42
-0.0791269388941437
  0
VERTEX
  5
8D
  8
0
 10
302.69019784353821
 20
159.18108163550841
 30
0.0
 42
-0.0384296704119539
 70
     2
 50
195.24300348479619
  0
VERTEX
  5
8E
  8
0
 10
301.43224849072908
 20
158.94017158493639
 30
0.0
 42
-0.0281067785316541
  0
VERTEX
  5
8F
  8
0
 10
299.68499402349539
 20
158.84187454245961
 30
0.0
 42
-0.0281067785316616
  0
VERTEX
  5
90
  8
0
 10
297.9377395562617
 20
158.94017158493639
 30
0.0
 42
-0.0384296704119641
  0
VERTEX
  5
91
  8
0
 10
296.67979020345251
 20
159.18108163550841
 30
0.0
 42
-0.0791269388941537
 70
     2
 50
164.75699651520389
  0
VERTEX
  5
92
  8
0
 10
295.57369076359822
 20
159.68030552075601
 30
0.0
 42
-0.2981789072261019
  0
VERTEX
  5
93
  8
0
 10
295.43499402349539
 20
160.0
 30
0.0
 42
-0.2523896899305415
  0
SEQEND
  5
94
  8
0
  0
LINE
  5
95
  8
0
 10
297.50817950292389
 20
159.0
 30
0.0
 11
301.86180854406899
 21
159.0
 31
0.0
  0
LINE
  5
96
  8
0
 10
303.68499402349539
 20
111.5577350269197
 30
0.0
 11
303.584994023494
 21
111.5
 31
0.0
  0
ARC
  5
97
  8
0
 10
301.68499402349539
 20
117.33444403324729
 30
0.0
 40
5.7767090063276196
 50
249.74384199965769
 51
290.2561580003424
  0
ARC
  5
98
  8
0
 10
301.68499402349539
 20
119.9194434164219
 30
0.0
 40
5.7767090063276196
 50
249.74384199965769
 51
290.25615800034228
  0
LINE
  5
99
  8
0
 10
303.68499402349551
 20
111.5577350269197
 30
0.0
 11
303.68499402349551
 21
114.50000000000109
 31
0.0
  0
LINE
  5
9A
  8
0
 10
295.68499402349522
 20
111.5577350269197
 30
0.0
 11
295.68499402349522
 21
114.50000000000109
 31
0.0
  0
ARC
  5
9B
  8
0
 10
297.68499402349539
 20
119.9194434164219
 30
0.0
 40
5.7767090063276196
 50
249.7438419996576
 51
290.25615800034228
  0
ARC
  5
9C
  8
0
 10
297.68499402349539
 20
117.33444403324729
 30
0.0
 40
5.7767090063276196
 50
249.74384199965769
 51
290.2561580003424
  0
LINE
  5
9D
  8
0
 10
295.68499402349539
 20
111.5577350269197
 30
0.0
 11
295.78499402349678
 21
111.5
 31
0.0
  0
LINE
  5
9E
  8
0
 10
303.584994023494
 20
111.5
 30
0.0
 11
295.78499402349672
 21
111.5
 31
0.0
  0
LINE
  5
9F
  8
0
 10
299.68499402349528
 20
114.5000000000018
 30
0.0
 11
299.68499402350272
 21
111.9150006168266
 31
0.0
  0
LINE
  5
A0
  8
0
 10
297.18499402349539
 20
120.0
 30
0.0
 11
297.18499402349539
 21
116.0
 31
0.0
  0
LINE
  5
A1
  8
0
 10
302.18499402349528
 20
120.0
 30
0.0
 11
302.18499402349528
 21
116.0
 31
0.0
  0
LINE
  5
A2
  8
3
 10
297.61799402349521
 20
116.0
 30
0.0
 11
297.61799402349521
 21
120.0
 31
0.0
  0
LINE
  5
A3
  8
3
 10
301.75199402349551
 20
116.0
 30
0.0
 11
301.75199402349551
 21
120.0
 31
0.0
  0
LINE
  5
A4
  8
0
 10
298.08499402349531
 20
108.9999999999999
 30
0.0
 11
301.28499402349541
 21
109.0
 31
0.0
  0
LINE
  5
A5
  8
3
 10
297.61799402349521
 20
109.4670000000002
 30
0.0
 11
297.61799402349521
 21
111.5
 31
0.0
  0
LINE
  5
A6
  8
3
 10
301.75199402349563
 20
109.4670000000002
 30
0.0
 11
301.75199402349551
 21
111.5
 31
0.0
  0
LINE
  5
A7
  8
0
 10
302.18499402349539
 20
109.90000000000001
 30
0.0
 11
301.28499402349541
 21
109.0
 31
0.0
  0
LINE
  5
A8
  8
0
 10
298.08499402349531
 20
108.9999999999999
 30
0.0
 11
297.18499402349539
 21
109.89999999999991
 31
0.0
  0
LINE
  5
A9
  8
0
 10
302.18499402349539
 20
109.90000000000001
 30
0.0
 11
297.18499402349539
 21
109.89999999999991
 31
0.0
  0
LINE
  5
AA
  8
0
 10
305.18499402349539
 20
116.0
 30
0.0
 11
294.18499402349539
 21
116.0
 31
0.0
  0
LINE
  5
AB
  8
0
 10
294.18499402349539
 20
116.0
 30
0.0
 11
294.18499402349539
 21
115.25
 31
0.0
  0
LINE
  5
AC
  8
0
 10
295.68499402349522
 20
113.9733287002593
 30
0.0
 11
294.18499402349539
 21
115.25
 31
0.0
  0
LINE
  5
AD
  8
0
 10
294.18499402349539
 20
115.25
 30
0.0
 11
305.18499402349539
 21
115.25
 31
0.0
  0
LINE
  5
AE
  8
0
 10
305.18499402349539
 20
115.25
 30
0.0
 11
305.18499402349539
 21
116.0
 31
0.0
  0
LINE
  5
AF
  8
0
 10
305.18499402349539
 20
115.25
 30
0.0
 11
303.68499402349551
 21
113.9733287002563
 31
0.0
  0
LINE
  5
B0
  8
0
 10
297.18499402349539
 20
111.5
 30
0.0
 11
297.18499402349539
 21
109.89999999999991
 31
0.0
  0
LINE
  5
B1
  8
0
 10
302.18499402349528
 20
111.5
 30
0.0
 11
302.18499402349539
 21
109.90000000000001
 31
0.0
  0
LINE
  5
B2
  8
2
 10
293.68499402349539
 20
152.0
 30
0.0
 11
305.68499402349539
 21
152.0
 31
0.0
  0
LINE
  5
B3
  8
0
 10
305.68499402349539
 20
120.0
 30
0.0
 11
293.68499402349539
 21
120.0
 31
0.0
  0
LINE
  5
B4
  8
0
 10
305.68499402349539
 20
160.0
 30
0.0
 11
305.68499402349539
 21
120.0
 31
0.0
  0
LINE
  5
B5
  8
0
 10
293.68499402349539
 20
160.0
 30
0.0
 11
305.68499402349539
 21
160.0
 31
0.0
  0
LINE
  5
B6
  8
0
 10
293.68499402349539
 20
120.0
 30
0.0
 11
293.68499402349539
 21
160.0
 31
0.0
  0
LINE
  5
B7
  8
1
 10
299.68499402349539
 20
99.0
 30
0.0
 11
299.68499402349539
 21
170.0
 31
0.0
  0
LINE
  5
B8
  8
0
 10
239.68499402349539
 20
214.19678634047449
 30
0.0
 11
139.68499402349531
 21
214.19678634047449
 31
0.0
  0
LINE
  5
B9
  8
0
 10
139.68499402349531
 20
214.19678634047449
 30
0.0
 11
139.68499402349531
 21
226.19678634047449
 31
0.0
  0
LINE
  5
BA
  8
0
 10
239.68499402349539
 20
214.19678634047449
 30
0.0
 11
239.68499402349539
 21
226.19678634047449
 31
0.0
  0
LINE
  5
BB
  8
0
 10
239.68499402349539
 20
226.19678634047449
 30
0.0
 11
139.68499402349531
 21
226.19678634047449
 31
0.0
  0
CIRCLE
  5
BC
  8
0
 10
145.68499402349531
 20
220.19678634047449
 30
0.0
 40
4.1999999999999877
  0
CIRCLE
  5
BD
  8
0
 10
145.68499402349531
 20
220.19678634047449
 30
0.0
 40
4.25
  0
LINE
  5
BE
  8
1
 10
152.93499402349531
 20
220.19678634047449
 30
0.0
 11
138.43499402349531
 21
220.19678634047449
 31
0.0
  0
LINE
  5
BF
  8
1
 10
145.68499402349531
 20
227.44678634047449
 30
0.0
 11
145.68499402349531
 21
212.94678634047449
 31
0.0
  0
LINE
  5
C0
  8
1
 10
233.68499402349539
 20
227.44678634047449
 30
0.0
 11
233.68499402349539
 21
212.94678634047449
 31
0.0
  0
LINE
  5
C1
  8
1
 10
226.43499402349539
 20
220.19678634047449
 30
0.0
 11
240.93499402349539
 21
220.19678634047449
 31
0.0
  0
CIRCLE
  5
C2
  8
0
 10
233.68499402349539
 20
220.19678634047449
 30
0.0
 40
4.25
  0
CIRCLE
  5
C3
  8
0
 10
233.68499402349539
 20
220.19678634047449
 30
0.0
 40
4.1999999999999877
  0
LINE
  5
C4
  8
0
 10
143.18499402349539
 20
120.0
 30
0.0
 11
143.18499402349539
 21
116.0
 31
0.0
  0
LINE
  5
C5
  8
3
 10
143.6179940234951
 20
116.0
 30
0.0
 11
143.6179940234951
 21
120.0
 31
0.0
  0
LINE
  5
C6
  8
3
 10
147.75199402349551
 20
116.0
 30
0.0
 11
147.75199402349551
 21
120.0
 31
0.0
  0
LINE
  5
C7
  8
0
 10
148.18499402349531
 20
120.0
 30
0.0
 11
148.18499402349531
 21
116.0
 31
0.0
  0
LINE
  5
C8
  8
0
 10
144.0849940234954
 20
108.9999999999999
 30
0.0
 11
147.2849940234953
 21
109.0
 31
0.0
  0
LINE
  5
C9
  8
3
 10
143.6179940234951
 20
109.4670000000002
 30
0.0
 11
143.6179940234951
 21
111.5
 31
0.0
  0
LINE
  5
CA
  8
3
 10
147.75199402349551
 20
109.4670000000002
 30
0.0
 11
147.75199402349551
 21
111.5
 31
0.0
  0
LINE
  5
CB
  8
0
 10
148.18499402349531
 20
109.90000000000001
 30
0.0
 11
147.2849940234953
 21
109.0
 31
0.0
  0
LINE
  5
CC
  8
0
 10
144.0849940234954
 20
108.9999999999999
 30
0.0
 11
143.18499402349539
 21
109.89999999999991
 31
0.0
  0
LINE
  5
CD
  8
0
 10
148.18499402349531
 20
109.90000000000001
 30
0.0
 11
143.18499402349531
 21
109.89999999999991
 31
0.0
  0
LINE
  5
CE
  8
0
 10
151.18499402349531
 20
116.0
 30
0.0
 11
140.18499402349539
 21
116.0
 31
0.0
  0
LINE
  5
CF
  8
0
 10
150.3037961770122
 20
111.9150006168266
 30
0.0
 11
150.3037961770124
 21
114.5
 31
0.0
  0
LINE
  5
D0
  8
0
 10
147.99439510025391
 20
114.4999999999832
 30
0.0
 11
147.99439510025391
 21
111.9150006168347
 31
0.0
  0
LINE
  5
D1
  8
0
 10
143.3755929467369
 20
111.91500061683671
 30
0.0
 11
143.375592946745
 21
114.4999999999944
 31
0.0
  0
LINE
  5
D2
  8
0
 10
141.78499402349439
 20
111.5
 30
0.0
 11
149.58499402349801
 21
111.5
 31
0.0
  0
LINE
  5
D3
  8
0
 10
141.06619186997841
 20
111.9150006168266
 30
0.0
 11
141.06619186997841
 21
114.5
 31
0.0
  0
LINE
  5
D4
  8
0
 10
150.3037961770124
 20
111.9150006168266
 30
0.0
 11
149.58499402349821
 21
111.5
 31
0.0
  0
ARC
  5
D5
  8
0
 10
149.1490956386331
 20
113.6023932256641
 30
0.0
 40
2.044658198744437
 50
235.61575253207371
 51
295.61575253331989
  0
ARC
  5
D6
  8
0
 10
149.1490956386331
 20
116.1873926088375
 30
0.0
 40
2.044658198744437
 50
235.6157525320736
 51
304.38424746791873
  0
ARC
  5
D7
  8
0
 10
145.68499402350821
 20
121.7854688201291
 30
0.0
 40
7.6427344100359971
 50
252.4120462257726
 51
287.58795377402589
  0
ARC
  5
D8
  8
0
 10
142.22089240835771
 20
116.1873926088375
 30
0.0
 40
2.044658198744437
 50
235.61575253205481
 51
304.3842474679264
  0
ARC
  5
D9
  8
0
 10
145.68499402350821
 20
119.2004694369557
 30
0.0
 40
7.6427344100359971
 50
252.4120462257726
 51
287.58795377402578
  0
ARC
  5
DA
  8
0
 10
142.22089240835771
 20
113.6023932256641
 30
0.0
 40
2.044658198744437
 50
244.38424746668019
 51
304.3842474679264
  0
LINE
  5
DB
  8
0
 10
141.06619186997841
 20
111.9150006168266
 30
0.0
 11
141.7849940234926
 21
111.5
 31
0.0
  0
LINE
  5
DC
  8
0
 10
140.18499402349531
 20
116.0
 30
0.0
 11
140.18499402349531
 21
115.25
 31
0.0
  0
LINE
  5
DD
  8
0
 10
141.06619186997841
 20
114.50000000000109
 30
0.0
 11
140.18499402349531
 21
115.25
 31
0.0
  0
LINE
  5
DE
  8
0
 10
140.18499402349531
 20
115.25
 30
0.0
 11
151.18499402349531
 21
115.25
 31
0.0
  0
LINE
  5
DF
  8
0
 10
151.18499402349531
 20
115.25
 30
0.0
 11
151.18499402349531
 21
116.0
 31
0.0
  0
LINE
  5
E0
  8
0
 10
151.18499402349531
 20
115.25
 30
0.0
 11
150.3037961770124
 21
114.4999999999994
 31
0.0
  0
LINE
  5
E1
  8
0
 10
143.18499402349539
 20
111.5
 30
0.0
 11
143.18499402349539
 21
109.89999999999991
 31
0.0
  0
LINE
  5
E2
  8
0
 10
148.18499402349531
 20
111.5
 30
0.0
 11
148.18499402349531
 21
109.90000000000001
 31
0.0
  0
LINE
  5
E3
  8
1
 10
145.68499402349531
 20
104.0
 30
0.0
 11
145.68499402349531
 21
165.0
 31
0.0
  0
ARC
  5
E4
  8
0
 10
144.68499402349531
 20
155.0
 30
0.0
 40
5.0
 50
90.000000000000028
 51
180.0
  0
ARC
  5
E5
  8
0
 10
161.68499402349531
 20
142.0
 30
0.0
 40
10.0
 50
90.000000000000028
 51
180.0
  0
LINE
  5
E6
  8
0
 10
151.68499402349531
 20
120.0
 30
0.0
 11
151.68499402349531
 21
142.0
 31
0.0
  0
LINE
  5
E7
  8
0
 10
139.68499402349531
 20
120.0
 30
0.0
 11
151.68499402349531
 21
120.0
 31
0.0
  0
LINE
  5
E8
  8
0
 10
139.68499402349531
 20
155.0
 30
0.0
 11
139.68499402349531
 21
120.0
 31
0.0
  0
LINE
  5
E9
  8
0
 10
144.68499402349531
 20
160.0
 30
0.0
 11
234.68499402349539
 21
160.0
 31
0.0
  0
LINE
  5
EA
  8
0
 10
217.68499402349539
 20
152.0
 30
0.0
 11
161.68499402349531
 21
152.0
 31
0.0
  0
LINE
  5
EB
  8
0
 10
239.68499402349539
 20
57.89037340762966
 30
0.0
 11
139.68499402349531
 21
57.89037340762966
 31
0.0
  0
LINE
  5
EC
  8
0
 10
239.68499402349539
 20
69.890373407629696
 30
0.0
 11
139.68499402349531
 21
69.890373407629696
 31
0.0
  0
LINE
  5
ED
  8
0
 10
139.68499402349531
 20
69.890373407629696
 30
0.0
 11
139.68499402349531
 21
57.89037340762966
 31
0.0
  0
LINE
  5
EE
  8
0
 10
239.68499402349539
 20
69.890373407629696
 30
0.0
 11
239.68499402349539
 21
57.89037340762966
 31
0.0
  0
LINE
  5
EF
  8
0
 10
151.68499402349531
 20
69.890373407629696
 30
0.0
 11
151.68499402349539
 21
57.89037340762966
 31
0.0
  0
CIRCLE
  5
F0
  8
0
 10
145.68499402349539
 20
63.890373407629681
 30
0.0
 40
5.5000000000000142
  0
CIRCLE
  5
F1
  8
0
 10
145.68499402349539
 20
63.89037340762971
 30
0.0
 40
3.8999999999999999
  0
LINE
  5
F2
  8
0
 10
141.06619186997841
 20
63.890373407629653
 30
0.0
 11
143.37559294673679
 21
59.89037340762971
 31
0.0
  0
LINE
  5
F3
  8
0
 10
143.3755929467369
 20
67.89037340762971
 30
0.0
 11
141.06619186997841
 21
63.890373407629653
 31
0.0
  0
LINE
  5
F4
  8
0
 10
147.99439510025391
 20
67.890373407629653
 30
0.0
 11
143.3755929467369
 21
67.89037340762971
 31
0.0
  0
LINE
  5
F5
  8
0
 10
150.30379617701229
 20
63.890373407629653
 30
0.0
 11
147.99439510025391
 21
67.890373407629653
 31
0.0
  0
LINE
  5
F6
  8
0
 10
147.99439510025391
 20
59.89037340762971
 30
0.0
 11
150.30379617701229
 21
63.890373407629653
 31
0.0
  0
LINE
  5
F7
  8
0
 10
143.37559294673679
 20
59.89037340762971
 30
0.0
 11
147.99439510025391
 21
59.89037340762971
 31
0.0
  0
CIRCLE
  5
F8
  8
0
 10
145.68499402349539
 20
63.89037340762971
 30
0.0
 40
2.0669999999999988
  0
CIRCLE
  5
F9
  8
3
 10
145.68499402349539
 20
63.89037340762971
 30
0.0
 40
2.5
  0
CIRCLE
  5
FA
  8
3
 10
233.68499402349531
 20
63.89037340762971
 30
0.0
 40
2.5
  0
CIRCLE
  5
FB
  8
0
 10
233.68499402349531
 20
63.89037340762971
 30
0.0
 40
2.0669999999999988
  0
LINE
  5
FC
  8
0
 10
235.9943951002538
 20
59.89037340762971
 30
0.0
 11
231.37559294673679
 21
59.89037340762971
 31
0.0
  0
LINE
  5
FD
  8
0
 10
231.37559294673679
 20
59.89037340762971
 30
0.0
 11
229.06619186997841
 21
63.890373407629653
 31
0.0
  0
LINE
  5
FE
  8
0
 10
229.06619186997841
 20
63.890373407629653
 30
0.0
 11
231.37559294673679
 21
67.890373407629653
 31
0.0
  0
LINE
  5
FF
  8
0
 10
231.37559294673679
 20
67.890373407629653
 30
0.0
 11
235.9943951002538
 21
67.89037340762971
 31
0.0
  0
LINE
  5
100
  8
0
 10
235.9943951002538
 20
67.89037340762971
 30
0.0
 11
238.30379617701229
 21
63.890373407629653
 31
0.0
  0
LINE
  5
101
  8
0
 10
238.30379617701229
 20
63.890373407629653
 30
0.0
 11
235.9943951002538
 21
59.89037340762971
 31
0.0
  0
CIRCLE
  5
102
  8
0
 10
233.68499402349531
 20
63.89037340762971
 30
0.0
 40
3.8999999999999999
  0
CIRCLE
  5
103
  8
0
 10
233.68499402349531
 20
63.890373407629681
 30
0.0
 40
5.5000000000000142
  0
LINE
  5
104
  8
0
 10
227.68499402349539
 20
69.890373407629696
 30
0.0
 11
227.68499402349531
 21
57.89037340762966
 31
0.0
  0
LINE
  5
105
  8
1
 10
154.18499402349539
 20
63.890373407629681
 30
0.0
 11
137.18499402349531
 21
63.890373407629681
 31
0.0
  0
LINE
  5
106
  8
1
 10
145.68499402349539
 20
72.39037340762971
 30
0.0
 11
145.68499402349539
 21
55.390373407629681
 31
0.0
  0
LINE
  5
107
  8
1
 10
242.18499402349531
 20
63.890373407629681
 30
0.0
 11
225.18499402349531
 21
63.890373407629681
 31
0.0
  0
LINE
  5
108
  8
1
 10
233.68499402349531
 20
72.39037340762971
 30
0.0
 11
233.68499402349531
 21
55.390373407629681
 31
0.0
  0
LINE
  5
109
  8
0
 10
234.83969456187441
 20
218.19678634047469
 30
0.0
 11
235.99439510025371
 21
220.19678634047469
 31
0.0
  0
LINE
  5
10A
  8
0
 10
235.99439510025371
 20
220.19678634047469
 30
0.0
 11
234.83969456187441
 21
222.19678634047449
 31
0.0
  0
LINE
  5
10B
  8
0
 10
234.83969456187441
 20
222.19678634047449
 30
0.0
 11
232.53029348511561
 21
222.19678634047449
 31
0.0
  0
LINE
  5
10C
  8
0
 10
232.53029348511561
 20
222.19678634047449
 30
0.0
 11
231.3755929467367
 21
220.19678634047449
 31
0.0
  0
LINE
  5
10D
  8
0
 10
231.3755929467367
 20
220.19678634047449
 30
0.0
 11
232.5302934851162
 21
218.19678634047429
 31
0.0
  0
LINE
  5
10E
  8
0
 10
232.5302934851162
 20
218.19678634047429
 30
0.0
 11
234.83969456187441
 21
218.19678634047469
 31
0.0
  0
LINE
  5
10F
  8
0
 10
144.5302934851162
 20
218.19678634047429
 30
0.0
 11
146.83969456187441
 21
218.19678634047469
 31
0.0
  0
LINE
  5
110
  8
0
 10
143.3755929467367
 20
220.19678634047449
 30
0.0
 11
144.5302934851162
 21
218.19678634047429
 31
0.0
  0
LINE
  5
111
  8
0
 10
144.53029348511561
 20
222.19678634047449
 30
0.0
 11
143.3755929467367
 21
220.19678634047449
 31
0.0
  0
LINE
  5
112
  8
0
 10
146.83969456187441
 20
222.19678634047449
 30
0.0
 11
144.53029348511561
 21
222.19678634047449
 31
0.0
  0
LINE
  5
113
  8
0
 10
147.99439510025371
 20
220.19678634047469
 30
0.0
 11
146.83969456187441
 21
222.19678634047449
 31
0.0
  0
LINE
  5
114
  8
0
 10
146.83969456187441
 20
218.19678634047469
 30
0.0
 11
147.99439510025371
 21
220.19678634047469
 31
0.0
  0
TEXT
  5
23B
  8
0
 62
     3
 10
0.0
 20
0.0
 30
0.0
 40
10.0
  1
SQ2-88N
  7
STANDARD1
  0
ENDSEC
  0
EOF
