  0
SECTION
  2
HEADER
  9
$ACADVER
  1
AC1009
  9
$INSBASE
 10
0.0
 20
0.0
 30
0.0
  9
$EXTMIN
 10
0.0
 20
-2.960436562073669
 30
0.0
  9
$EXTMAX
 10
457.66096589998472
 20
342.18373384150681
 30
0.04
  9
$LIMMIN
 10
0.0
 20
0.0
  9
$LIMMAX
 10
375.0
 20
270.0
  9
$ORTHOMODE
 70
     0
  9
$REGENMODE
 70
     1
  9
$FILLMODE
 70
     1
  9
$QTEXTMODE
 70
     0
  9
$MIRRTEXT
 70
     0
  9
$DRAGMODE
 70
     2
  9
$LTSCALE
 40
10.0
  9
$OSMODE
 70
    55
  9
$ATTMODE
 70
     1
  9
$TEXTSIZE
 40
4.000000000000048
  9
$TRACEWID
 40
0.05
  9
$TEXTSTYLE
  7
STANDARD
  9
$CLAYER
  8
0
  9
$CELTYPE
  6
BYLAYER
  9
$CECOLOR
 62
   256
  9
$DIMSCALE
 40
1.0
  9
$DIMASZ
 40
3.0
  9
$DIMEXO
 40
2.0
  9
$DIMDLI
 40
0.38
  9
$DIMRND
 40
0.0
  9
$DIMDLE
 40
0.0
  9
$DIMEXE
 40
2.0
  9
$DIMTP
 40
0.0
  9
$DIMTM
 40
0.0
  9
$DIMTXT
 40
3.2000000000000002
  9
$DIMCEN
 40
0.0
  9
$DIMTSZ
 40
0.0
  9
$DIMTOL
 70
     0
  9
$DIMLIM
 70
     0
  9
$DIMTIH
 70
     0
  9
$DIMTOH
 70
     0
  9
$DIMSE1
 70
     0
  9
$DIMSE2
 70
     0
  9
$DIMTAD
 70
     1
  9
$DIMZIN
 70
     0
  9
$DIMBLK
  1

  9
$DIMASO
 70
     0
  9
$DIMSHO
 70
     0
  9
$DIMPOST
  1

  9
$DIMAPOST
  1

  9
$DIMALT
 70
     0
  9
$DIMALTD
 70
     2
  9
$DIMALTF
 40
25.399999999999999
  9
$DIMLFAC
 40
1.0
  9
$DIMTOFL
 70
     0
  9
$DIMTVP
 40
1.6000000000000001
  9
$DIMTIX
 70
     1
  9
$DIMSOXD
 70
     0
  9
$DIMSAH
 70
     0
  9
$DIMBLK1
  1

  9
$DIMBLK2
  1

  9
$DIMSTYLE
  2
STANDARD
  9
$DIMCLRD
 70
     4
  9
$DIMCLRE
 70
     4
  9
$DIMCLRT
 70
     4
  9
$DIMTFAC
 40
1.0
  9
$DIMGAP
 40
0.09
  9
$LUNITS
 70
     2
  9
$LUPREC
 70
     1
  9
$SKETCHINC
 40
0.1
  9
$FILLETRAD
 40
0.0
  9
$AUNITS
 70
     0
  9
$AUPREC
 70
     0
  9
$MENU
  1
E:\r13\win\SUPPORT\ACAD
  9
$ELEVATION
 40
0.0
  9
$PELEVATION
 40
0.0
  9
$THICKNESS
 40
0.0
  9
$LIMCHECK
 70
     0
  9
$BLIPMODE
 70
     0
  9
$CHAMFERA
 40
1.1999999999999991
  9
$CHAMFERB
 40
1.1999999999999991
  9
$SKPOLY
 70
     0
  9
$TDCREATE
 40
2450158.583426042
  9
$TDUPDATE
 40
2456598.554927072
  9
$TDINDWG
 40
0.1179975579
  9
$TDUSRTIMER
 40
0.1179975579
  9
$USRTIMER
 70
     1
  9
$ANGBASE
 50
0.0
  9
$ANGDIR
 70
     0
  9
$PDMODE
 70
     0
  9
$PDSIZE
 40
0.0
  9
$PLINEWID
 40
0.0
  9
$COORDS
 70
     1
  9
$SPLFRAME
 70
     0
  9
$SPLINETYPE
 70
     6
  9
$SPLINESEGS
 70
     8
  9
$ATTDIA
 70
     0
  9
$ATTREQ
 70
     1
  9
$HANDLING
 70
     1
  9
$HANDSEED
  5
919
  9
$SURFTAB1
 70
     6
  9
$SURFTAB2
 70
     6
  9
$SURFTYPE
 70
     6
  9
$SURFU
 70
     6
  9
$SURFV
 70
     6
  9
$UCSNAME
  2

  9
$UCSORG
 10
0.0
 20
0.0
 30
0.0
  9
$UCSXDIR
 10
1.0
 20
0.0
 30
0.0
  9
$UCSYDIR
 10
0.0
 20
1.0
 30
0.0
  9
$PUCSNAME
  2

  9
$PUCSORG
 10
0.0
 20
0.0
 30
0.0
  9
$PUCSXDIR
 10
1.0
 20
0.0
 30
0.0
  9
$PUCSYDIR
 10
0.0
 20
1.0
 30
0.0
  9
$USERI1
 70
     0
  9
$USERI2
 70
     1
  9
$USERI3
 70
     0
  9
$USERI4
 70
     0
  9
$USERI5
 70
     0
  9
$USERR1
 40
0.0
  9
$USERR2
 40
0.0
  9
$USERR3
 40
0.0
  9
$USERR4
 40
0.0
  9
$USERR5
 40
0.0
  9
$WORLDVIEW
 70
     1
  9
$SHADEDGE
 70
     3
  9
$SHADEDIF
 70
    70
  9
$TILEMODE
 70
     1
  9
$MAXACTVP
 70
    16
  9
$PLIMCHECK
 70
     0
  9
$PEXTMIN
 10
1.0000000000000000E+020
 20
1.0000000000000000E+020
 30
1.0000000000000000E+020
  9
$PEXTMAX
 10
-1.0000000000000000E+020
 20
-1.0000000000000000E+020
 30
-1.0000000000000000E+020
  9
$PLIMMIN
 10
0.0
 20
0.0
  9
$PLIMMAX
 10
12.0
 20
9.0
  9
$UNITMODE
 70
     0
  9
$VISRETAIN
 70
     0
  9
$PLINEGEN
 70
     0
  9
$PSLTSCALE
 70
     0
  0
ENDSEC
  0
SECTION
  2
TABLES
  0
TABLE
  2
VPORT
 70
     1
  0
VPORT
  2
*ACTIVE
 70
     0
 10
0.0
 20
0.0
 11
1.0
 21
1.0
 12
228.83048401556729
 22
249.955834853033
 13
0.0
 23
0.0
 14
10.0
 24
10.0
 15
10.0
 25
10.0
 16
0.0
 26
0.0
 36
1.0
 17
0.0
 27
0.0
 37
0.0
 40
510.28624149846382
 41
1.7807262569832401
 42
50.0
 43
0.0
 44
0.0
 50
0.0
 51
0.0
 71
     0
 72
   500
 73
     1
 74
     0
 75
     0
 76
     0
 77
     0
 78
     2
  0
ENDTAB
  0
TABLE
  2
LTYPE
 70
     4
  0
LTYPE
  2
CONTINUOUS
 70
     0
  3
Solid Line
 72
    65
 73
     0
 40
0.0
  0
LTYPE
  2
CENTER
 70
     0
  3
____ _ ____ _ ____ _ ____ _ ____ _ ____ _ ____
 72
    65
 73
     4
 40
2.0
 49
1.25
 49
-0.25
 49
0.25
 49
-0.25
  0
LTYPE
  2
HIDDEN
 70
     0
  3
_ _ _ _ _ _ _ _ _ _ _ _ _ _ _ _ _ _ _ _ _ _ _
 72
    65
 73
     2
 40
0.375
 49
0.25
 49
-0.125
  0
LTYPE
  2
PHANTOM2
 70
     0
  3
___ _ _ ___ _ _ ___ _ _ ___ _ _
 72
    65
 73
     6
 40
1.25
 49
0.625
 49
-0.125
 49
0.125
 49
-0.125
 49
0.125
 49
-0.125
  0
ENDTAB
  0
TABLE
  2
LAYER
 70
     3
  0
LAYER
  2
0
 70
     0
 62
     7
  6
CONTINUOUS
  0
LAYER
  2
1
 70
     0
 62
     1
  6
CENTER
  0
LAYER
  2
2
 70
     0
 62
     2
  6
HIDDEN
  0
ENDTAB
  0
TABLE
  2
STYLE
 70
     2
  0
STYLE
  2
STANDARD
 70
     0
 40
0.0
 41
1.0
 50
0.0
 71
     0
 42
4.000000000000048
  3
SIMPLEX
  4
BIGFONT
  0
STYLE
  2
STANDARD1
 70
     0
 40
0.0
 41
1.0
 50
0.0
 71
     0
 42
3.0
  3
txt
  4

  0
ENDTAB
  0
TABLE
  2
VIEW
 70
     1
  0
VIEW
  2
ALL
 70
     0
 40
179.5384664489153
 10
146.94997169852391
 20
89.769233224457665
 41
0.0
 11
0.0
 21
0.0
 31
1.0
 12
0.0
 22
0.0
 32
0.0
 42
50.0
 43
0.0
 44
0.0
 50
0.0
 71
     0
  0
ENDTAB
  0
TABLE
  2
UCS
 70
     0
  0
ENDTAB
  0
TABLE
  2
APPID
 70
     3
  0
APPID
  2
ACAD
 70
     0
  0
APPID
  2
ACAD_MLEADERVER
 70
     0
  0
APPID
  2
ACAD_NAV_VCDISPLAY
 70
     0
  0
ENDTAB
  0
TABLE
  2
DIMSTYLE
 70
     1
  0
DIMSTYLE
  2
STANDARD
 70
     0
  3

  4

  5

  6

  7

 40
1.0
 41
0.18
 42
0.0625
 43
0.38
 44
0.18
 45
0.0
 46
0.0
 47
0.0
 48
0.0
140
0.18
141
0.09
142
0.0
143
25.399999999999999
144
1.0
145
0.0
146
1.0
147
0.09
 71
     0
 72
     0
 73
     1
 74
     1
 75
     0
 76
     0
 77
     0
 78
     0
170
     0
171
     2
172
     0
173
     0
174
     0
175
     0
176
     0
177
     0
178
     0
  0
ENDTAB
  0
ENDSEC
  0
SECTION
  2
BLOCKS
  0
BLOCK
  8
0
  2
$MODEL_SPACE
 70
     0
 10
0.0
 20
0.0
 30
0.0
  3
$MODEL_SPACE
  1

  0
ENDBLK
  5
332
  8
0
  0
BLOCK
 67
     1
  8
0
  2
$PAPER_SPACE
 70
     0
 10
0.0
 20
0.0
 30
0.0
  3
$PAPER_SPACE
  1

  0
ENDBLK
  5
330
 67
     1
  8
0
  0
ENDSEC
  0
SECTION
  2
ENTITIES
  0
LINE
  5
731
  8
0
 10
457.66096589998472
 20
158.68639684150679
 30
0.0
 11
457.66096589998472
 21
204.6865718415068
 31
0.0
  0
ARC
  5
732
  8
0
 10
456.6609658999846
 20
158.68645284150679
 30
0.0
 40
1.0
 50
270.0
 51
0.0
  0
ARC
  5
733
  8
2
 10
463.99096589998459
 20
213.9864528415068
 30
0.0
 40
7.9000000000000004
 50
147.06000599999709
 51
212.93999400000291
  0
ARC
  5
734
  8
2
 10
401.33096589998468
 20
213.9864528415068
 30
0.0
 40
7.9000000000000004
 50
327.0600059999972
 51
32.939994000002848
  0
LINE
  5
735
  8
0
 10
407.66283389998478
 20
207.68645284150679
 30
0.0
 11
407.66283389998472
 21
205.68645284150679
 31
0.0
  0
ARC
  5
736
  8
0
 10
437.15066889998462
 20
185.29039984150691
 30
0.0
 40
9.5999999999999996
 50
270.00156199999719
 51
358.01216600000009
  0
LINE
  5
737
  8
0
 10
457.36096589998459
 20
207.68645284150679
 30
0.0
 11
457.36096589998459
 21
232.68645284150679
 31
0.0
  0
LINE
  5
738
  8
0
 10
407.96096589998473
 20
232.68645284150679
 30
0.0
 11
457.36096589998459
 21
232.68645284150679
 31
0.0
  0
LINE
  5
739
  8
0
 10
407.96096589998473
 20
232.68645284150679
 30
0.0
 11
407.96096589998473
 21
207.68645284150679
 31
0.0
  0
LINE
  5
73A
  8
0
 10
457.6590978999846
 20
207.68645284150679
 30
0.0
 11
457.6590978999846
 21
205.68645284150679
 31
0.0
  0
LINE
  5
73B
  8
0
 10
407.66283389998478
 20
207.68645284150679
 30
0.0
 11
457.6590978999846
 21
207.68645284150679
 31
0.0
  0
ARC
  5
73C
  8
0
 10
428.17423089998471
 20
185.29015584150679
 30
0.0
 40
9.5999999999999996
 50
181.9909449999997
 51
270.00156199999719
  0
LINE
  5
73D
  8
0
 10
428.17449289998461
 20
175.69015584150679
 30
0.0
 11
437.15093089998459
 21
175.6903998415068
 31
0.0
  0
LINE
  5
73E
  8
0
 10
447.46436289998468
 20
205.6865718415068
 30
0.0
 11
446.74489189998468
 21
184.95740184150679
 31
0.0
  0
LINE
  5
73F
  8
0
 10
417.85940089998468
 20
205.6865718415068
 30
0.0
 11
418.58002589998472
 21
184.95663684150691
 31
0.0
  0
LINE
  5
740
  8
1
 10
432.66096589998472
 20
242.68645284150679
 30
0.0
 11
432.66096589998472
 21
147.68639684150679
 31
0.0
  0
ARC
  5
741
  8
0
 10
408.6609658999846
 20
158.68645284150679
 30
0.0
 40
1.0
 50
180.0
 51
270.0
  0
LINE
  5
742
  8
0
 10
407.66096589998472
 20
158.68639684150679
 30
0.0
 11
407.66096589998472
 21
204.6865718415068
 31
0.0
  0
ARC
  5
743
  8
0
 10
408.6609658999846
 20
204.68645284150679
 30
0.0
 40
1.0
 50
90.0
 51
180.0
  0
LINE
  5
744
  8
0
 10
456.6609658999846
 20
157.68645284150679
 30
0.0
 11
408.6609658999846
 21
157.68645284150679
 31
0.0
  0
LINE
  5
745
  8
0
 10
407.66283389998478
 20
205.68645284150679
 30
0.0
 11
457.6590978999846
 21
205.68645284150679
 31
0.0
  0
ARC
  5
746
  8
0
 10
456.66096589998472
 20
204.68645284150679
 30
0.0
 40
1.0
 50
0.0
 51
90.0
  0
LINE
  5
747
  8
0
 10
357.66283389998461
 20
205.68641695156171
 30
0.0
 11
157.66283389998449
 21
205.68645287743271
 31
0.0
  0
ARC
  5
748
  8
0
 10
58.664701899984607
 20
204.68645284150679
 30
0.0
 40
1.0
 50
90.0
 51
180.0
  0
LINE
  5
749
  8
0
 10
107.66283389998451
 20
205.68645284150679
 30
0.0
 11
57.666569899984609
 21
205.68645284150679
 31
0.0
  0
LINE
  5
74A
  8
0
 10
58.664701899984657
 20
157.68645284150679
 30
0.0
 11
106.66470189998461
 21
157.68645284150679
 31
0.0
  0
ARC
  5
74B
  8
0
 10
106.66470189998461
 20
204.68645284150679
 30
0.0
 40
1.0
 50
0.0
 51
90.0
  0
LINE
  5
74C
  8
0
 10
107.66470189998461
 20
158.68639684150679
 30
0.0
 11
107.66470189998461
 21
204.6865718415068
 31
0.0
  0
ARC
  5
74D
  8
0
 10
106.66470189998461
 20
158.68645284150679
 30
0.0
 40
1.0
 50
270.0
 51
0.0
  0
LINE
  5
74E
  8
0
 10
357.16283389998449
 20
207.68641704137639
 30
0.0
 11
157.86283389998459
 21
207.68645284150679
 31
0.0
  0
LINE
  5
74F
  8
0
 10
283.16283389998449
 20
207.68373384150689
 30
0.0
 11
358.16283389998449
 21
207.68645284150691
 31
0.0
  0
LINE
  5
750
  8
0
 10
157.6628338999848
 20
57.986396841506917
 30
0.0
 11
157.16283389998461
 21
57.986396841506917
 31
0.0
  0
LINE
  5
751
  8
0
 10
157.16283389998449
 20
57.986396841506917
 30
0.0
 11
157.16283389998461
 21
107.38639684150689
 31
0.0
  0
LINE
  5
752
  8
0
 10
157.16283389998461
 20
107.38639684150689
 30
0.0
 11
157.6628338999848
 21
107.38639684150689
 31
0.0
  0
LINE
  5
753
  8
0
 10
357.66283389998449
 20
57.986396841506917
 30
0.0
 11
358.16283389998472
 21
57.986396841506917
 31
0.0
  0
LINE
  5
754
  8
0
 10
358.16283389998472
 20
107.38639684150689
 30
0.0
 11
357.66283389998449
 21
107.38639684150689
 31
0.0
  0
LINE
  5
755
  8
0
 10
358.16283389998478
 20
57.986396841506917
 30
0.0
 11
358.16283389998472
 21
107.38639684150689
 31
0.0
  0
LINE
  5
756
  8
0
 10
357.66283389998461
 20
282.48373384150688
 30
0.0
 11
357.66283389998472
 21
282.18373384150692
 31
0.0
  0
LINE
  5
757
  8
0
 10
157.66283389998461
 20
331.88645284150681
 30
0.0
 11
157.66283389998461
 21
332.18373384150692
 31
0.0
  0
ARC
  5
758
  8
0
 10
167.1546108999845
 20
307.18645284150699
 30
0.0
 40
13.0
 50
140.2281775403826
 51
219.7718224596174
  0
LINE
  5
759
  8
0
 10
357.66283389998472
 20
282.18373384150692
 30
0.0
 11
157.66283389998461
 21
282.18373384150692
 31
0.0
  0
LINE
  5
75A
  8
0
 10
157.66283389998461
 20
282.18373384150692
 30
0.0
 11
157.66283389998461
 21
282.48645284150689
 31
0.0
  0
LINE
  5
75B
  8
0
 10
157.66283389998461
 20
332.18373384150692
 30
0.0
 11
357.66283389998472
 21
332.18373384150692
 31
0.0
  0
LINE
  5
75C
  8
0
 10
357.66283389998472
 20
332.18373384150692
 30
0.0
 11
357.66283389998472
 21
331.88373384150691
 31
0.0
  0
ARC
  5
75D
  8
2
 10
296.46756289998461
 20
275.85373384150688
 30
0.0
 40
7.9000000000000004
 50
90.000016999997811
 51
122.93999400000109
  0
ARC
  5
75E
  8
2
 10
344.8581088999847
 20
275.85373384150688
 30
0.0
 40
7.9000000000000004
 50
57.060005999998822
 51
90.000016000002944
  0
LINE
  5
75F
  8
2
 10
296.46755989998451
 20
283.75373384150691
 30
0.0
 11
344.8581068999847
 21
283.75373384150691
 31
0.0
  0
LINE
  5
760
  8
2
 10
296.46755989998451
 20
330.61373384150681
 30
0.0
 11
344.8581068999847
 21
330.61373384150681
 31
0.0
  0
ARC
  5
761
  8
2
 10
344.8581088999847
 20
338.51373384150691
 30
0.0
 40
7.9000000000000004
 50
269.99998399999708
 51
302.93999400000121
  0
ARC
  5
762
  8
2
 10
296.46756289998461
 20
338.51373384150691
 30
0.0
 40
7.9000000000000004
 50
237.06000599999879
 51
269.9999830000022
  0
LINE
  5
763
  8
0
 10
358.16283389998472
 20
331.88373384150691
 30
0.0
 11
283.16283389998472
 21
331.88373384150691
 31
0.0
  0
LINE
  5
764
  8
0
 10
283.16283389998472
 20
331.88373384150691
 30
0.0
 11
283.16283389998461
 21
282.48373384150688
 31
0.0
  0
LINE
  5
765
  8
0
 10
358.16283389998472
 20
282.48373384150688
 30
0.0
 11
358.16283389998461
 21
331.88373384150691
 31
0.0
  0
LINE
  5
766
  8
0
 10
283.16283389998472
 20
282.48373384150688
 30
0.0
 11
358.16283389998472
 21
282.48373384150688
 31
0.0
  0
LINE
  5
767
  8
1
 10
320.66283389998472
 20
336.68373384150692
 30
0.0
 11
320.66283389998472
 21
277.68373384150692
 31
0.0
  0
ARC
  5
768
  8
2
 10
255.45854101964531
 20
338.51373386730597
 30
0.0
 40
7.9000000000000004
 50
237.06000599999879
 51
270.00001600000292
  0
ARC
  5
769
  8
2
 10
259.86712678032399
 20
338.51373386730597
 30
0.0
 40
7.9000000000000004
 50
270.0000169999978
 51
302.93999400000121
  0
LINE
  5
76A
  8
2
 10
255.45854322574181
 20
330.61373386730628
 30
0.0
 11
259.86712912430102
 21
330.61373386730639
 31
0.0
  0
LINE
  5
76B
  8
2
 10
255.45854322574181
 20
283.75373381570739
 30
0.0
 11
259.86712912430102
 21
283.75373381570728
 31
0.0
  0
LINE
  5
76C
  8
1
 10
247.83783389998459
 20
291.18373384150681
 30
0.0
 11
267.48783389998471
 21
291.18373384150681
 31
0.0
  0
LINE
  5
76D
  8
1
 10
247.83783389998459
 20
323.18373384150692
 30
0.0
 11
267.48783389998471
 21
323.18373384150692
 31
0.0
  0
CIRCLE
  5
76E
  8
0
 10
257.66283389998472
 20
323.18373384150692
 30
0.0
 40
4.8250000000000002
  0
CIRCLE
  5
76F
  8
0
 10
257.66283389998472
 20
323.18373384150692
 30
0.0
 40
4.5700000000001921
  0
CIRCLE
  5
770
  8
0
 10
257.66283389998472
 20
323.18373384150692
 30
0.0
 40
2.599999999999937
  0
CIRCLE
  5
771
  8
0
 10
257.66283389998472
 20
291.18373384150681
 30
0.0
 40
2.599999999999937
  0
CIRCLE
  5
772
  8
0
 10
257.66283389998472
 20
291.18373384150681
 30
0.0
 40
4.5700000000001921
  0
LINE
  5
773
  8
1
 10
257.66283389998461
 20
342.18373384150681
 30
0.0
 11
257.66283389998461
 21
272.18373384150681
 31
0.0
  0
LINE
  5
774
  8
1
 10
368.16283389998472
 20
307.18645284150682
 30
0.0
 11
144.1546108999845
 21
307.18645284150682
 31
0.0
  0
LINE
  5
775
  8
1
 10
194.66283389998461
 20
336.68645284150682
 30
0.0
 11
194.66283389998461
 21
277.68645284150682
 31
0.0
  0
LINE
  5
776
  8
0
 10
232.16283389998469
 20
282.48645284150678
 30
0.0
 11
157.16283389998461
 21
282.48645284150678
 31
0.0
  0
LINE
  5
777
  8
0
 10
157.16283389998461
 20
282.48645284150678
 30
0.0
 11
157.16283389998461
 21
331.88645284150681
 31
0.0
  0
LINE
  5
778
  8
0
 10
232.16283389998469
 20
331.88645284150681
 30
0.0
 11
232.16283389998469
 21
282.48645284150678
 31
0.0
  0
LINE
  5
779
  8
0
 10
157.16283389998461
 20
331.88645284150681
 30
0.0
 11
232.16283389998469
 21
331.88645284150681
 31
0.0
  0
ARC
  5
77A
  8
2
 10
218.85810489998471
 20
338.5164528415068
 30
0.0
 40
7.9000000000000004
 50
270.0000169999978
 51
302.93999400000121
  0
ARC
  5
77B
  8
2
 10
170.4675588999846
 20
338.5164528415068
 30
0.0
 40
7.9000000000000004
 50
237.06000599999879
 51
270.00001600000292
  0
LINE
  5
77C
  8
2
 10
218.85810789998479
 20
330.61645284150683
 30
0.0
 11
170.46756089998459
 21
330.61645284150683
 31
0.0
  0
LINE
  5
77D
  8
2
 10
218.85810789998479
 20
283.75645284150681
 30
0.0
 11
170.46756089998459
 21
283.75645284150681
 31
0.0
  0
ARC
  5
77E
  8
2
 10
170.4675588999846
 20
275.85645284150678
 30
0.0
 40
7.9000000000000004
 50
89.999983999997085
 51
122.93999400000109
  0
ARC
  5
77F
  8
2
 10
218.85810489998471
 20
275.85645284150678
 30
0.0
 40
7.9000000000000004
 50
57.060005999998822
 51
89.999983000002189
  0
CIRCLE
  5
780
  8
0
 10
257.66283389998472
 20
291.18373384150681
 30
0.0
 40
4.8250000000000002
  0
LINE
  5
781
  8
0
 10
275.66283389998461
 20
282.48373384150688
 30
0.0
 11
239.66283389998469
 21
282.48373384150688
 31
0.0
  0
ARC
  5
782
  8
2
 10
259.86712678032399
 20
275.8537338157077
 30
0.0
 40
7.9000000000000004
 50
57.060005999998822
 51
89.999983000002189
  0
ARC
  5
783
  8
2
 10
255.45854101964531
 20
275.8537338157077
 30
0.0
 40
7.9000000000000004
 50
89.999983999997085
 51
122.93999400000109
  0
LINE
  5
784
  8
0
 10
239.66283389998469
 20
331.88373384150691
 30
0.0
 11
275.66283389998461
 21
331.88373384150691
 31
0.0
  0
LINE
  5
785
  8
0
 10
239.66283389998469
 20
282.48373384150688
 30
0.0
 11
239.66283389998469
 21
331.88373384150691
 31
0.0
  0
LINE
  5
786
  8
0
 10
275.66283389998461
 20
331.88373384150691
 30
0.0
 11
275.66283389998472
 21
282.48373384150688
 31
0.0
  0
LINE
  5
787
  8
1
 10
232.66283389998469
 20
70.686396841506848
 30
0.0
 11
232.66283389998469
 21
94.686396841506848
 31
0.0
  0
LINE
  5
788
  8
1
 10
182.66283389998469
 20
68.666396841506867
 30
0.0
 11
182.66283389998469
 21
96.706396841506844
 31
0.0
  0
LINE
  5
789
  8
1
 10
332.66283389998449
 20
68.666396841506867
 30
0.0
 11
332.66283389998449
 21
96.706396841506844
 31
0.0
  0
LINE
  5
78A
  8
1
 10
282.66283389998449
 20
70.686396841506848
 30
0.0
 11
282.66283389998449
 21
94.686396841506848
 31
0.0
  0
LINE
  5
78B
  8
1
 10
367.66283389998449
 20
82.686396841506877
 30
0.0
 11
147.66283389998449
 21
82.686396841506877
 31
0.0
  0
LINE
  5
78C
  8
1
 10
257.66283389998472
 20
117.68639684150681
 30
0.0
 11
257.66283389998472
 21
47.686396841506841
 31
0.0
  0
LINE
  5
78D
  8
1
 10
320.67533489998459
 20
237.68373384150689
 30
0.0
 11
320.67533489998459
 21
202.68645284150679
 31
0.0
  0
LINE
  5
78E
  8
1
 10
194.66283389998461
 20
237.68645284150679
 30
0.0
 11
194.66283389998461
 21
202.68645284150679
 31
0.0
  0
LINE
  5
78F
  8
1
 10
257.66283389998472
 20
242.68645284150679
 30
0.0
 11
257.66283389998472
 21
147.68639684150679
 31
0.0
  0
LINE
  5
790
  8
1
 10
82.664701899984664
 20
242.68645284150679
 30
0.0
 11
82.664701899984664
 21
147.68639684150679
 31
0.0
  0
CIRCLE
  5
791
  8
0
 10
82.663277899984607
 20
189.4282868415068
 30
0.0
 40
7.7418029999999991
  0
LINE
  5
792
  8
0
 10
71.913277899984621
 20
203.81320084150681
 30
0.0
 11
93.413277899984678
 21
203.81320084150681
 31
0.0
  0
LINE
  5
793
  8
0
 10
97.466266899984589
 20
205.6865718415068
 30
0.0
 11
96.745641899984562
 21
184.95663684150691
 31
0.0
  0
LINE
  5
794
  8
0
 10
67.861304899984589
 20
205.6865718415068
 30
0.0
 11
68.580775899984573
 21
184.95740184150679
 31
0.0
  0
LINE
  5
795
  8
0
 10
87.151174899984653
 20
175.69015584150679
 30
0.0
 11
78.174736899984623
 21
175.6903998415068
 31
0.0
  0
ARC
  5
796
  8
0
 10
87.15143689998456
 20
185.29015584150679
 30
0.0
 40
9.5999999999999996
 50
269.99843800000281
 51
358.00905500000039
  0
ARC
  5
797
  8
0
 10
93.413277899984678
 20
201.56320084150681
 30
0.0
 40
2.25
 50
270.0
 51
90.0
  0
ARC
  5
798
  8
0
 10
71.913277899984621
 20
201.56320084150681
 30
0.0
 40
2.25
 50
90.0
 51
270.0
  0
LINE
  5
799
  8
0
 10
107.66283389998451
 20
207.68645284150679
 30
0.0
 11
57.666569899984609
 21
207.68645284150679
 31
0.0
  0
LINE
  5
79A
  8
0
 10
57.666569899984609
 20
207.68645284150679
 30
0.0
 11
57.666569899984658
 21
205.68645284150679
 31
0.0
  0
LINE
  5
79B
  8
0
 10
107.3647018999846
 20
232.68645284150679
 30
0.0
 11
107.3647018999846
 21
207.68645284150679
 31
0.0
  0
LINE
  5
79C
  8
0
 10
157.66283389998449
 20
157.68639684150679
 30
0.0
 11
157.66283389998449
 21
205.68645287743271
 31
0.0
  0
LINE
  5
79D
  8
0
 10
107.3647018999846
 20
232.68645284150679
 30
0.0
 11
57.964701899984668
 21
232.68645284150679
 31
0.0
  0
LINE
  5
79E
  8
0
 10
57.964701899984668
 20
207.68645284150679
 30
0.0
 11
57.964701899984668
 21
232.68645284150679
 31
0.0
  0
LINE
  5
79F
  8
0
 10
82.663277899984607
 20
195.14914884150679
 30
0.0
 11
82.663277899984607
 21
183.90452984150679
 31
0.0
  0
ARC
  5
7A0
  8
0
 10
78.174998899984644
 20
185.29039984150691
 30
0.0
 40
9.5999999999999996
 50
181.98783399999991
 51
269.99843800000281
  0
LINE
  5
7A1
  8
0
 10
93.413277899984678
 20
199.31320084150681
 30
0.0
 11
71.913277899984621
 21
199.31320084150681
 31
0.0
  0
LINE
  5
7A2
  8
0
 10
107.66283389998451
 20
207.68645284150679
 30
0.0
 11
107.66283389998461
 21
205.68645284150679
 31
0.0
  0
ARC
  5
7A3
  8
2
 10
113.99470189998461
 20
213.9864528415068
 30
0.0
 40
7.9000000000000004
 50
147.06000599999709
 51
212.93999400000291
  0
ARC
  5
7A4
  8
2
 10
51.334701899984623
 20
213.9864528415068
 30
0.0
 40
7.9000000000000004
 50
327.0600059999972
 51
32.939994000002848
  0
ARC
  5
7A5
  8
0
 10
340.64981489998439
 20
191.68642484150689
 30
0.0
 40
7.0006669999999991
 50
269.99998200000078
 51
89.999977000000285
  0
LINE
  5
7A6
  8
0
 10
232.16283389998449
 20
207.68645284150679
 30
0.0
 11
157.16283389998449
 21
207.68645284150679
 31
0.0
  0
LINE
  5
7A7
  8
0
 10
157.16283389998449
 20
207.68645284150679
 30
0.0
 11
157.16283389998449
 21
232.68645284150679
 31
0.0
  0
LINE
  5
7A8
  8
0
 10
232.16283389998449
 20
232.68645284150679
 30
0.0
 11
232.16283389998449
 21
207.68645284150679
 31
0.0
  0
LINE
  5
7A9
  8
0
 10
239.66283389998461
 20
207.68645284150679
 30
0.0
 11
275.66283389998461
 21
207.68645284150679
 31
0.0
  0
LINE
  5
7AA
  8
0
 10
157.86283389998459
 20
205.68645284150679
 30
0.0
 11
157.86283389998459
 21
207.68645284150679
 31
0.0
  0
ARC
  5
7AB
  8
0
 10
343.66250289998447
 20
177.68672784150681
 30
0.0
 40
4.0003310000000001
 50
270.0
 51
90.0
  0
ARC
  5
7AC
  8
0
 10
171.66316489998451
 20
177.68672784150681
 30
0.0
 40
4.0003310000000001
 50
90.0
 51
270.0
  0
CIRCLE
  5
7AD
  8
0
 10
332.66283389998449
 20
82.686396841506834
 30
0.0
 40
6.0
  0
CIRCLE
  5
7AE
  8
0
 10
182.66283389998449
 20
82.686396841506834
 30
0.0
 40
6.0
  0
CIRCLE
  5
7AF
  8
2
 10
232.66283389998449
 20
82.686396841506834
 30
0.0
 40
7.0
  0
CIRCLE
  5
7B0
  8
2
 10
282.66283389998449
 20
82.686396841506834
 30
0.0
 40
7.0
  0
LINE
  5
7B1
  8
0
 10
357.66283389998449
 20
107.68639684150681
 30
0.0
 11
357.66283389998449
 21
57.686396841506841
 31
0.0
  0
LINE
  5
7B2
  8
0
 10
357.66283389998449
 20
57.686396841506841
 30
0.0
 11
157.66283389998449
 21
57.686396841506841
 31
0.0
  0
LINE
  5
7B3
  8
0
 10
157.66283389998449
 20
57.686396841506841
 30
0.0
 11
157.66283389998449
 21
107.68639684150681
 31
0.0
  0
ARC
  5
7B4
  8
0
 10
174.66350089998451
 20
191.68642484150689
 30
0.0
 40
7.0006669999999991
 50
90.0
 51
270.0
  0
LINE
  5
7B5
  8
0
 10
174.66349989998449
 20
184.68575784150681
 30
0.0
 11
340.64981289998462
 21
184.68575784150681
 31
0.0
  0
LINE
  5
7B6
  8
0
 10
174.66350089998451
 20
198.6870918415068
 30
0.0
 11
340.64981789998461
 21
198.6870918415068
 31
0.0
  0
LINE
  5
7B7
  8
0
 10
171.66316489998451
 20
173.68639684150679
 30
0.0
 11
343.66250289998447
 21
173.68639684150679
 31
0.0
  0
ARC
  5
7B8
  8
0
 10
58.664701899984657
 20
158.68645284150679
 30
0.0
 40
1.0
 50
180.0
 51
270.0
  0
LINE
  5
7B9
  8
0
 10
57.664701899984657
 20
158.68639684150679
 30
0.0
 11
57.664701899984657
 21
204.6865718415068
 31
0.0
  0
LINE
  5
7BA
  8
0
 10
255.40665789998459
 20
209.68645284150679
 30
0.0
 11
259.90665789998451
 21
209.68645284150679
 31
0.0
  0
LINE
  5
7BB
  8
0
 10
259.90665789998451
 20
218.18645284150679
 30
0.0
 11
255.40665789998459
 21
218.18645284150679
 31
0.0
  0
ARC
  5
7BC
  8
0
 10
259.90665789998451
 20
213.93645284150679
 30
0.0
 40
4.25
 50
270.0
 51
90.0
  0
ARC
  5
7BD
  8
0
 10
170.4679108999845
 20
213.87004284150689
 30
0.0
 40
4.2835900000000002
 50
90.0
 51
270.0
  0
ARC
  5
7BE
  8
0
 10
218.88275489998449
 20
213.87004284150689
 30
0.0
 40
4.2835900000000002
 50
270.00002400000119
 51
89.999973000001191
  0
LINE
  5
7BF
  8
0
 10
170.4679108999845
 20
218.15363184150681
 30
0.0
 11
218.88275689998451
 21
218.15363184150681
 31
0.0
  0
LINE
  5
7C0
  8
0
 10
170.4679108999845
 20
209.5864528415068
 30
0.0
 11
218.88275689998451
 21
209.5864528415068
 31
0.0
  0
LINE
  5
7C1
  8
0
 10
357.16283389998449
 20
205.68645284150679
 30
0.0
 11
357.16283389998449
 21
207.68645284150679
 31
0.0
  0
LINE
  5
7C2
  8
0
 10
171.66316489998451
 20
181.68705884150691
 30
0.0
 11
343.23073289998462
 21
181.68705884150691
 31
0.0
  0
CIRCLE
  5
7C3
  8
0
 10
282.66283389998449
 20
82.686396841506834
 30
0.0
 40
4.25
  0
CIRCLE
  5
7C4
  8
0
 10
232.66283389998449
 20
82.686396841506834
 30
0.0
 40
4.25
  0
LINE
  5
7C5
  8
0
 10
157.66283389998449
 20
107.68639684150681
 30
0.0
 11
357.66283389998449
 21
107.68639684150681
 31
0.0
  0
LINE
  5
7C6
  8
0
 10
344.8702568999845
 20
209.5864528415068
 30
0.0
 11
296.45541189998448
 21
209.5864528415068
 31
0.0
  0
LINE
  5
7C7
  8
0
 10
344.8702568999845
 20
218.15363184150681
 30
0.0
 11
296.45541089998449
 21
218.15363184150681
 31
0.0
  0
LINE
  5
7C8
  8
0
 10
358.16283389998449
 20
232.68373384150689
 30
0.0
 11
358.16283389998449
 21
207.68645284150691
 31
0.0
  0
LINE
  5
7C9
  8
0
 10
275.66283389998461
 20
232.68645284150679
 30
0.0
 11
239.66283389998461
 21
232.68645284150679
 31
0.0
  0
LINE
  5
7CA
  8
0
 10
358.16283389998449
 20
232.68373384150689
 30
0.0
 11
283.16283389998449
 21
232.68373384150689
 31
0.0
  0
LINE
  5
7CB
  8
0
 10
283.16283389998449
 20
232.68373384150689
 30
0.0
 11
283.16283389998449
 21
207.68373384150689
 31
0.0
  0
LINE
  5
7CC
  8
0
 10
239.66283389998461
 20
232.68645284150679
 30
0.0
 11
239.66283389998461
 21
207.68645284150679
 31
0.0
  0
LINE
  5
7CD
  8
0
 10
275.66283389998461
 20
207.68645284150679
 30
0.0
 11
275.66283389998461
 21
232.68645284150679
 31
0.0
  0
ARC
  5
7CE
  8
0
 10
167.1546108999845
 20
189.7112148415068
 30
0.04
 40
13.0
 50
136.97758399999731
 51
223.02241600000261
  0
LINE
  5
7CF
  8
0
 10
357.66283389998461
 20
205.68641695156171
 30
0.0
 11
357.66283389998449
 21
157.68639684150679
 31
0.0
  0
LINE
  5
7D0
  8
0
 10
157.66283389998449
 20
157.68645284150679
 30
0.0
 11
357.66283389998449
 21
157.68645284150679
 31
0.0
  0
LINE
  5
7D1
  8
0
 10
157.16283389998449
 20
232.68645284150679
 30
0.0
 11
232.16283389998449
 21
232.68645284150679
 31
0.0
  0
ARC
  5
7D2
  8
0
 10
296.45541289998448
 20
213.87004284150689
 30
0.0
 40
4.2835900000000002
 50
90.000026999998823
 51
269.99997599999892
  0
ARC
  5
7D3
  8
0
 10
344.8702568999845
 20
213.87004284150689
 30
0.0
 40
4.2835900000000002
 50
270.0
 51
90.0
  0
ARC
  5
7D4
  8
0
 10
255.40665789998459
 20
213.93645284150679
 30
0.0
 40
4.25
 50
90.0
 51
270.0
  0
TEXT
  5
883
  8
0
 62
     3
 10
0.0
 20
0.0
 30
0.0
 40
10.0
  1
SQL0520
  7
STANDARD1
  0
ENDSEC
  0
EOF
