  0
SECTION
  2
HEADER
  9
$ACADVER
  1
AC1009
  9
$INSBASE
 10
0.0
 20
0.0
 30
0.0
  9
$EXTMIN
 10
0.0
 20
-2.960436562073669
 30
0.0
  9
$EXTMAX
 10
1062.7381539834571
 20
476.91576537795731
 30
0.0
  9
$LIMMIN
 10
0.0
 20
0.0
  9
$LIMMAX
 10
770.0
 20
540.0
  9
$ORTHOMODE
 70
     0
  9
$REGENMODE
 70
     1
  9
$FILLMODE
 70
     1
  9
$QTEXTMODE
 70
     0
  9
$MIRRTEXT
 70
     0
  9
$DRAGMODE
 70
     2
  9
$LTSCALE
 40
20.0
  9
$OSMODE
 70
    55
  9
$ATTMODE
 70
     1
  9
$TEXTSIZE
 40
4.000000000000048
  9
$TRACEWID
 40
0.05
  9
$TEXTSTYLE
  7
STANDARD
  9
$CLAYER
  8
0
  9
$CELTYPE
  6
BYLAYER
  9
$CECOLOR
 62
   256
  9
$DIMSCALE
 40
2.0
  9
$DIMASZ
 40
3.0
  9
$DIMEXO
 40
2.0
  9
$DIMDLI
 40
0.38
  9
$DIMRND
 40
0.0
  9
$DIMDLE
 40
0.0
  9
$DIMEXE
 40
2.0
  9
$DIMTP
 40
0.0
  9
$DIMTM
 40
0.0
  9
$DIMTXT
 40
3.0
  9
$DIMCEN
 40
0.0
  9
$DIMTSZ
 40
0.0
  9
$DIMTOL
 70
     0
  9
$DIMLIM
 70
     0
  9
$DIMTIH
 70
     0
  9
$DIMTOH
 70
     0
  9
$DIMSE1
 70
     0
  9
$DIMSE2
 70
     0
  9
$DIMTAD
 70
     1
  9
$DIMZIN
 70
     0
  9
$DIMBLK
  1

  9
$DIMASO
 70
     0
  9
$DIMSHO
 70
     0
  9
$DIMPOST
  1

  9
$DIMAPOST
  1

  9
$DIMALT
 70
     0
  9
$DIMALTD
 70
     2
  9
$DIMALTF
 40
25.399999999999999
  9
$DIMLFAC
 40
1.0
  9
$DIMTOFL
 70
     0
  9
$DIMTVP
 40
1.6000000000000001
  9
$DIMTIX
 70
     1
  9
$DIMSOXD
 70
     0
  9
$DIMSAH
 70
     0
  9
$DIMBLK1
  1

  9
$DIMBLK2
  1

  9
$DIMSTYLE
  2
STANDARD
  9
$DIMCLRD
 70
     4
  9
$DIMCLRE
 70
     4
  9
$DIMCLRT
 70
     4
  9
$DIMTFAC
 40
1.0
  9
$DIMGAP
 40
0.09
  9
$LUNITS
 70
     2
  9
$LUPREC
 70
     1
  9
$SKETCHINC
 40
0.1
  9
$FILLETRAD
 40
0.0
  9
$AUNITS
 70
     0
  9
$AUPREC
 70
     0
  9
$MENU
  1
E:\r13\win\SUPPORT\ACAD
  9
$ELEVATION
 40
0.0
  9
$PELEVATION
 40
0.0
  9
$THICKNESS
 40
0.0
  9
$LIMCHECK
 70
     0
  9
$BLIPMODE
 70
     0
  9
$CHAMFERA
 40
1.1999999999999991
  9
$CHAMFERB
 40
1.1999999999999991
  9
$SKPOLY
 70
     0
  9
$TDCREATE
 40
2450158.583426042
  9
$TDUPDATE
 40
2456598.5551610771
  9
$TDINDWG
 40
0.1520165741
  9
$TDUSRTIMER
 40
0.1520165741
  9
$USRTIMER
 70
     1
  9
$ANGBASE
 50
0.0
  9
$ANGDIR
 70
     0
  9
$PDMODE
 70
     0
  9
$PDSIZE
 40
0.0
  9
$PLINEWID
 40
0.0
  9
$COORDS
 70
     1
  9
$SPLFRAME
 70
     0
  9
$SPLINETYPE
 70
     6
  9
$SPLINESEGS
 70
     8
  9
$ATTDIA
 70
     0
  9
$ATTREQ
 70
     1
  9
$HANDLING
 70
     1
  9
$HANDSEED
  5
1071
  9
$SURFTAB1
 70
     6
  9
$SURFTAB2
 70
     6
  9
$SURFTYPE
 70
     6
  9
$SURFU
 70
     6
  9
$SURFV
 70
     6
  9
$UCSNAME
  2

  9
$UCSORG
 10
0.0
 20
0.0
 30
0.0
  9
$UCSXDIR
 10
1.0
 20
0.0
 30
0.0
  9
$UCSYDIR
 10
0.0
 20
1.0
 30
0.0
  9
$PUCSNAME
  2

  9
$PUCSORG
 10
0.0
 20
0.0
 30
0.0
  9
$PUCSXDIR
 10
1.0
 20
0.0
 30
0.0
  9
$PUCSYDIR
 10
0.0
 20
1.0
 30
0.0
  9
$USERI1
 70
     3
  9
$USERI2
 70
     1
  9
$USERI3
 70
     0
  9
$USERI4
 70
     0
  9
$USERI5
 70
     0
  9
$USERR1
 40
2.0
  9
$USERR2
 40
3.0
  9
$USERR3
 40
3.0
  9
$USERR4
 40
3.0
  9
$USERR5
 40
10.0
  9
$WORLDVIEW
 70
     1
  9
$SHADEDGE
 70
     3
  9
$SHADEDIF
 70
    70
  9
$TILEMODE
 70
     1
  9
$MAXACTVP
 70
    16
  9
$PLIMCHECK
 70
     0
  9
$PEXTMIN
 10
1.0000000000000000E+020
 20
1.0000000000000000E+020
 30
1.0000000000000000E+020
  9
$PEXTMAX
 10
-1.0000000000000000E+020
 20
-1.0000000000000000E+020
 30
-1.0000000000000000E+020
  9
$PLIMMIN
 10
0.0
 20
0.0
  9
$PLIMMAX
 10
12.0
 20
9.0
  9
$UNITMODE
 70
     0
  9
$VISRETAIN
 70
     0
  9
$PLINEGEN
 70
     0
  9
$PSLTSCALE
 70
     0
  0
ENDSEC
  0
SECTION
  2
TABLES
  0
TABLE
  2
VPORT
 70
     1
  0
VPORT
  2
*ACTIVE
 70
     0
 10
0.0
 20
0.0
 11
1.0
 21
1.0
 12
531.36907946610825
 22
394.89452070385119
 13
0.0
 23
0.0
 14
10.0
 24
10.0
 15
10.0
 25
10.0
 16
0.0
 26
0.0
 36
1.0
 17
0.0
 27
0.0
 37
0.0
 40
802.76084457946263
 41
1.7807262569832401
 42
50.0
 43
0.0
 44
0.0
 50
0.0
 51
0.0
 71
     0
 72
   500
 73
     1
 74
     0
 75
     0
 76
     0
 77
     0
 78
     2
  0
ENDTAB
  0
TABLE
  2
LTYPE
 70
     4
  0
LTYPE
  2
CONTINUOUS
 70
     0
  3
Solid Line
 72
    65
 73
     0
 40
0.0
  0
LTYPE
  2
CENTER
 70
     0
  3
____ _ ____ _ ____ _ ____ _ ____ _ ____ _ ____
 72
    65
 73
     4
 40
2.0
 49
1.25
 49
-0.25
 49
0.25
 49
-0.25
  0
LTYPE
  2
HIDDEN
 70
     0
  3
_ _ _ _ _ _ _ _ _ _ _ _ _ _ _ _ _ _ _ _ _ _ _
 72
    65
 73
     2
 40
0.375
 49
0.25
 49
-0.125
  0
LTYPE
  2
PHANTOM2
 70
     0
  3
Phantom (.5x) ___ _ _ ___ _ _ ___ _ _ ___ _ _
 72
    65
 73
     6
 40
1.25
 49
0.625
 49
-0.125
 49
0.125
 49
-0.125
 49
0.125
 49
-0.125
  0
ENDTAB
  0
TABLE
  2
LAYER
 70
     4
  0
LAYER
  2
0
 70
     0
 62
     7
  6
CONTINUOUS
  0
LAYER
  2
1
 70
     0
 62
     1
  6
CENTER
  0
LAYER
  2
2
 70
     0
 62
     2
  6
HIDDEN
  0
LAYER
  2
5
 70
     0
 62
     3
  6
PHANTOM2
  0
ENDTAB
  0
TABLE
  2
STYLE
 70
     2
  0
STYLE
  2
STANDARD
 70
     0
 40
0.0
 41
1.0
 50
0.0
 71
     0
 42
4.000000000000048
  3
SIMPLEX
  4
BIGFONT
  0
STYLE
  2
STANDARD1
 70
     0
 40
0.0
 41
1.0
 50
0.0
 71
     0
 42
3.0
  3
txt
  4

  0
ENDTAB
  0
TABLE
  2
VIEW
 70
     1
  0
VIEW
  2
ALL
 70
     0
 40
179.5384664489153
 10
146.94997169852391
 20
89.769233224457665
 41
0.0
 11
0.0
 21
0.0
 31
1.0
 12
0.0
 22
0.0
 32
0.0
 42
50.0
 43
0.0
 44
0.0
 50
0.0
 71
     0
  0
ENDTAB
  0
TABLE
  2
UCS
 70
     0
  0
ENDTAB
  0
TABLE
  2
APPID
 70
     3
  0
APPID
  2
ACAD
 70
     0
  0
APPID
  2
ACAD_MLEADERVER
 70
     0
  0
APPID
  2
ACAD_NAV_VCDISPLAY
 70
     0
  0
ENDTAB
  0
TABLE
  2
DIMSTYLE
 70
     1
  0
DIMSTYLE
  2
STANDARD
 70
     0
  3

  4

  5

  6

  7

 40
1.0
 41
0.18
 42
0.0625
 43
0.38
 44
0.18
 45
0.0
 46
0.0
 47
0.0
 48
0.0
140
0.18
141
0.09
142
0.0
143
25.399999999999999
144
1.0
145
0.0
146
1.0
147
0.09
 71
     0
 72
     0
 73
     1
 74
     1
 75
     0
 76
     0
 77
     0
 78
     0
170
     0
171
     2
172
     0
173
     0
174
     0
175
     0
176
     0
177
     0
178
     0
  0
ENDTAB
  0
ENDSEC
  0
SECTION
  2
BLOCKS
  0
BLOCK
  8
0
  2
$MODEL_SPACE
 70
     0
 10
0.0
 20
0.0
 30
0.0
  3
$MODEL_SPACE
  1

  0
ENDBLK
  5
644
  8
0
  0
BLOCK
 67
     1
  8
0
  2
$PAPER_SPACE
 70
     0
 10
0.0
 20
0.0
 30
0.0
  3
$PAPER_SPACE
  1

  0
ENDBLK
  5
642
 67
     1
  8
0
  0
ENDSEC
  0
SECTION
  2
ENTITIES
  0
ARC
  5
E15
  8
2
 10
905.39952398345724
 20
236.91576537795731
 30
0.0
 40
11.1
 50
327.27955699999927
 51
32.720443000000706
  0
ARC
  5
E16
  8
2
 10
1072.076782983457
 20
236.91576537795731
 30
0.0
 40
11.1
 50
147.2795569999993
 51
212.7204430000007
  0
LINE
  5
E17
  8
0
 10
914.73815398345721
 20
228.91576537795731
 30
0.0
 11
1062.7381539834571
 21
228.91576537795731
 31
0.0
  0
LINE
  5
E18
  8
0
 10
864.73815398345721
 20
228.91576537795731
 30
0.0
 11
759.73815398345721
 21
228.91576537795731
 31
0.0
  0
LINE
  5
E19
  8
0
 10
759.73815398345721
 20
228.91576537795731
 30
0.0
 11
759.73815398345721
 21
268.91576537795731
 31
0.0
  0
ARC
  5
E1A
  8
0
 10
772.73815398345732
 20
236.91576537795731
 30
0.0
 40
6.0
 50
90.0
 51
270.0
  0
LINE
  5
E1B
  8
0
 10
864.73815398345721
 20
268.91576537795731
 30
0.0
 11
864.73815398345721
 21
228.91576537795731
 31
0.0
  0
LINE
  5
E1C
  8
0
 10
851.73815398345721
 20
230.91576537795731
 30
0.0
 11
772.73815398345732
 21
230.91576537795731
 31
0.0
  0
LINE
  5
E1D
  8
0
 10
864.73815398345721
 20
318.91576537795731
 30
0.0
 11
864.73815398345721
 21
466.9157653779572
 31
0.0
  0
LINE
  5
E1E
  8
0
 10
864.73815398345721
 20
318.91576537795731
 30
0.0
 11
759.73815398345721
 21
318.91576537795731
 31
0.0
  0
LINE
  5
E1F
  8
0
 10
759.73815398345721
 20
466.9157653779572
 30
0.0
 11
759.73815398345721
 21
318.91576537795731
 31
0.0
  0
LINE
  5
E20
  8
0
 10
864.73815398345721
 20
466.9157653779572
 30
0.0
 11
759.73815398345721
 21
466.9157653779572
 31
0.0
  0
LINE
  5
E21
  8
2
 10
851.73815398345721
 20
320.67713537795743
 30
0.0
 11
772.73815398345732
 21
320.67713537795743
 31
0.0
  0
ARC
  5
E22
  8
2
 10
772.73815398345732
 20
309.5771353779574
 30
0.0
 40
11.1
 50
89.999996000000905
 51
122.72044299999899
  0
ARC
  5
E23
  8
2
 10
851.73815398345721
 20
309.5771353779574
 30
0.0
 40
11.1
 50
57.279557000000942
 51
90.00000299999769
  0
ARC
  5
E24
  8
2
 10
851.73815398345721
 20
476.2543943779574
 30
0.0
 40
11.1
 50
269.99999700000228
 51
302.72044299999902
  0
ARC
  5
E25
  8
2
 10
772.73815398345732
 20
476.2543943779574
 30
0.0
 40
11.1
 50
237.27955700000101
 51
270.00000399999908
  0
LINE
  5
E26
  8
2
 10
851.73815398345721
 20
465.15439437795732
 30
0.0
 11
772.73815398345732
 21
465.15439437795732
 31
0.0
  0
LINE
  5
E27
  8
0
 10
851.73815398345721
 20
242.91576537795731
 30
0.0
 11
772.73815398345732
 21
242.91576537795731
 31
0.0
  0
ARC
  5
E28
  8
0
 10
851.73815398345721
 20
236.91576537795731
 30
0.0
 40
6.0
 50
270.0
 51
90.0
  0
LINE
  5
E29
  8
0
 10
759.73815398345721
 20
268.91576537795731
 30
0.0
 11
864.73815398345721
 21
268.91576537795731
 31
0.0
  0
LINE
  5
E2A
  8
1
 10
812.23815398345744
 20
476.91576537795731
 30
0.0
 11
812.23815398345721
 21
308.91576537795731
 31
0.0
  0
LINE
  5
E2B
  8
1
 10
988.73815398345732
 20
278.91576537795731
 30
0.0
 11
988.73815398345732
 21
218.91576537795731
 31
0.0
  0
LINE
  5
E2C
  8
1
 10
812.23815398345721
 20
278.91576537795731
 30
0.0
 11
812.23815398345744
 21
218.91576537795731
 31
0.0
  0
LINE
  5
E2D
  8
1
 10
749.73815398345732
 20
392.91576537795731
 30
0.0
 11
874.73815398345721
 21
392.91576537795731
 31
0.0
  0
LINE
  5
E2E
  8
0
 10
1062.7381539834571
 20
268.91576537795731
 30
0.0
 11
914.73815398345721
 21
268.91576537795731
 31
0.0
  0
LINE
  5
E2F
  8
0
 10
914.73815398345721
 20
268.91576537795731
 30
0.0
 11
914.73815398345721
 21
228.91576537795731
 31
0.0
  0
LINE
  5
E30
  8
0
 10
1062.7381539834571
 20
228.91576537795731
 30
0.0
 11
1062.7381539834571
 21
268.91576537795731
 31
0.0
  0
LINE
  5
E3B
  8
5
 10
143.72019355704981
 20
245.91576537795731
 30
0.0
 11
101.7201935570498
 21
245.91576537795731
 31
0.0
  0
LINE
  5
E3E
  8
5
 10
264.2201935570497
 20
245.91576537795731
 30
0.0
 11
334.22019355704981
 21
245.91576537795731
 31
0.0
  0
LINE
  5
E3F
  8
5
 10
264.2201935570497
 20
245.91576537795731
 30
0.0
 11
264.2201935570497
 21
228.91576537795731
 31
0.0
  0
LINE
  5
E40
  8
5
 10
334.22019355704981
 20
245.91576537795731
 30
0.0
 11
334.22019355704981
 21
228.91576537795731
 31
0.0
  0
LINE
  5
E43
  8
5
 10
264.22019355704981
 20
413.91576537795731
 30
0.0
 11
264.2201935570497
 21
371.91576537795731
 31
0.0
  0
LINE
  5
E44
  8
5
 10
334.2201935570497
 20
413.91576537795731
 30
0.0
 11
334.22019355704981
 21
371.91576537795743
 31
0.0
  0
LINE
  5
E45
  8
0
 10
48.720193557049811
 20
228.91576537795731
 30
0.0
 11
48.720193557049811
 21
268.91576537795731
 31
0.0
  0
LINE
  5
E46
  8
0
 10
196.72019355704981
 20
268.91576537795731
 30
0.0
 11
196.72019355704981
 21
228.91576537795731
 31
0.0
  0
LINE
  5
E47
  8
0
 10
48.720193557049811
 20
268.91576537795731
 30
0.0
 11
196.72019355704981
 21
268.91576537795731
 31
0.0
  0
LINE
  5
E48
  8
0
 10
578.40468677025353
 20
224.91576537795731
 30
0.0
 11
583.05366077025337
 21
224.91576537795731
 31
0.0
  0
LINE
  5
E49
  8
0
 10
574.62917377025337
 20
223.91576537795731
 30
0.0
 11
574.62917377025337
 21
228.91576537795731
 31
0.0
  0
LINE
  5
E4A
  8
0
 10
586.82917377025353
 20
223.91576537795731
 30
0.0
 11
574.62917377025337
 21
223.91576537795731
 31
0.0
  0
LINE
  5
E4B
  8
0
 10
586.82917377025353
 20
223.91576537795731
 30
0.0
 11
586.82917377025353
 21
228.91576537795731
 31
0.0
  0
LINE
  5
E4C
  8
0
 10
578.40468677025353
 20
223.91576537795731
 30
0.0
 11
578.40468677025353
 21
228.91576537795731
 31
0.0
  0
LINE
  5
E4D
  8
0
 10
583.05366077025337
 20
223.91576537795731
 30
0.0
 11
583.05366077025337
 21
228.91576537795731
 31
0.0
  0
LINE
  5
E54
  8
5
 10
447.72917377025362
 20
245.9157653779574
 30
0.0
 11
447.72917377025351
 21
228.91576537795731
 31
0.0
  0
LINE
  5
E55
  8
5
 10
465.72917377025351
 20
245.9157653779574
 30
0.0
 11
465.72917377025351
 21
228.91576537795731
 31
0.0
  0
LINE
  5
E56
  8
1
 10
615.72917377025351
 20
278.91576537795731
 30
0.0
 11
615.72917377025351
 21
213.91576537795731
 31
0.0
  0
LINE
  5
E57
  8
5
 10
465.72917377025351
 20
245.9157653779574
 30
0.0
 11
447.72917377025362
 21
245.9157653779574
 31
0.0
  0
ARC
  5
E60
  8
2
 10
697.91208277025339
 20
238.41576542118909
 30
0.0
 40
11.1
 50
180.000020000002
 51
222.50664200000151
  0
ARC
  5
E61
  8
2
 10
697.91208277025339
 20
238.41576542118909
 30
0.0
 40
11.1
 50
137.49335799999849
 51
179.9999780000017
  0
ARC
  5
E62
  8
2
 10
533.54626477025363
 20
238.41576542118909
 30
0.0
 40
11.1
 50
0.0000219999983059
 51
42.506642000001492
  0
ARC
  5
E63
  8
2
 10
533.54626477025363
 20
238.41576542118909
 30
0.0
 40
11.1
 50
317.49335799999852
 51
359.999979999998
  0
LINE
  5
E64
  8
1
 10
650.7291737702534
 20
273.91576537795731
 30
0.0
 11
650.7291737702534
 21
218.91576537795731
 31
0.0
  0
LINE
  5
E65
  8
2
 10
658.72917377025351
 20
265.41576537795731
 30
0.0
 11
658.72917377025351
 21
268.91576537795731
 31
0.0
  0
LINE
  5
E66
  8
2
 10
642.7291737702534
 20
265.41576537795731
 30
0.0
 11
642.7291737702534
 21
268.91576537795731
 31
0.0
  0
LINE
  5
E67
  8
2
 10
642.7291737702534
 20
265.41576537795731
 30
0.0
 11
658.72917377025351
 21
265.41576537795731
 31
0.0
  0
LINE
  5
E68
  8
2
 10
654.92917377025356
 20
235.53012437795741
 30
0.0
 11
646.52917377025346
 21
235.53012437795741
 31
0.0
  0
LINE
  5
E69
  8
2
 10
645.72917377025351
 20
236.91576537795731
 30
0.0
 11
646.52917377025346
 21
235.53012437795741
 31
0.0
  0
LINE
  5
E6A
  8
2
 10
655.7291737702534
 20
236.91576537795731
 30
0.0
 11
654.92917377025356
 21
235.53012437795741
 31
0.0
  0
LINE
  5
E6B
  8
2
 10
657.72917377025351
 20
236.91576537795731
 30
0.0
 11
643.72917377025351
 21
236.91576537795731
 31
0.0
  0
LINE
  5
E6C
  8
2
 10
643.72917377025351
 20
236.91576537795731
 30
0.0
 11
643.72917377025351
 21
265.41576537795731
 31
0.0
  0
LINE
  5
E6D
  8
2
 10
657.72917377025351
 20
236.91576537795731
 30
0.0
 11
657.72917377025351
 21
265.41576537795731
 31
0.0
  0
LINE
  5
E6E
  8
0
 10
657.77917377025346
 20
224.91576537795731
 30
0.0
 11
656.77917377025346
 21
223.91576537795731
 31
0.0
  0
LINE
  5
E6F
  8
0
 10
657.77917377025346
 20
224.91576537795731
 30
0.0
 11
657.77917377025346
 21
226.91576537795731
 31
0.0
  0
LINE
  5
E70
  8
0
 10
643.67917377025356
 20
224.91576537795731
 30
0.0
 11
644.67917377025356
 21
223.91576537795731
 31
0.0
  0
LINE
  5
E71
  8
0
 10
643.67917377025356
 20
224.91576537795731
 30
0.0
 11
643.67917377025356
 21
226.91576537795731
 31
0.0
  0
LINE
  5
E72
  8
0
 10
657.77917377025346
 20
224.91576537795731
 30
0.0
 11
643.67917377025356
 21
224.91576537795731
 31
0.0
  0
LINE
  5
E73
  8
0
 10
656.77917377025346
 20
223.91576537795731
 30
0.0
 11
644.67917377025356
 21
223.91576537795731
 31
0.0
  0
LINE
  5
E74
  8
2
 10
646.52917377025346
 20
223.91576537795731
 30
0.0
 11
646.52917377025346
 21
235.53012437795741
 31
0.0
  0
LINE
  5
E75
  8
2
 10
654.92917377025356
 20
223.91576537795731
 30
0.0
 11
654.92917377025356
 21
235.53012437795741
 31
0.0
  0
ARC
  5
E76
  8
0
 10
644.14105377025339
 20
228.51576537795731
 30
0.0
 40
0.4
 50
330.0
 51
90.0
  0
ARC
  5
E77
  8
0
 10
657.31729277025352
 20
228.51576537795731
 30
0.0
 40
0.4
 50
90.0
 51
210.0
  0
LINE
  5
E78
  8
0
 10
657.77917377025346
 20
226.91576537795731
 30
0.0
 11
656.97088277025341
 21
228.31576537795729
 31
0.0
  0
LINE
  5
E79
  8
0
 10
643.67917377025356
 20
226.91576537795731
 30
0.0
 11
644.48746377025338
 21
228.31576537795729
 31
0.0
  0
LINE
  5
E7A
  8
2
 10
584.92917377025356
 20
223.91576537795731
 30
0.0
 11
584.92917377025356
 21
235.53012437795741
 31
0.0
  0
LINE
  5
E7B
  8
2
 10
576.52917377025346
 20
223.91576537795731
 30
0.0
 11
576.52917377025346
 21
235.53012437795741
 31
0.0
  0
LINE
  5
E7C
  8
2
 10
587.72917377025351
 20
236.91576537795731
 30
0.0
 11
587.72917377025351
 21
265.41576537795731
 31
0.0
  0
LINE
  5
E7D
  8
2
 10
573.72917377025351
 20
236.91576537795731
 30
0.0
 11
573.72917377025351
 21
265.41576537795731
 31
0.0
  0
LINE
  5
E7E
  8
2
 10
587.72917377025351
 20
236.91576537795731
 30
0.0
 11
573.72917377025351
 21
236.91576537795731
 31
0.0
  0
LINE
  5
E7F
  8
2
 10
585.72917377025351
 20
236.91576537795731
 30
0.0
 11
584.92917377025356
 21
235.53012437795741
 31
0.0
  0
LINE
  5
E80
  8
2
 10
575.7291737702534
 20
236.91576537795731
 30
0.0
 11
576.52917377025346
 21
235.53012437795741
 31
0.0
  0
LINE
  5
E81
  8
2
 10
584.92917377025356
 20
235.53012437795741
 30
0.0
 11
576.52917377025346
 21
235.53012437795741
 31
0.0
  0
LINE
  5
E82
  8
2
 10
572.72917377025351
 20
265.41576537795731
 30
0.0
 11
588.7291737702534
 21
265.41576537795731
 31
0.0
  0
LINE
  5
E83
  8
2
 10
572.72917377025351
 20
265.41576537795731
 30
0.0
 11
572.72917377025351
 21
268.91576537795731
 31
0.0
  0
LINE
  5
E84
  8
2
 10
588.7291737702534
 20
265.41576537795731
 30
0.0
 11
588.7291737702534
 21
268.91576537795731
 31
0.0
  0
LINE
  5
E85
  8
1
 10
580.7291737702534
 20
273.91576537795731
 30
0.0
 11
580.7291737702534
 21
218.91576537795731
 31
0.0
  0
LINE
  5
E86
  8
0
 10
541.72917377025351
 20
268.91576537795731
 30
0.0
 11
541.72917377025351
 21
228.91576537795731
 31
0.0
  0
LINE
  5
E87
  8
0
 10
689.72917377025362
 20
268.91576537795731
 30
0.0
 11
689.72917377025351
 21
228.91576537795731
 31
0.0
  0
LINE
  5
E88
  8
0
 10
541.72917377025351
 20
228.91576537795731
 30
0.0
 11
689.72917377025351
 21
228.91576537795731
 31
0.0
  0
LINE
  5
E89
  8
0
 10
541.72917377025351
 20
268.91576537795731
 30
0.0
 11
689.72917377025351
 21
268.91576537795731
 31
0.0
  0
CIRCLE
  5
E8A
  8
0
 10
456.72917377025351
 20
427.91576537795731
 30
0.0
 40
4.2000000000001023
  0
CIRCLE
  5
E8B
  8
0
 10
456.72917377025351
 20
427.91576537795731
 30
0.0
 40
7.0
  0
CIRCLE
  5
E8C
  8
0
 10
456.72917377025351
 20
427.91576537795731
 30
0.0
 40
8.0
  0
LINE
  5
E8D
  8
1
 10
443.72917377025351
 20
427.91576537795731
 30
0.0
 11
469.72917377025351
 21
427.91576537795731
 31
0.0
  0
LINE
  5
E8E
  8
1
 10
443.72917377025351
 20
357.91576537795731
 30
0.0
 11
469.72917377025351
 21
357.91576537795731
 31
0.0
  0
CIRCLE
  5
E8F
  8
0
 10
456.72917377025351
 20
357.91576537795731
 30
0.0
 40
8.0
  0
CIRCLE
  5
E90
  8
0
 10
456.72917377025351
 20
357.91576537795731
 30
0.0
 40
7.0
  0
CIRCLE
  5
E91
  8
0
 10
456.72917377025351
 20
357.91576537795731
 30
0.0
 40
4.2000000000001023
  0
LINE
  5
E92
  8
1
 10
501.7291737702534
 20
392.91576537795731
 30
0.0
 11
411.72917377025351
 21
392.91576537795731
 31
0.0
  0
LINE
  5
E93
  8
1
 10
456.72917377025351
 20
476.91576537795731
 30
0.0
 11
456.72917377025351
 21
308.91576537795731
 31
0.0
  0
LINE
  5
E94
  8
1
 10
456.72917377025351
 20
278.91576537795731
 30
0.0
 11
456.72917377025351
 21
213.91576537795731
 31
0.0
  0
LINE
  5
E95
  8
1
 10
361.7201935570497
 20
392.91576537795731
 30
0.0
 11
236.72019355704981
 21
392.91576537795731
 31
0.0
  0
LINE
  5
E96
  8
1
 10
299.22019355704981
 20
278.91576537795731
 30
0.0
 11
299.22019355704981
 21
218.91576537795731
 31
0.0
  0
LINE
  5
E97
  8
1
 10
122.7201935570498
 20
278.91576537795731
 30
0.0
 11
122.7201935570498
 21
218.91576537795731
 31
0.0
  0
LINE
  5
E98
  8
1
 10
299.22019355704981
 20
476.91576537795731
 30
0.0
 11
299.22019355704981
 21
308.91576537795731
 31
0.0
  0
LINE
  5
E99
  8
2
 10
464.72917377025351
 20
265.41576537795731
 30
0.0
 11
464.72917377025351
 21
268.91576537795731
 31
0.0
  0
LINE
  5
E9A
  8
2
 10
448.72917377025351
 20
265.41576537795731
 30
0.0
 11
448.72917377025351
 21
268.91576537795731
 31
0.0
  0
LINE
  5
E9B
  8
2
 10
448.72917377025351
 20
265.41576537795731
 30
0.0
 11
464.72917377025351
 21
265.41576537795731
 31
0.0
  0
LINE
  5
E9C
  8
2
 10
460.9291737702535
 20
235.53012437795741
 30
0.0
 11
452.52917377025341
 21
235.53012437795741
 31
0.0
  0
LINE
  5
E9D
  8
2
 10
451.7291737702534
 20
236.91576537795731
 30
0.0
 11
452.52917377025341
 21
235.53012437795741
 31
0.0
  0
LINE
  5
E9E
  8
2
 10
461.72917377025351
 20
236.91576537795731
 30
0.0
 11
460.9291737702535
 21
235.53012437795741
 31
0.0
  0
ARC
  5
E9F
  8
2
 10
455.7291737702534
 20
475.09867437795731
 30
0.0
 40
11.1
 50
227.49335799999719
 51
269.9999780000017
  0
ARC
  5
EA0
  8
2
 10
455.7291737702534
 20
310.73285637795738
 30
0.0
 40
11.1
 50
90.000021999998324
 51
132.50664200000281
  0
LINE
  5
EA1
  8
2
 10
455.72916877025352
 20
321.83285637795728
 30
0.0
 11
457.7291777702535
 21
321.83285637795728
 31
0.0
  0
ARC
  5
EA2
  8
2
 10
457.72917377025351
 20
310.73285637795738
 30
0.0
 40
11.1
 50
47.493357999997208
 51
89.999979999997976
  0
LINE
  5
EA3
  8
0
 10
421.7291737702534
 20
466.9157653779572
 30
0.0
 11
491.72917377025351
 21
466.9157653779572
 31
0.0
  0
LINE
  5
EA4
  8
0
 10
491.72917377025351
 20
466.9157653779572
 30
0.0
 11
491.72917377025351
 21
318.91576537795731
 31
0.0
  0
LINE
  5
EA5
  8
0
 10
421.7291737702534
 20
318.91576537795731
 30
0.0
 11
421.7291737702534
 21
466.9157653779572
 31
0.0
  0
LINE
  5
EA6
  8
0
 10
491.72917377025351
 20
318.91576537795731
 30
0.0
 11
421.7291737702534
 21
318.91576537795731
 31
0.0
  0
ARC
  5
EA7
  8
2
 10
457.72917377025351
 20
475.09867437795731
 30
0.0
 40
11.1
 50
270.000020000002
 51
312.50664200000278
  0
LINE
  5
EA8
  8
2
 10
455.72916877025352
 20
463.99867437795717
 30
0.0
 11
457.7291777702535
 21
463.99867437795717
 31
0.0
  0
LINE
  5
EA9
  8
2
 10
463.7291737702534
 20
236.91576537795731
 30
0.0
 11
449.72917377025351
 21
236.91576537795731
 31
0.0
  0
LINE
  5
EAA
  8
2
 10
449.72917377025351
 20
236.91576537795731
 30
0.0
 11
449.72917377025351
 21
265.41576537795731
 31
0.0
  0
LINE
  5
EAB
  8
2
 10
463.7291737702534
 20
236.91576537795731
 30
0.0
 11
463.7291737702534
 21
265.41576537795731
 31
0.0
  0
LINE
  5
EAC
  8
0
 10
491.72917377025351
 20
228.91576537795731
 30
0.0
 11
421.7291737702534
 21
228.91576537795731
 31
0.0
  0
ARC
  5
EAD
  8
0
 10
457.72917377025351
 20
238.41576537795731
 30
0.0
 40
7.5
 50
270.0
 51
90.0
  0
LINE
  5
EAE
  8
0
 10
463.77917377025341
 20
224.91576537795731
 30
0.0
 11
462.77917377025341
 21
223.91576537795731
 31
0.0
  0
LINE
  5
EAF
  8
0
 10
463.77917377025341
 20
224.91576537795731
 30
0.0
 11
463.77917377025341
 21
226.91576537795731
 31
0.0
  0
LINE
  5
EB0
  8
0
 10
449.6791737702535
 20
224.91576537795731
 30
0.0
 11
450.6791737702535
 21
223.91576537795731
 31
0.0
  0
LINE
  5
EB1
  8
0
 10
449.6791737702535
 20
224.91576537795731
 30
0.0
 11
449.6791737702535
 21
226.91576537795731
 31
0.0
  0
LINE
  5
EB2
  8
0
 10
463.77917377025341
 20
224.91576537795731
 30
0.0
 11
449.6791737702535
 21
224.91576537795731
 31
0.0
  0
LINE
  5
EB3
  8
0
 10
462.77917377025341
 20
223.91576537795731
 30
0.0
 11
450.6791737702535
 21
223.91576537795731
 31
0.0
  0
LINE
  5
EB4
  8
2
 10
452.52917377025341
 20
223.91576537795731
 30
0.0
 11
452.52917377025341
 21
235.53012437795741
 31
0.0
  0
LINE
  5
EB5
  8
2
 10
460.9291737702535
 20
223.91576537795731
 30
0.0
 11
460.9291737702535
 21
235.53012437795741
 31
0.0
  0
LINE
  5
EB6
  8
0
 10
457.72917377025351
 20
245.91576537795731
 30
0.0
 11
455.7291737702534
 21
245.91576537795731
 31
0.0
  0
LINE
  5
EB7
  8
0
 10
457.72917377025351
 20
230.91576537795731
 30
0.0
 11
455.7291737702534
 21
230.91576537795731
 31
0.0
  0
ARC
  5
EB8
  8
0
 10
455.7291737702534
 20
238.41576537795731
 30
0.0
 40
7.5
 50
90.0
 51
270.0
  0
ARC
  5
EB9
  8
0
 10
450.14105377025339
 20
228.51576537795731
 30
0.0
 40
0.4
 50
330.0
 51
90.0
  0
ARC
  5
EBA
  8
0
 10
463.31729277025352
 20
228.51576537795731
 30
0.0
 40
0.4
 50
90.0
 51
210.0
  0
LINE
  5
EBB
  8
0
 10
463.77917377025341
 20
226.91576537795731
 30
0.0
 11
462.97088277025352
 21
228.31576537795729
 31
0.0
  0
LINE
  5
EBC
  8
0
 10
421.7291737702534
 20
228.91576537795731
 30
0.0
 11
421.7291737702534
 21
268.91576537795731
 31
0.0
  0
LINE
  5
EBD
  8
0
 10
449.6791737702535
 20
226.91576537795731
 30
0.0
 11
450.4874637702535
 21
228.31576537795729
 31
0.0
  0
LINE
  5
EBE
  8
0
 10
421.7291737702534
 20
268.91576537795731
 30
0.0
 11
491.72917377025351
 21
268.91576537795731
 31
0.0
  0
LINE
  5
EBF
  8
0
 10
491.72917377025351
 20
268.91576537795731
 30
0.0
 11
491.72917377025351
 21
228.91576537795731
 31
0.0
  0
LINE
  5
EC0
  8
0
 10
351.7201935570497
 20
268.91576537795731
 30
0.0
 11
246.72019355704981
 21
268.91576537795731
 31
0.0
  0
ARC
  5
EC1
  8
0
 10
259.72019355704981
 20
236.91576537795731
 30
0.0
 40
6.0
 50
90.0
 51
270.0
  0
LINE
  5
EC2
  8
0
 10
259.72019355704981
 20
242.91576537795731
 30
0.0
 11
338.7201935570497
 21
242.91576537795731
 31
0.0
  0
LINE
  5
EC3
  8
2
 10
259.72019355704981
 20
465.15439437795732
 30
0.0
 11
338.7201935570497
 21
465.15439437795732
 31
0.0
  0
ARC
  5
EC4
  8
2
 10
338.7201935570497
 20
476.2543943779574
 30
0.0
 40
11.1
 50
269.99999600000092
 51
302.72044299999902
  0
ARC
  5
EC5
  8
2
 10
259.72019355704981
 20
476.2543943779574
 30
0.0
 40
11.1
 50
237.27955700000101
 51
270.00000299999772
  0
ARC
  5
EC6
  8
2
 10
259.72019355704981
 20
309.5771353779574
 30
0.0
 40
11.1
 50
89.999997000002296
 51
122.72044299999899
  0
ARC
  5
EC7
  8
2
 10
338.7201935570497
 20
309.5771353779574
 30
0.0
 40
11.1
 50
57.279557000000942
 51
90.00000399999908
  0
LINE
  5
EC8
  8
2
 10
259.72019355704981
 20
320.67713537795743
 30
0.0
 11
338.7201935570497
 21
320.67713537795743
 31
0.0
  0
LINE
  5
EC9
  8
0
 10
246.72019355704981
 20
466.9157653779572
 30
0.0
 11
351.7201935570497
 21
466.9157653779572
 31
0.0
  0
LINE
  5
ECA
  8
0
 10
351.7201935570497
 20
466.9157653779572
 30
0.0
 11
351.7201935570497
 21
318.91576537795731
 31
0.0
  0
LINE
  5
ECB
  8
0
 10
246.72019355704981
 20
318.91576537795731
 30
0.0
 11
351.7201935570497
 21
318.91576537795731
 31
0.0
  0
LINE
  5
ECC
  8
0
 10
246.72019355704981
 20
318.91576537795731
 30
0.0
 11
246.72019355704981
 21
466.9157653779572
 31
0.0
  0
LINE
  5
ECD
  8
0
 10
259.72019355704981
 20
230.91576537795731
 30
0.0
 11
338.7201935570497
 21
230.91576537795731
 31
0.0
  0
LINE
  5
ECE
  8
0
 10
246.72019355704981
 20
268.91576537795731
 30
0.0
 11
246.72019355704981
 21
228.91576537795731
 31
0.0
  0
ARC
  5
ECF
  8
0
 10
338.7201935570497
 20
236.91576537795731
 30
0.0
 40
6.0
 50
270.0
 51
90.0
  0
LINE
  5
ED0
  8
0
 10
351.7201935570497
 20
228.91576537795731
 30
0.0
 11
351.7201935570497
 21
268.91576537795731
 31
0.0
  0
LINE
  5
ED1
  8
0
 10
246.72019355704981
 20
228.91576537795731
 30
0.0
 11
351.7201935570497
 21
228.91576537795731
 31
0.0
  0
LINE
  5
ED2
  8
0
 10
196.72019355704981
 20
228.91576537795731
 30
0.0
 11
48.720193557049811
 21
228.91576537795731
 31
0.0
  0
ARC
  5
ED3
  8
2
 10
39.381564557049728
 20
236.91576537795731
 30
0.0
 40
11.1
 50
327.27955699999927
 51
32.720443000000706
  0
ARC
  5
ED4
  8
2
 10
206.05882355704981
 20
236.91576537795731
 30
0.0
 40
11.1
 50
147.2795569999993
 51
212.7204430000007
  0
LINE
  5
F02
  8
5
 10
571.72917377025362
 20
245.9157653779574
 30
0.0
 11
571.7291737702534
 21
228.91576537795731
 31
0.0
  0
LINE
  5
F03
  8
5
 10
589.72917377025351
 20
245.9157653779574
 30
0.0
 11
571.72917377025362
 21
245.9157653779574
 31
0.0
  0
LINE
  5
F04
  8
5
 10
589.72917377025351
 20
245.9157653779574
 30
0.0
 11
589.72917377025351
 21
228.91576537795731
 31
0.0
  0
LINE
  5
F05
  8
5
 10
659.7291737702534
 20
245.9157653779574
 30
0.0
 11
641.72917377025362
 21
245.9157653779574
 31
0.0
  0
LINE
  5
F06
  8
5
 10
641.72917377025362
 20
245.9157653779574
 30
0.0
 11
641.72917377025351
 21
228.91576537795731
 31
0.0
  0
LINE
  5
F07
  8
5
 10
659.7291737702534
 20
245.9157653779574
 30
0.0
 11
659.7291737702534
 21
228.91576537795731
 31
0.0
  0
LINE
  5
F24
  8
5
 10
334.2201935570497
 20
413.91576537795731
 30
0.0
 11
264.22019355704981
 21
413.91576537795731
 31
0.0
  0
LINE
  5
F25
  8
5
 10
334.22019355704981
 20
371.91576537795743
 30
0.0
 11
264.2201935570497
 21
371.91576537795731
 31
0.0
  0
LINE
  5
F26
  8
5
 10
143.72019355704981
 20
245.91576537795731
 30
0.0
 11
143.72019355704981
 21
228.91576537795731
 31
0.0
  0
LINE
  5
F28
  8
5
 10
101.7201935570498
 20
245.9157653779574
 30
0.0
 11
101.7201935570498
 21
228.91576537795731
 31
0.0
  0
LINE
  5
F29
  8
5
 10
847.23815398345732
 20
371.91576537795692
 30
0.0
 11
777.2381539834571
 21
371.91576537795692
 31
0.0
  0
LINE
  5
F2A
  8
5
 10
847.23815398345721
 20
413.9157653779568
 30
0.0
 11
777.23815398345732
 21
413.9157653779568
 31
0.0
  0
LINE
  5
F2B
  8
5
 10
847.23815398345721
 20
413.9157653779568
 30
0.0
 11
847.23815398345732
 21
371.91576537795692
 31
0.0
  0
LINE
  5
F2C
  8
5
 10
777.23815398345732
 20
413.9157653779568
 30
0.0
 11
777.23815398345732
 21
371.91576537795692
 31
0.0
  0
LINE
  5
F2D
  8
5
 10
847.23815398345732
 20
245.91576537795731
 30
0.0
 11
847.23815398345732
 21
228.91576537795731
 31
0.0
  0
LINE
  5
F2E
  8
5
 10
777.23815398345732
 20
245.91576537795731
 30
0.0
 11
777.23815398345732
 21
228.91576537795731
 31
0.0
  0
LINE
  5
F2F
  8
5
 10
777.2381539834571
 20
245.91576537795731
 30
0.0
 11
847.23815398345732
 21
245.91576537795731
 31
0.0
  0
LINE
  5
F30
  8
5
 10
1009.738153983457
 20
245.91576537795731
 30
0.0
 11
967.73815398345721
 21
245.91576537795731
 31
0.0
  0
LINE
  5
F31
  8
5
 10
967.73815398345721
 20
245.9157653779574
 30
0.0
 11
967.73815398345721
 21
228.91576537795731
 31
0.0
  0
LINE
  5
F32
  8
5
 10
1009.738153983457
 20
245.91576537795731
 30
0.0
 11
1009.738153983457
 21
228.91576537795731
 31
0.0
  0
CIRCLE
  5
F33
  8
5
 10
456.72917377025351
 20
427.91576537795731
 30
0.0
 40
9.0
  0
CIRCLE
  5
F34
  8
5
 10
456.72917377025351
 20
357.91576537795731
 30
0.0
 40
9.0
  0
TEXT
  5
FDA
  8
0
 62
     3
 10
0.0
 20
0.0
 30
0.0
 40
10.0
  1
SQL1030-DS15
  7
STANDARD1
  0
ENDSEC
  0
EOF
