  0
SECTION
  2
HEADER
  9
$ACADVER
  1
AC1009
  9
$INSBASE
 10
0.0
 20
0.0
 30
0.0
  9
$EXTMIN
 10
0.0
 20
-2.960436562073669
 30
0.0
  9
$EXTMAX
 10
795.88509380187077
 20
507.49556118213462
 30
0.0
  9
$LIMMIN
 10
0.0
 20
0.0
  9
$LIMMAX
 10
375.0
 20
270.0
  9
$ORTHOMODE
 70
     0
  9
$REGENMODE
 70
     1
  9
$FILLMODE
 70
     1
  9
$QTEXTMODE
 70
     0
  9
$MIRRTEXT
 70
     0
  9
$DRAGMODE
 70
     2
  9
$LTSCALE
 40
10.0
  9
$OSMODE
 70
    55
  9
$ATTMODE
 70
     1
  9
$TEXTSIZE
 40
4.000000000000048
  9
$TRACEWID
 40
0.05
  9
$TEXTSTYLE
  7
STANDARD
  9
$CLAYER
  8
0
  9
$CELTYPE
  6
BYLAYER
  9
$CECOLOR
 62
   256
  9
$DIMSCALE
 40
1.0
  9
$DIMASZ
 40
3.0
  9
$DIMEXO
 40
2.0
  9
$DIMDLI
 40
0.38
  9
$DIMRND
 40
0.0
  9
$DIMDLE
 40
0.0
  9
$DIMEXE
 40
2.0
  9
$DIMTP
 40
0.0
  9
$DIMTM
 40
0.0
  9
$DIMTXT
 40
3.2000000000000002
  9
$DIMCEN
 40
0.0
  9
$DIMTSZ
 40
0.0
  9
$DIMTOL
 70
     0
  9
$DIMLIM
 70
     0
  9
$DIMTIH
 70
     0
  9
$DIMTOH
 70
     0
  9
$DIMSE1
 70
     0
  9
$DIMSE2
 70
     0
  9
$DIMTAD
 70
     1
  9
$DIMZIN
 70
     0
  9
$DIMBLK
  1

  9
$DIMASO
 70
     0
  9
$DIMSHO
 70
     0
  9
$DIMPOST
  1

  9
$DIMAPOST
  1

  9
$DIMALT
 70
     0
  9
$DIMALTD
 70
     2
  9
$DIMALTF
 40
25.399999999999999
  9
$DIMLFAC
 40
1.0
  9
$DIMTOFL
 70
     0
  9
$DIMTVP
 40
1.6000000000000001
  9
$DIMTIX
 70
     1
  9
$DIMSOXD
 70
     0
  9
$DIMSAH
 70
     0
  9
$DIMBLK1
  1

  9
$DIMBLK2
  1

  9
$DIMSTYLE
  2
STANDARD
  9
$DIMCLRD
 70
     4
  9
$DIMCLRE
 70
     4
  9
$DIMCLRT
 70
     4
  9
$DIMTFAC
 40
1.0
  9
$DIMGAP
 40
0.09
  9
$LUNITS
 70
     2
  9
$LUPREC
 70
     1
  9
$SKETCHINC
 40
0.1
  9
$FILLETRAD
 40
0.0
  9
$AUNITS
 70
     0
  9
$AUPREC
 70
     0
  9
$MENU
  1
E:\r13\win\SUPPORT\ACAD
  9
$ELEVATION
 40
0.0
  9
$PELEVATION
 40
0.0
  9
$THICKNESS
 40
0.0
  9
$LIMCHECK
 70
     0
  9
$BLIPMODE
 70
     0
  9
$CHAMFERA
 40
1.1999999999999991
  9
$CHAMFERB
 40
1.1999999999999991
  9
$SKPOLY
 70
     0
  9
$TDCREATE
 40
2450158.583426042
  9
$TDUPDATE
 40
2456598.5552618289
  9
$TDINDWG
 40
0.1192639583
  9
$TDUSRTIMER
 40
0.1192639583
  9
$USRTIMER
 70
     1
  9
$ANGBASE
 50
0.0
  9
$ANGDIR
 70
     0
  9
$PDMODE
 70
     0
  9
$PDSIZE
 40
0.0
  9
$PLINEWID
 40
0.0
  9
$COORDS
 70
     1
  9
$SPLFRAME
 70
     0
  9
$SPLINETYPE
 70
     6
  9
$SPLINESEGS
 70
     8
  9
$ATTDIA
 70
     0
  9
$ATTREQ
 70
     1
  9
$HANDLING
 70
     1
  9
$HANDSEED
  5
B5C
  9
$SURFTAB1
 70
     6
  9
$SURFTAB2
 70
     6
  9
$SURFTYPE
 70
     6
  9
$SURFU
 70
     6
  9
$SURFV
 70
     6
  9
$UCSNAME
  2

  9
$UCSORG
 10
0.0
 20
0.0
 30
0.0
  9
$UCSXDIR
 10
1.0
 20
0.0
 30
0.0
  9
$UCSYDIR
 10
0.0
 20
1.0
 30
0.0
  9
$PUCSNAME
  2

  9
$PUCSORG
 10
0.0
 20
0.0
 30
0.0
  9
$PUCSXDIR
 10
1.0
 20
0.0
 30
0.0
  9
$PUCSYDIR
 10
0.0
 20
1.0
 30
0.0
  9
$USERI1
 70
     0
  9
$USERI2
 70
     1
  9
$USERI3
 70
     0
  9
$USERI4
 70
     0
  9
$USERI5
 70
     0
  9
$USERR1
 40
0.0
  9
$USERR2
 40
0.0
  9
$USERR3
 40
0.0
  9
$USERR4
 40
0.0
  9
$USERR5
 40
0.0
  9
$WORLDVIEW
 70
     1
  9
$SHADEDGE
 70
     3
  9
$SHADEDIF
 70
    70
  9
$TILEMODE
 70
     1
  9
$MAXACTVP
 70
    16
  9
$PLIMCHECK
 70
     0
  9
$PEXTMIN
 10
1.0000000000000000E+020
 20
1.0000000000000000E+020
 30
1.0000000000000000E+020
  9
$PEXTMAX
 10
-1.0000000000000000E+020
 20
-1.0000000000000000E+020
 30
-1.0000000000000000E+020
  9
$PLIMMIN
 10
0.0
 20
0.0
  9
$PLIMMAX
 10
12.0
 20
9.0
  9
$UNITMODE
 70
     0
  9
$VISRETAIN
 70
     0
  9
$PLINEGEN
 70
     0
  9
$PSLTSCALE
 70
     0
  0
ENDSEC
  0
SECTION
  2
TABLES
  0
TABLE
  2
VPORT
 70
     1
  0
VPORT
  2
*ACTIVE
 70
     0
 10
0.0
 20
0.0
 11
1.0
 21
1.0
 12
397.94254875399997
 22
371.08408867850892
 13
0.0
 23
0.0
 14
10.0
 24
10.0
 15
10.0
 25
10.0
 16
0.0
 26
0.0
 36
1.0
 17
0.0
 27
0.0
 37
0.0
 40
754.74904975441405
 41
1.7807262569832401
 42
50.0
 43
0.0
 44
0.0
 50
0.0
 51
0.0
 71
     0
 72
   500
 73
     1
 74
     0
 75
     0
 76
     0
 77
     0
 78
     2
  0
ENDTAB
  0
TABLE
  2
LTYPE
 70
     4
  0
LTYPE
  2
CONTINUOUS
 70
     0
  3
Solid Line
 72
    65
 73
     0
 40
0.0
  0
LTYPE
  2
CENTER
 70
     0
  3
____ _ ____ _ ____ _ ____ _ ____ _ ____ _ ____
 72
    65
 73
     4
 40
2.0
 49
1.25
 49
-0.25
 49
0.25
 49
-0.25
  0
LTYPE
  2
HIDDEN
 70
     0
  3
_ _ _ _ _ _ _ _ _ _ _ _ _ _ _ _ _ _ _ _ _ _ _
 72
    65
 73
     2
 40
0.375
 49
0.25
 49
-0.125
  0
LTYPE
  2
PHANTOM2
 70
     0
  3
___ _ _ ___ _ _ ___ _ _ ___ _ _
 72
    65
 73
     6
 40
1.25
 49
0.625
 49
-0.125
 49
0.125
 49
-0.125
 49
0.125
 49
-0.125
  0
ENDTAB
  0
TABLE
  2
LAYER
 70
     3
  0
LAYER
  2
0
 70
     0
 62
     7
  6
CONTINUOUS
  0
LAYER
  2
1
 70
     0
 62
     1
  6
CENTER
  0
LAYER
  2
2
 70
     0
 62
     2
  6
HIDDEN
  0
ENDTAB
  0
TABLE
  2
STYLE
 70
     2
  0
STYLE
  2
STANDARD
 70
     0
 40
0.0
 41
1.0
 50
0.0
 71
     0
 42
4.000000000000048
  3
SIMPLEX
  4
BIGFONT
  0
STYLE
  2
STANDARD1
 70
     0
 40
0.0
 41
1.0
 50
0.0
 71
     0
 42
3.0
  3
txt
  4

  0
ENDTAB
  0
TABLE
  2
VIEW
 70
     1
  0
VIEW
  2
ALL
 70
     0
 40
179.5384664489153
 10
146.94997169852391
 20
89.769233224457665
 41
0.0
 11
0.0
 21
0.0
 31
1.0
 12
0.0
 22
0.0
 32
0.0
 42
50.0
 43
0.0
 44
0.0
 50
0.0
 71
     0
  0
ENDTAB
  0
TABLE
  2
UCS
 70
     0
  0
ENDTAB
  0
TABLE
  2
APPID
 70
     3
  0
APPID
  2
ACAD
 70
     0
  0
APPID
  2
ACAD_MLEADERVER
 70
     0
  0
APPID
  2
ACAD_NAV_VCDISPLAY
 70
     0
  0
ENDTAB
  0
TABLE
  2
DIMSTYLE
 70
     1
  0
DIMSTYLE
  2
STANDARD
 70
     0
  3

  4

  5

  6

  7

 40
1.0
 41
0.18
 42
0.0625
 43
0.38
 44
0.18
 45
0.0
 46
0.0
 47
0.0
 48
0.0
140
0.18
141
0.09
142
0.0
143
25.399999999999999
144
1.0
145
0.0
146
1.0
147
0.09
 71
     0
 72
     0
 73
     1
 74
     1
 75
     0
 76
     0
 77
     0
 78
     0
170
     0
171
     2
172
     0
173
     0
174
     0
175
     0
176
     0
177
     0
178
     0
  0
ENDTAB
  0
ENDSEC
  0
SECTION
  2
BLOCKS
  0
BLOCK
  8
0
  2
$MODEL_SPACE
 70
     0
 10
0.0
 20
0.0
 30
0.0
  3
$MODEL_SPACE
  1

  0
ENDBLK
  5
332
  8
0
  0
BLOCK
 67
     1
  8
0
  2
$PAPER_SPACE
 70
     0
 10
0.0
 20
0.0
 30
0.0
  3
$PAPER_SPACE
  1

  0
ENDBLK
  5
330
 67
     1
  8
0
  0
ENDSEC
  0
SECTION
  2
ENTITIES
  0
LINE
  5
96B
  8
0
 10
724.88468130187073
 20
285.49556118213468
 30
0.0
 11
725.89211030187073
 21
256.64656618213462
 31
0.0
  0
LINE
  5
96C
  8
0
 10
735.88601830187065
 20
246.99556118213471
 30
0.0
 11
755.8833433018707
 21
246.99556118213471
 31
0.0
  0
ARC
  5
96D
  8
0
 10
794.88426869050875
 20
234.4955611821344
 30
0.0
 40
1.0
 50
270.0
 51
0.0000440000031255
  0
ARC
  5
96E
  8
0
 10
735.88601830187065
 20
256.99556118213468
 30
0.0
 40
10.0
 50
181.9999999999971
 51
270.0
  0
LINE
  5
96F
  8
0
 10
696.88468130187073
 20
288.49556118213468
 30
0.0
 11
794.88468130187073
 21
288.49556118213468
 31
0.0
  0
ARC
  5
970
  8
0
 10
794.88509380187088
 20
284.49556118213468
 30
0.0
 40
1.0
 50
0.0
 51
90.0
  0
LINE
  5
971
  8
0
 10
795.68468130187068
 20
285.49556118213468
 30
0.0
 11
795.68468130187068
 21
288.49556118213468
 31
0.0
  0
LINE
  5
972
  8
0
 10
795.68468130187068
 20
288.49556118213468
 30
0.0
 11
696.08468130187055
 21
288.49556118213468
 31
0.0
  0
LINE
  5
973
  8
0
 10
696.08468130187055
 20
288.49556118213468
 30
0.0
 11
696.08468130187055
 21
285.49556118213468
 31
0.0
  0
LINE
  5
974
  8
0
 10
795.38468130187073
 20
288.49556118213468
 30
0.0
 11
795.38468130187073
 21
328.49556118213468
 31
0.0
  0
LINE
  5
975
  8
0
 10
795.38468130187073
 20
328.49556118213468
 30
0.0
 11
696.38468130187073
 21
328.49556118213468
 31
0.0
  0
LINE
  5
976
  8
0
 10
696.38468130187073
 20
328.49556118213468
 30
0.0
 11
696.38468130187073
 21
288.49556118213468
 31
0.0
  0
ARC
  5
977
  8
0
 10
755.8833433018707
 20
256.99556118213468
 30
0.0
 40
10.0
 50
270.0
 51
358.00000000000279
  0
LINE
  5
978
  8
0
 10
766.88468130187073
 20
285.49556118213468
 30
0.0
 11
765.87725230187073
 21
256.64656618213462
 31
0.0
  0
LINE
  5
979
  8
0
 10
696.08468130187055
 20
285.49556118213468
 30
0.0
 11
795.68468130187068
 21
285.49556118213468
 31
0.0
  0
LINE
  5
97A
  8
0
 10
795.88509380187077
 20
284.49556118406878
 30
0.0
 11
795.88426869051011
 21
234.49556195007949
 31
0.0
  0
LINE
  5
97B
  8
1
 10
745.88468130187084
 20
338.49556118213468
 30
0.0
 11
745.88468130187084
 21
223.49556118213471
 31
0.0
  0
ARC
  5
97C
  8
2
 10
687.04605130187076
 20
296.49556118213468
 30
0.0
 40
11.1
 50
327.27955700000138
 51
32.720442999998617
  0
ARC
  5
97D
  8
2
 10
804.72331030187081
 20
296.49556118213468
 30
0.0
 40
11.1
 50
147.27955700000129
 51
212.7204429999986
  0
LINE
  5
97E
  8
0
 10
794.88426869050875
 20
233.49556118213451
 30
0.0
 11
696.88509391323294
 21
233.49556118213471
 31
0.0
  0
LINE
  5
97F
  8
0
 10
695.8842688018708
 20
284.49556118406878
 30
0.0
 11
695.88509391323146
 21
234.49556195007949
 31
0.0
  0
ARC
  5
980
  8
0
 10
696.8842688018708
 20
284.49556118213468
 30
0.0
 40
1.0
 50
90.0
 51
180.0
  0
ARC
  5
981
  8
0
 10
696.88509391323294
 20
234.4955611821344
 30
0.0
 40
1.0
 50
179.99995599999681
 51
270.0
  0
ARC
  5
982
  8
0
 10
156.9147286905087
 20
234.4955611821344
 30
0.0
 40
1.0
 50
270.0
 51
0.0000440000031255
  0
ARC
  5
983
  8
0
 10
156.9155538018708
 20
284.49556118213468
 30
0.0
 40
1.0
 50
0.0
 51
90.0
  0
LINE
  5
984
  8
0
 10
157.9155538018708
 20
284.49556118406878
 30
0.0
 11
157.91472869051
 21
234.49556195007949
 31
0.0
  0
LINE
  5
985
  8
0
 10
58.915553913232863
 20
233.49556118213451
 30
0.0
 11
156.9147286905087
 21
233.49556118213471
 31
0.0
  0
LINE
  5
986
  8
0
 10
227.099911301871
 20
288.49556118213468
 30
0.0
 11
626.89991130187104
 21
288.49556118213468
 31
0.0
  0
ARC
  5
987
  8
0
 10
241.90122030187101
 20
447.99556118213462
 30
0.0
 40
20.300000000000001
 50
137.6446639999981
 51
222.3553360000019
  0
ARC
  5
988
  8
0
 10
625.89991130187093
 20
496.99556118213468
 30
0.0
 40
1.0
 50
30.000000000006999
 51
90.0
  0
ARC
  5
989
  8
0
 10
625.89991130187093
 20
398.99556118213468
 30
0.0
 40
1.0
 50
270.0
 51
330.00000000000762
  0
LINE
  5
98A
  8
0
 10
626.89991130187093
 20
398.99556118213468
 30
0.0
 11
626.89991130187093
 21
496.99556118213468
 31
0.0
  0
ARC
  5
98B
  8
0
 10
227.8999113018709
 20
398.99556118213468
 30
0.0
 40
1.0
 50
209.9999999999925
 51
270.0
  0
LINE
  5
98C
  8
0
 10
227.8999113018709
 20
397.99556118213468
 30
0.0
 11
625.89991130187093
 21
397.99556118213468
 31
0.0
  0
LINE
  5
98D
  8
0
 10
226.8999113018709
 20
496.99556118213468
 30
0.0
 11
226.8999113018709
 21
398.99556118213468
 31
0.0
  0
ARC
  5
98E
  8
0
 10
227.8999113018709
 20
496.99556118213468
 30
0.0
 40
1.0
 50
90.0
 51
149.99999999999221
  0
LINE
  5
98F
  8
0
 10
625.89991130187093
 20
497.99556118213462
 30
0.0
 11
227.8999113018709
 21
497.99556118213462
 31
0.0
  0
LINE
  5
990
  8
0
 10
626.89991130187104
 20
497.49556118213462
 30
0.0
 11
626.89991130187104
 21
398.49556118213468
 31
0.0
  0
LINE
  5
991
  8
0
 10
496.89991130187099
 20
398.49556118213468
 30
0.0
 11
496.89991130187099
 21
497.49556118213462
 31
0.0
  0
LINE
  5
992
  8
0
 10
496.89991130187099
 20
398.49556118213468
 30
0.0
 11
626.89991130187104
 21
398.49556118213468
 31
0.0
  0
LINE
  5
993
  8
0
 10
496.89991130187099
 20
497.49556118213462
 30
0.0
 11
626.89991130187104
 21
497.49556118213462
 31
0.0
  0
LINE
  5
994
  8
2
 10
522.39991130187104
 20
400.25693118213479
 30
0.0
 11
601.39991130187104
 21
400.25693118213479
 31
0.0
  0
ARC
  5
995
  8
2
 10
601.39991130187104
 20
389.156931182135
 30
0.0
 40
11.1
 50
57.279557000000501
 51
90.00000399999908
  0
ARC
  5
996
  8
2
 10
522.39991130187104
 20
389.156931182135
 30
0.0
 40
11.1
 50
89.999997000002296
 51
122.72044299999951
  0
ARC
  5
997
  8
2
 10
522.39991130187104
 20
506.83419018213499
 30
0.0
 40
11.1
 50
237.27955700000041
 51
270.00000299999772
  0
ARC
  5
998
  8
2
 10
601.39991130187104
 20
506.83419018213499
 30
0.0
 40
11.1
 50
269.99999600000092
 51
302.72044299999948
  0
LINE
  5
999
  8
2
 10
522.39991130187104
 20
495.7341901821348
 30
0.0
 11
601.39991130187104
 21
495.7341901821348
 31
0.0
  0
LINE
  5
99A
  8
1
 10
561.89991130187104
 20
507.49556118213462
 30
0.0
 11
561.89991130187104
 21
388.49556118213468
 31
0.0
  0
LINE
  5
99B
  8
0
 10
481.8999113018707
 20
497.49556118213462
 30
0.0
 11
481.8999113018707
 21
398.49556118213468
 31
0.0
  0
LINE
  5
99C
  8
0
 10
371.89991130187082
 20
398.49556118213468
 30
0.0
 11
371.89991130187082
 21
497.49556118213462
 31
0.0
  0
LINE
  5
99D
  8
0
 10
371.89991130187082
 20
497.49556118213462
 30
0.0
 11
481.8999113018707
 21
497.49556118213462
 31
0.0
  0
LINE
  5
99E
  8
0
 10
481.8999113018707
 20
398.49556118213468
 30
0.0
 11
371.89991130187082
 21
398.49556118213468
 31
0.0
  0
ARC
  5
99F
  8
2
 10
425.89991130187082
 20
505.67847018213479
 30
0.0
 40
11.1
 50
227.4933579999967
 51
269.9999780000017
  0
ARC
  5
9A0
  8
2
 10
425.89991130187082
 20
390.3126521821348
 30
0.0
 40
11.1
 50
90.000021999998324
 51
132.5066420000033
  0
LINE
  5
9A1
  8
2
 10
425.89990730187083
 20
401.41265218213471
 30
0.0
 11
427.89991530187081
 21
401.41265218213471
 31
0.0
  0
ARC
  5
9A2
  8
2
 10
427.8999113018707
 20
390.3126521821348
 30
0.0
 40
11.1
 50
47.493357999996682
 51
89.999979999997976
  0
ARC
  5
9A3
  8
2
 10
427.8999113018707
 20
505.67847018213479
 30
0.0
 40
11.1
 50
270.000020000002
 51
312.5066420000033
  0
LINE
  5
9A4
  8
2
 10
425.89990730187083
 20
494.57847018213459
 30
0.0
 11
427.89991530187081
 21
494.57847018213459
 31
0.0
  0
LINE
  5
9A5
  8
1
 10
426.89991130187082
 20
507.49556118213462
 30
0.0
 11
426.89991130187082
 21
388.49556118213468
 31
0.0
  0
CIRCLE
  5
9A6
  8
0
 10
426.89991130187082
 20
412.99556118213468
 30
0.0
 40
4.200000000000216
  0
CIRCLE
  5
9A7
  8
0
 10
426.89991130187082
 20
412.99556118213468
 30
0.0
 40
7.000000000000056
  0
CIRCLE
  5
9A8
  8
0
 10
426.89991130187082
 20
412.99556118213468
 30
0.0
 40
7.9999999999999432
  0
LINE
  5
9A9
  8
1
 10
439.89991130187059
 20
412.99556118213468
 30
0.0
 11
413.89991130187082
 21
412.99556118213468
 31
0.0
  0
LINE
  5
9AA
  8
1
 10
439.89991130187059
 20
482.99556118213462
 30
0.0
 11
413.89991130187082
 21
482.99556118213462
 31
0.0
  0
CIRCLE
  5
9AB
  8
0
 10
426.89991130187082
 20
482.99556118213462
 30
0.0
 40
7.9999999999999432
  0
CIRCLE
  5
9AC
  8
0
 10
426.89991130187082
 20
482.99556118213462
 30
0.0
 40
7.000000000000056
  0
CIRCLE
  5
9AD
  8
0
 10
426.89991130187082
 20
482.99556118213462
 30
0.0
 40
4.200000000000216
  0
LINE
  5
9AE
  8
0
 10
356.89991130187087
 20
497.49556118213462
 30
0.0
 11
356.89991130187087
 21
398.49556118213468
 31
0.0
  0
LINE
  5
9AF
  8
0
 10
226.8999113018709
 20
398.49556118213468
 30
0.0
 11
226.8999113018709
 21
497.49556118213462
 31
0.0
  0
LINE
  5
9B0
  8
0
 10
226.8999113018709
 20
398.49556118213468
 30
0.0
 11
356.89991130187087
 21
398.49556118213468
 31
0.0
  0
LINE
  5
9B1
  8
0
 10
226.8999113018709
 20
497.49556118213462
 30
0.0
 11
356.89991130187087
 21
497.49556118213462
 31
0.0
  0
LINE
  5
9B2
  8
2
 10
252.3999113018709
 20
400.25693118213479
 30
0.0
 11
331.39991130187087
 21
400.25693118213479
 31
0.0
  0
ARC
  5
9B3
  8
2
 10
331.39991130187087
 20
389.156931182135
 30
0.0
 40
11.1
 50
57.279557000000501
 51
90.00000399999908
  0
ARC
  5
9B4
  8
2
 10
252.3999113018709
 20
389.156931182135
 30
0.0
 40
11.1
 50
89.999997000002296
 51
122.72044299999951
  0
ARC
  5
9B5
  8
2
 10
252.3999113018709
 20
506.83419018213499
 30
0.0
 40
11.1
 50
237.27955700000041
 51
270.00000299999772
  0
ARC
  5
9B6
  8
2
 10
331.39991130187087
 20
506.83419018213499
 30
0.0
 40
11.1
 50
269.99999600000092
 51
302.72044299999948
  0
LINE
  5
9B7
  8
2
 10
252.3999113018709
 20
495.7341901821348
 30
0.0
 11
331.39991130187087
 21
495.7341901821348
 31
0.0
  0
LINE
  5
9B8
  8
1
 10
291.89991130187087
 20
507.49556118213462
 30
0.0
 11
291.89991130187087
 21
388.49556118213468
 31
0.0
  0
LINE
  5
9B9
  8
1
 10
636.89991130187093
 20
447.99556118213462
 30
0.0
 11
216.8999113018709
 21
447.99556118213462
 31
0.0
  0
LINE
  5
9BA
  8
1
 10
561.89991130187104
 20
338.49556118213468
 30
0.0
 11
561.89991130187104
 21
278.49556118213468
 31
0.0
  0
LINE
  5
9BB
  8
0
 10
626.89991130187104
 20
288.49556118213468
 30
0.0
 11
626.89991130187104
 21
328.49556118213468
 31
0.0
  0
LINE
  5
9BC
  8
0
 10
522.39991130187104
 20
290.49556118213468
 30
0.0
 11
601.39991130187104
 21
290.49556118213468
 31
0.0
  0
ARC
  5
9BD
  8
0
 10
601.39991130187104
 20
296.49556118213468
 30
0.0
 40
6.0
 50
270.0
 51
90.0
  0
ARC
  5
9BE
  8
0
 10
522.39991130187104
 20
296.49556118213468
 30
0.0
 40
6.0
 50
90.0
 51
270.0
  0
LINE
  5
9BF
  8
0
 10
522.39991130187104
 20
302.49556118213468
 30
0.0
 11
601.39991130187104
 21
302.49556118213468
 31
0.0
  0
LINE
  5
9C0
  8
0
 10
496.89991130187099
 20
288.49556118213468
 30
0.0
 11
626.89991130187104
 21
288.49556118213468
 31
0.0
  0
LINE
  5
9C1
  8
0
 10
626.89991130187104
 20
328.49556118213468
 30
0.0
 11
496.89991130187099
 21
328.49556118213468
 31
0.0
  0
LINE
  5
9C2
  8
0
 10
496.89991130187099
 20
328.49556118213468
 30
0.0
 11
496.89991130187099
 21
288.49556118213468
 31
0.0
  0
LINE
  5
9C3
  8
0
 10
371.89991130187082
 20
288.49556118213468
 30
0.0
 11
371.89991130187082
 21
328.49556118213468
 31
0.0
  0
LINE
  5
9C4
  8
0
 10
481.8999113018707
 20
288.49556118213468
 30
0.0
 11
371.89991130187082
 21
288.49556118213468
 31
0.0
  0
LINE
  5
9C5
  8
0
 10
481.8999113018707
 20
328.49556118213468
 30
0.0
 11
481.8999113018707
 21
288.49556118213468
 31
0.0
  0
ARC
  5
9C6
  8
0
 10
427.8999113018707
 20
297.99556118213468
 30
0.0
 40
7.5
 50
270.0
 51
90.0
  0
LINE
  5
9C7
  8
0
 10
371.89991130187082
 20
328.49556118213468
 30
0.0
 11
481.8999113018707
 21
328.49556118213468
 31
0.0
  0
LINE
  5
9C8
  8
0
 10
427.8999113018707
 20
305.49556118213468
 30
0.0
 11
425.89991130187082
 21
305.49556118213468
 31
0.0
  0
LINE
  5
9C9
  8
0
 10
427.8999113018707
 20
290.49556118213468
 30
0.0
 11
425.89991130187082
 21
290.49556118213468
 31
0.0
  0
ARC
  5
9CA
  8
0
 10
425.89991130187082
 20
297.99556118213468
 30
0.0
 40
7.5
 50
90.0
 51
270.0
  0
LINE
  5
9CB
  8
0
 10
226.8999113018709
 20
328.49556118213468
 30
0.0
 11
226.8999113018709
 21
288.49556118213468
 31
0.0
  0
LINE
  5
9CC
  8
0
 10
356.89991130187087
 20
328.49556118213468
 30
0.0
 11
226.8999113018709
 21
328.49556118213468
 31
0.0
  0
LINE
  5
9CD
  8
0
 10
226.8999113018709
 20
288.49556118213468
 30
0.0
 11
356.89991130187087
 21
288.49556118213468
 31
0.0
  0
LINE
  5
9CE
  8
0
 10
252.3999113018709
 20
302.49556118213468
 30
0.0
 11
331.39991130187087
 21
302.49556118213468
 31
0.0
  0
ARC
  5
9CF
  8
0
 10
252.3999113018709
 20
296.49556118213468
 30
0.0
 40
6.0
 50
90.0
 51
270.0
  0
ARC
  5
9D0
  8
0
 10
331.39991130187087
 20
296.49556118213468
 30
0.0
 40
6.0
 50
270.0
 51
90.0
  0
LINE
  5
9D1
  8
0
 10
252.3999113018709
 20
290.49556118213468
 30
0.0
 11
331.39991130187087
 21
290.49556118213468
 31
0.0
  0
LINE
  5
9D2
  8
0
 10
356.89991130187087
 20
288.49556118213468
 30
0.0
 11
356.89991130187087
 21
328.49556118213468
 31
0.0
  0
LINE
  5
9D3
  8
1
 10
291.89991130187087
 20
338.49556118213468
 30
0.0
 11
291.89991130187087
 21
278.49556118213468
 31
0.0
  0
LINE
  5
9D4
  8
1
 10
551.89991130187104
 20
102.6955611821348
 30
0.0
 11
551.89991130187104
 21
124.6955611821348
 31
0.0
  0
CIRCLE
  5
9D5
  8
0
 10
551.89991130187104
 20
113.6955611821348
 30
0.0
 40
6.0
  0
CIRCLE
  5
9D6
  8
0
 10
426.89991130187082
 20
148.6955611821347
 30
0.0
 40
6.0
  0
CIRCLE
  5
9D7
  8
0
 10
426.89991130187087
 20
78.695561182134725
 30
0.0
 40
6.0
  0
CIRCLE
  5
9D8
  8
0
 10
301.89991130187082
 20
113.6955611821347
 30
0.0
 40
6.0
  0
ARC
  5
9D9
  8
2
 10
49.0765123018707
 20
296.49556118213468
 30
0.0
 40
11.1
 50
327.27955700000138
 51
32.720442999998617
  0
ARC
  5
9DA
  8
2
 10
166.7537713018707
 20
296.49556118213468
 30
0.0
 40
11.1
 50
147.27955700000129
 51
212.7204429999986
  0
LINE
  5
9DB
  8
1
 10
107.9151413018708
 20
338.49556118213468
 30
0.0
 11
107.9151413018708
 21
223.49556118213471
 31
0.0
  0
LINE
  5
9DC
  8
1
 10
426.89991130187082
 20
338.49556118213468
 30
0.0
 11
426.89991130187082
 21
223.49556118213471
 31
0.0
  0
LINE
  5
9DD
  8
1
 10
301.89991130187082
 20
102.6955611821347
 30
0.0
 11
301.89991130187082
 21
124.6955611821347
 31
0.0
  0
LINE
  5
9DE
  8
1
 10
351.89991130187082
 20
98.695561182134725
 30
0.0
 11
351.89991130187082
 21
128.6955611821347
 31
0.0
  0
LINE
  5
9DF
  8
1
 10
437.89991130187087
 20
78.695561182134725
 30
0.0
 11
415.89991130187087
 21
78.695561182134725
 31
0.0
  0
LINE
  5
9E0
  8
1
 10
501.89991130187087
 20
98.695561182134725
 30
0.0
 11
501.89991130187087
 21
128.6955611821347
 31
0.0
  0
LINE
  5
9E1
  8
1
 10
437.89991130187082
 20
148.6955611821347
 30
0.0
 11
415.8999113018707
 21
148.6955611821347
 31
0.0
  0
LINE
  5
9E2
  8
1
 10
426.89991130187082
 20
173.49556118213459
 30
0.0
 11
426.89991130187087
 21
53.895561182134657
 31
0.0
  0
LINE
  5
9E3
  8
1
 10
216.89991130187079
 20
113.6955611821347
 30
0.0
 11
636.89991130187082
 21
113.6955611821347
 31
0.0
  0
ARC
  5
9E4
  8
0
 10
241.90122030187101
 20
264.29556118213458
 30
0.0
 40
20.300000000000001
 50
137.6446639999981
 51
222.3553360000019
  0
ARC
  5
9E5
  8
0
 10
625.89991130187093
 20
162.6955611821347
 30
0.0
 40
1.0
 50
0.0
 51
90.0
  0
ARC
  5
9E6
  8
0
 10
625.89991130187104
 20
284.49556118213468
 30
0.0
 40
1.0
 50
359.99996500000299
 51
89.999956000000125
  0
LINE
  5
9E7
  8
0
 10
626.89991130187093
 20
64.695561182134611
 30
0.0
 11
626.89991130187093
 21
162.6955611821347
 31
0.0
  0
ARC
  5
9E8
  8
0
 10
625.89991130187093
 20
64.695561182134611
 30
0.0
 40
1.0
 50
270.0
 51
0.0
  0
LINE
  5
9E9
  8
0
 10
227.8999113018709
 20
63.695561182134611
 30
0.0
 11
625.89991130187093
 21
63.695561182134611
 31
0.0
  0
LINE
  5
9EA
  8
0
 10
625.89991130187093
 20
163.6955611821347
 30
0.0
 11
227.8999113018709
 21
163.6955611821347
 31
0.0
  0
ARC
  5
9EB
  8
0
 10
227.8999113018709
 20
64.695561182134611
 30
0.0
 40
1.0
 50
180.0
 51
270.0
  0
ARC
  5
9EC
  8
0
 10
227.8999113018709
 20
162.6955611821347
 30
0.0
 40
1.0
 50
90.0
 51
180.0
  0
LINE
  5
9ED
  8
0
 10
226.8999113018709
 20
162.6955611821347
 30
0.0
 11
226.8999113018709
 21
64.695561182134611
 31
0.0
  0
LINE
  5
9EE
  8
0
 10
57.91472880187078
 20
284.49556118406878
 30
0.0
 11
57.915553913231541
 21
234.49556195007949
 31
0.0
  0
LINE
  5
9EF
  8
0
 10
157.71514130187089
 20
285.49556118213468
 30
0.0
 11
58.115141301870842
 21
285.49556118213468
 31
0.0
  0
LINE
  5
9F0
  8
0
 10
626.69991130187111
 20
285.49556118213479
 30
0.0
 11
227.099911301871
 21
285.49556118213468
 31
0.0
  0
ARC
  5
9F1
  8
0
 10
227.8999113018709
 20
284.49556118213468
 30
0.0
 40
1.0
 50
90.000043000000105
 51
180.0
  0
LINE
  5
9F2
  8
0
 10
626.699911301871
 20
288.49556118213468
 30
0.0
 11
626.699911301871
 21
285.49556118213468
 31
0.0
  0
LINE
  5
9F3
  8
0
 10
227.099911301871
 20
285.49556118213468
 30
0.0
 11
227.099911301871
 21
288.49556118213468
 31
0.0
  0
CIRCLE
  5
9F4
  8
0
 10
501.89991130187087
 20
113.6955611821347
 30
0.0
 40
6.75
  0
LINE
  5
9F5
  8
0
 10
227.8999113018709
 20
233.49556118213471
 30
0.0
 11
625.89991130187104
 21
233.49556118213471
 31
0.0
  0
CIRCLE
  5
9F6
  8
2
 10
501.89991130187087
 20
113.6955611821347
 30
0.0
 40
10.0
  0
CIRCLE
  5
9F7
  8
2
 10
351.89991130187099
 20
113.6955611821347
 30
0.0
 40
10.0
  0
CIRCLE
  5
9F8
  8
0
 10
351.89991130187099
 20
113.6955611821347
 30
0.0
 40
6.75
  0
LINE
  5
9F9
  8
0
 10
86.915141301870904
 20
285.49556118213468
 30
0.0
 11
87.922570301870905
 21
256.64656618213462
 31
0.0
  0
ARC
  5
9FA
  8
0
 10
97.16514030187092
 20
281.34556118213459
 30
0.0
 40
2.25
 50
90.0
 51
270.0
  0
LINE
  5
9FB
  8
0
 10
97.16514030187092
 20
279.09556118213459
 30
0.0
 11
118.66514030187091
 21
279.09556118213459
 31
0.0
  0
ARC
  5
9FC
  8
0
 10
97.916479301870822
 20
256.99556118213468
 30
0.0
 40
10.0
 50
181.9999999999971
 51
270.0
  0
LINE
  5
9FD
  8
0
 10
157.4151413018709
 20
328.49556118213468
 30
0.0
 11
157.4151413018709
 21
288.49556118213468
 31
0.0
  0
LINE
  5
9FE
  8
0
 10
58.415141301870896
 20
328.49556118213468
 30
0.0
 11
157.4151413018709
 21
328.49556118213468
 31
0.0
  0
LINE
  5
9FF
  8
0
 10
58.415141301870896
 20
288.49556118213468
 30
0.0
 11
58.415141301870896
 21
328.49556118213468
 31
0.0
  0
LINE
  5
A00
  8
0
 10
157.71514130187089
 20
288.49556118213468
 30
0.0
 11
157.71514130187089
 21
285.49556118213468
 31
0.0
  0
LINE
  5
A01
  8
0
 10
58.115141301870842
 20
288.49556118213468
 30
0.0
 11
157.71514130187089
 21
288.49556118213468
 31
0.0
  0
ARC
  5
A02
  8
0
 10
625.89991130187104
 20
234.49556118213471
 30
0.0
 40
1.0
 50
269.99995600000011
 51
0.0
  0
LINE
  5
A03
  8
0
 10
626.89991130187104
 20
234.49556118213471
 30
0.0
 11
626.89991130187104
 21
284.49556018213462
 31
0.0
  0
LINE
  5
A04
  8
0
 10
226.8999113018709
 20
284.49556118213468
 30
0.0
 11
226.8999113018709
 21
234.49556118213471
 31
0.0
  0
ARC
  5
A05
  8
0
 10
227.8999113018709
 20
234.49556118213471
 30
0.0
 40
1.0
 50
180.0
 51
270.0
  0
ARC
  5
A06
  8
0
 10
242.99991230187089
 20
256.04291418213461
 30
0.0
 40
6.5
 50
90.000021999999944
 51
270.00001599999968
  0
ARC
  5
A07
  8
0
 10
610.79990930187091
 20
256.04291418213461
 30
0.0
 40
6.5
 50
269.99998400000032
 51
89.999978000000084
  0
LINE
  5
A08
  8
0
 10
242.99991430187089
 20
249.54291418213461
 30
0.0
 11
610.79990930187091
 21
249.54291418213461
 31
0.0
  0
LINE
  5
A09
  8
0
 10
610.79990930187091
 20
262.54291418213461
 30
0.0
 11
242.99991030187101
 21
262.54291418213461
 31
0.0
  0
LINE
  5
A0A
  8
0
 10
97.16514030187092
 20
283.59556118213459
 30
0.0
 11
118.66514030187091
 21
283.59556118213459
 31
0.0
  0
LINE
  5
A0B
  8
0
 10
243.4999093018709
 20
267.49556118213468
 30
0.0
 11
610.29991030187091
 21
267.49556118213468
 31
0.0
  0
LINE
  5
A0C
  8
0
 10
610.29991030187091
 20
281.49556118213468
 30
0.0
 11
243.499913301871
 21
281.49556118213468
 31
0.0
  0
ARC
  5
A0D
  8
0
 10
610.29991030187091
 20
274.49556118213468
 30
0.0
 40
7.0
 50
270.00001499999991
 51
90.000018999998971
  0
LINE
  5
A0E
  8
0
 10
58.115141301870842
 20
285.49556118213468
 30
0.0
 11
58.115141301870842
 21
288.49556118213468
 31
0.0
  0
ARC
  5
A0F
  8
0
 10
58.91472880187078
 20
284.49556118213468
 30
0.0
 40
1.0
 50
90.0
 51
180.0
  0
LINE
  5
A10
  8
0
 10
156.9151413018709
 20
288.49556118213468
 30
0.0
 11
58.915141301870896
 21
288.49556118213468
 31
0.0
  0
ARC
  5
A11
  8
0
 10
243.4999113018709
 20
274.49556118213468
 30
0.0
 40
7.0
 50
89.999980999999394
 51
269.99998500000009
  0
ARC
  5
A12
  8
0
 10
117.9138043018708
 20
256.99556118213468
 30
0.0
 40
10.0
 50
270.0
 51
358.00000000000279
  0
ARC
  5
A13
  8
0
 10
58.915553913232877
 20
234.4955611821344
 30
0.0
 40
1.0
 50
179.99995599999681
 51
270.0
  0
CIRCLE
  5
A14
  8
0
 10
107.9151413018709
 20
264.29556118213458
 30
0.0
 40
13.676648999999999
  0
LINE
  5
A15
  8
0
 10
107.9151413018709
 20
274.68148918213473
 30
0.0
 11
107.9151413018709
 21
253.92031418213469
 31
0.0
  0
LINE
  5
A16
  8
0
 10
117.9138043018708
 20
246.99556118213471
 30
0.0
 11
97.916479301870822
 21
246.99556118213471
 31
0.0
  0
LINE
  5
A17
  8
0
 10
128.9151413018709
 20
285.49556118213468
 30
0.0
 11
127.9077123018709
 21
256.64656618213462
 31
0.0
  0
ARC
  5
A18
  8
0
 10
118.66514030187091
 20
281.34556118213459
 30
0.0
 40
2.25
 50
270.0
 51
90.0
  0
TEXT
  5
AC6
  8
0
 62
     3
 10
0.0
 20
0.0
 30
0.0
 40
10.0
  1
SQL1040
  7
STANDARD1
  0
ENDSEC
  0
EOF
