  0
SECTION
  2
HEADER
  9
$ACADVER
  1
AC1009
  9
$INSBASE
 10
0.0
 20
0.0
 30
0.0
  9
$EXTMIN
 10
0.0
 20
-2.960436562073669
 30
0.0
  9
$EXTMAX
 10
1022.416748912118
 20
529.6765225881054
 30
0.0
  9
$LIMMIN
 10
0.0
 20
0.0
  9
$LIMMAX
 10
770.0
 20
540.0
  9
$ORTHOMODE
 70
     0
  9
$REGENMODE
 70
     1
  9
$FILLMODE
 70
     1
  9
$QTEXTMODE
 70
     0
  9
$MIRRTEXT
 70
     0
  9
$DRAGMODE
 70
     2
  9
$LTSCALE
 40
20.0
  9
$OSMODE
 70
    55
  9
$ATTMODE
 70
     1
  9
$TEXTSIZE
 40
4.000000000000048
  9
$TRACEWID
 40
0.05
  9
$TEXTSTYLE
  7
STANDARD
  9
$CLAYER
  8
0
  9
$CELTYPE
  6
BYLAYER
  9
$CECOLOR
 62
   256
  9
$DIMSCALE
 40
2.0
  9
$DIMASZ
 40
3.0
  9
$DIMEXO
 40
2.0
  9
$DIMDLI
 40
0.38
  9
$DIMRND
 40
0.0
  9
$DIMDLE
 40
0.0
  9
$DIMEXE
 40
2.0
  9
$DIMTP
 40
0.0
  9
$DIMTM
 40
0.0
  9
$DIMTXT
 40
3.0
  9
$DIMCEN
 40
0.0
  9
$DIMTSZ
 40
0.0
  9
$DIMTOL
 70
     0
  9
$DIMLIM
 70
     0
  9
$DIMTIH
 70
     0
  9
$DIMTOH
 70
     0
  9
$DIMSE1
 70
     0
  9
$DIMSE2
 70
     0
  9
$DIMTAD
 70
     1
  9
$DIMZIN
 70
     0
  9
$DIMBLK
  1

  9
$DIMASO
 70
     0
  9
$DIMSHO
 70
     0
  9
$DIMPOST
  1

  9
$DIMAPOST
  1

  9
$DIMALT
 70
     0
  9
$DIMALTD
 70
     2
  9
$DIMALTF
 40
25.399999999999999
  9
$DIMLFAC
 40
1.0
  9
$DIMTOFL
 70
     0
  9
$DIMTVP
 40
1.6000000000000001
  9
$DIMTIX
 70
     1
  9
$DIMSOXD
 70
     0
  9
$DIMSAH
 70
     0
  9
$DIMBLK1
  1

  9
$DIMBLK2
  1

  9
$DIMSTYLE
  2
STANDARD
  9
$DIMCLRD
 70
     4
  9
$DIMCLRE
 70
     4
  9
$DIMCLRT
 70
     4
  9
$DIMTFAC
 40
1.0
  9
$DIMGAP
 40
0.09
  9
$LUNITS
 70
     2
  9
$LUPREC
 70
     1
  9
$SKETCHINC
 40
0.1
  9
$FILLETRAD
 40
0.0
  9
$AUNITS
 70
     0
  9
$AUPREC
 70
     0
  9
$MENU
  1
E:\r13\win\SUPPORT\ACAD
  9
$ELEVATION
 40
0.0
  9
$PELEVATION
 40
0.0
  9
$THICKNESS
 40
0.0
  9
$LIMCHECK
 70
     0
  9
$BLIPMODE
 70
     0
  9
$CHAMFERA
 40
1.1999999999999991
  9
$CHAMFERB
 40
1.1999999999999991
  9
$SKPOLY
 70
     0
  9
$TDCREATE
 40
2450158.583426042
  9
$TDUPDATE
 40
2456598.555723507
  9
$TDINDWG
 40
0.2072961921
  9
$TDUSRTIMER
 40
0.2072961921
  9
$USRTIMER
 70
     1
  9
$ANGBASE
 50
0.0
  9
$ANGDIR
 70
     0
  9
$PDMODE
 70
     0
  9
$PDSIZE
 40
0.0
  9
$PLINEWID
 40
0.0
  9
$COORDS
 70
     1
  9
$SPLFRAME
 70
     0
  9
$SPLINETYPE
 70
     6
  9
$SPLINESEGS
 70
     8
  9
$ATTDIA
 70
     0
  9
$ATTREQ
 70
     1
  9
$HANDLING
 70
     1
  9
$HANDSEED
  5
135D
  9
$SURFTAB1
 70
     6
  9
$SURFTAB2
 70
     6
  9
$SURFTYPE
 70
     6
  9
$SURFU
 70
     6
  9
$SURFV
 70
     6
  9
$UCSNAME
  2

  9
$UCSORG
 10
0.0
 20
0.0
 30
0.0
  9
$UCSXDIR
 10
1.0
 20
0.0
 30
0.0
  9
$UCSYDIR
 10
0.0
 20
1.0
 30
0.0
  9
$PUCSNAME
  2

  9
$PUCSORG
 10
0.0
 20
0.0
 30
0.0
  9
$PUCSXDIR
 10
1.0
 20
0.0
 30
0.0
  9
$PUCSYDIR
 10
0.0
 20
1.0
 30
0.0
  9
$USERI1
 70
     3
  9
$USERI2
 70
     1
  9
$USERI3
 70
     0
  9
$USERI4
 70
     0
  9
$USERI5
 70
     0
  9
$USERR1
 40
2.0
  9
$USERR2
 40
3.0
  9
$USERR3
 40
3.0
  9
$USERR4
 40
3.0
  9
$USERR5
 40
10.0
  9
$WORLDVIEW
 70
     1
  9
$SHADEDGE
 70
     3
  9
$SHADEDIF
 70
    70
  9
$TILEMODE
 70
     1
  9
$MAXACTVP
 70
    16
  9
$PLIMCHECK
 70
     0
  9
$PEXTMIN
 10
1.0000000000000000E+020
 20
1.0000000000000000E+020
 30
1.0000000000000000E+020
  9
$PEXTMAX
 10
-1.0000000000000000E+020
 20
-1.0000000000000000E+020
 30
-1.0000000000000000E+020
  9
$PLIMMIN
 10
0.0
 20
0.0
  9
$PLIMMAX
 10
12.0
 20
9.0
  9
$UNITMODE
 70
     0
  9
$VISRETAIN
 70
     0
  9
$PLINEGEN
 70
     0
  9
$PSLTSCALE
 70
     0
  0
ENDSEC
  0
SECTION
  2
TABLES
  0
TABLE
  2
VPORT
 70
     1
  0
VPORT
  2
*ACTIVE
 70
     0
 10
0.0
 20
0.0
 11
1.0
 21
1.0
 12
511.20837683655901
 22
394.89452070385119
 13
0.0
 23
0.0
 14
10.0
 24
10.0
 15
10.0
 25
10.0
 16
0.0
 26
0.0
 36
1.0
 17
0.0
 27
0.0
 37
0.0
 40
802.76084457946263
 41
1.7807262569832401
 42
50.0
 43
0.0
 44
0.0
 50
0.0
 51
0.0
 71
     0
 72
   500
 73
     1
 74
     0
 75
     0
 76
     0
 77
     0
 78
     2
  0
ENDTAB
  0
TABLE
  2
LTYPE
 70
     4
  0
LTYPE
  2
CONTINUOUS
 70
     0
  3
Solid Line
 72
    65
 73
     0
 40
0.0
  0
LTYPE
  2
CENTER
 70
     0
  3
____ _ ____ _ ____ _ ____ _ ____ _ ____ _ ____
 72
    65
 73
     4
 40
2.0
 49
1.25
 49
-0.25
 49
0.25
 49
-0.25
  0
LTYPE
  2
HIDDEN
 70
     0
  3
_ _ _ _ _ _ _ _ _ _ _ _ _ _ _ _ _ _ _ _ _ _ _
 72
    65
 73
     2
 40
0.375
 49
0.25
 49
-0.125
  0
LTYPE
  2
PHANTOM2
 70
     0
  3
Phantom (.5x) ___ _ _ ___ _ _ ___ _ _ ___ _ _
 72
    65
 73
     6
 40
1.25
 49
0.625
 49
-0.125
 49
0.125
 49
-0.125
 49
0.125
 49
-0.125
  0
ENDTAB
  0
TABLE
  2
LAYER
 70
     4
  0
LAYER
  2
0
 70
     0
 62
     7
  6
CONTINUOUS
  0
LAYER
  2
1
 70
     0
 62
     1
  6
CENTER
  0
LAYER
  2
2
 70
     0
 62
     2
  6
HIDDEN
  0
LAYER
  2
5
 70
     0
 62
     3
  6
PHANTOM2
  0
ENDTAB
  0
TABLE
  2
STYLE
 70
     2
  0
STYLE
  2
STANDARD
 70
     0
 40
0.0
 41
1.0
 50
0.0
 71
     0
 42
4.000000000000048
  3
SIMPLEX
  4
BIGFONT
  0
STYLE
  2
STANDARD1
 70
     0
 40
0.0
 41
1.0
 50
0.0
 71
     0
 42
3.0
  3
txt
  4

  0
ENDTAB
  0
TABLE
  2
VIEW
 70
     1
  0
VIEW
  2
ALL
 70
     0
 40
179.5384664489153
 10
146.94997169852391
 20
89.769233224457665
 41
0.0
 11
0.0
 21
0.0
 31
1.0
 12
0.0
 22
0.0
 32
0.0
 42
50.0
 43
0.0
 44
0.0
 50
0.0
 71
     0
  0
ENDTAB
  0
TABLE
  2
UCS
 70
     0
  0
ENDTAB
  0
TABLE
  2
APPID
 70
     3
  0
APPID
  2
ACAD
 70
     0
  0
APPID
  2
ACAD_MLEADERVER
 70
     0
  0
APPID
  2
ACAD_NAV_VCDISPLAY
 70
     0
  0
ENDTAB
  0
TABLE
  2
DIMSTYLE
 70
     1
  0
DIMSTYLE
  2
STANDARD
 70
     0
  3

  4

  5

  6

  7

 40
1.0
 41
0.18
 42
0.0625
 43
0.38
 44
0.18
 45
0.0
 46
0.0
 47
0.0
 48
0.0
140
0.18
141
0.09
142
0.0
143
25.399999999999999
144
1.0
145
0.0
146
1.0
147
0.09
 71
     0
 72
     0
 73
     1
 74
     1
 75
     0
 76
     0
 77
     0
 78
     0
170
     0
171
     2
172
     0
173
     0
174
     0
175
     0
176
     0
177
     0
178
     0
  0
ENDTAB
  0
ENDSEC
  0
SECTION
  2
BLOCKS
  0
BLOCK
  8
0
  2
$MODEL_SPACE
 70
     0
 10
0.0
 20
0.0
 30
0.0
  3
$MODEL_SPACE
  1

  0
ENDBLK
  5
644
  8
0
  0
BLOCK
 67
     1
  8
0
  2
$PAPER_SPACE
 70
     0
 10
0.0
 20
0.0
 30
0.0
  3
$PAPER_SPACE
  1

  0
ENDBLK
  5
642
 67
     1
  8
0
  0
ENDSEC
  0
SECTION
  2
ENTITIES
  0
LINE
  5
FB5
  8
2
 10
205.41674891211889
 20
236.6765225881054
 30
0.0
 11
205.41674891211889
 21
241.6765225881054
 31
0.0
  0
LINE
  5
FB6
  8
1
 10
424.41674891211881
 20
470.67652258810551
 30
0.0
 11
394.41674891211892
 21
470.67652258810551
 31
0.0
  0
LINE
  5
FB7
  8
1
 10
409.41674891211892
 20
485.67652258810563
 30
0.0
 11
409.41674891211892
 21
455.67652258810563
 31
0.0
  0
CIRCLE
  5
FB8
  8
0
 10
409.41674891211892
 20
470.67652258810551
 30
0.0
 40
5.25
  0
CIRCLE
  5
FB9
  8
0
 10
409.41674891211892
 20
370.6765225881054
 30
0.0
 40
5.25
  0
LINE
  5
FBA
  8
1
 10
409.41674891211892
 20
355.6765225881054
 30
0.0
 11
409.41674891211892
 21
385.6765225881054
 31
0.0
  0
LINE
  5
FBB
  8
1
 10
424.41674891211881
 20
370.6765225881054
 30
0.0
 11
394.41674891211892
 21
370.6765225881054
 31
0.0
  0
LINE
  5
FBC
  8
1
 10
409.41674891211892
 20
246.6765225881054
 30
0.0
 11
409.41674891211869
 21
179.6765225881054
 31
0.0
  0
LINE
  5
FBD
  8
1
 10
414.41674891211892
 20
251.6765225881054
 30
0.0
 11
414.41674891211892
 21
174.67652258810551
 31
0.0
  0
LINE
  5
FBE
  8
1
 10
414.41674891211892
 20
529.6765225881054
 30
0.0
 11
414.41674891211892
 21
311.67652258810551
 31
0.0
  0
LINE
  5
FBF
  8
1
 10
504.41674891211892
 20
420.67652258810551
 30
0.0
 11
324.41674891211869
 21
420.67652258810551
 31
0.0
  0
LINE
  5
FC0
  8
0
 10
754.41674891211858
 20
241.6765225881054
 30
0.0
 11
594.41674891211892
 21
241.6765225881054
 31
0.0
  0
LINE
  5
FC1
  8
0
 10
754.41674891211858
 20
191.6765225881054
 30
0.0
 11
754.41674891211858
 21
241.6765225881054
 31
0.0
  0
LINE
  5
FC2
  8
0
 10
754.41674891211858
 20
191.6765225881054
 30
0.0
 11
754.41674891211858
 21
241.6765225881054
 31
0.0
  0
LINE
  5
FC3
  8
0
 10
334.41674891211892
 20
191.6765225881054
 30
0.0
 11
334.41674891211892
 21
241.6765225881054
 31
0.0
  0
LINE
  5
FC4
  8
0
 10
334.41674891211892
 20
191.6765225881054
 30
0.0
 11
334.41674891211892
 21
241.6765225881054
 31
0.0
  0
LINE
  5
FC5
  8
0
 10
494.41674891211892
 20
191.6765225881054
 30
0.0
 11
334.41674891211892
 21
191.6765225881054
 31
0.0
  0
LINE
  5
FC6
  8
0
 10
334.41674891211892
 20
241.6765225881054
 30
0.0
 11
494.41674891211892
 21
241.6765225881054
 31
0.0
  0
LINE
  5
FC7
  8
0
 10
494.41674891211892
 20
241.6765225881054
 30
0.0
 11
494.41674891211892
 21
191.6765225881054
 31
0.0
  0
LINE
  5
FC8
  8
0
 10
494.41674891211892
 20
241.6765225881054
 30
0.0
 11
494.41674891211892
 21
191.6765225881054
 31
0.0
  0
LINE
  5
FC9
  8
0
 10
124.471748912119
 20
185.6765225881054
 30
0.0
 11
124.471748912119
 21
190.27652258810539
 31
0.0
  0
LINE
  5
FCA
  8
0
 10
106.371748912119
 20
185.6765225881054
 30
0.0
 11
106.371748912119
 21
190.27652258810539
 31
0.0
  0
LINE
  5
FCB
  8
0
 10
106.371748912119
 20
190.27652258810539
 30
0.0
 11
106.83362991211899
 21
191.07652258810549
 31
0.0
  0
LINE
  5
FCC
  8
0
 10
107.371748912119
 20
184.6765225881054
 30
0.0
 11
106.371748912119
 21
185.6765225881054
 31
0.0
  0
LINE
  5
FCD
  8
0
 10
123.471748912119
 20
184.6765225881054
 30
0.0
 11
107.371748912119
 21
184.6765225881054
 31
0.0
  0
LINE
  5
FCE
  8
0
 10
106.371748912119
 20
185.6765225881054
 30
0.0
 11
124.471748912119
 21
185.6765225881054
 31
0.0
  0
ARC
  5
FCF
  8
0
 10
106.487218912119
 20
191.27652258810539
 30
0.0
 40
0.4
 50
330.00000000000392
 51
90.0
  0
ARC
  5
FD0
  8
0
 10
124.356278912119
 20
191.27652258810539
 30
0.0
 40
0.4
 50
90.0
 51
209.99999999999611
  0
LINE
  5
FD1
  8
0
 10
124.471748912119
 20
190.27652258810539
 30
0.0
 11
124.0098689121191
 21
191.07652258810549
 31
0.0
  0
LINE
  5
FD2
  8
0
 10
123.471748912119
 20
184.6765225881054
 30
0.0
 11
124.471748912119
 21
185.6765225881054
 31
0.0
  0
ARC
  5
FD3
  8
2
 10
52.675933912119028
 20
201.6765225881054
 30
0.0
 40
15.9
 50
329.79173200000389
 51
30.208267999996039
  0
LINE
  5
FD4
  8
0
 10
66.416748912118905
 20
191.6765225881054
 30
0.0
 11
66.416748912118905
 21
241.6765225881054
 31
0.0
  0
LINE
  5
FD5
  8
0
 10
264.41674891211892
 20
191.6765225881054
 30
0.0
 11
66.416748912118905
 21
191.6765225881054
 31
0.0
  0
LINE
  5
FD6
  8
0
 10
66.416748912118905
 20
241.6765225881054
 30
0.0
 11
264.41674891211892
 21
241.6765225881054
 31
0.0
  0
ARC
  5
FD7
  8
0
 10
624.91674891211869
 20
201.6765225881054
 30
0.0
 40
8.0
 50
90.0
 51
270.0
  0
LINE
  5
FD8
  8
0
 10
624.91674891211869
 20
209.6765225881054
 30
0.0
 11
723.91675191211868
 21
209.6765225881054
 31
0.0
  0
ARC
  5
FD9
  8
0
 10
723.91674891211869
 20
201.6765225881054
 30
0.0
 40
8.0
 50
269.9999849999985
 51
89.999981000005903
  0
LINE
  5
FDA
  8
0
 10
624.91674891211869
 20
193.6765225881054
 30
0.0
 11
723.91674691211892
 21
193.6765225881054
 31
0.0
  0
ARC
  5
FDB
  8
2
 10
624.91674891211869
 20
307.93570758810552
 30
0.0
 40
15.9
 50
89.999994999999487
 51
120.2082680000001
  0
LINE
  5
FDC
  8
2
 10
723.91674791211881
 20
323.83570758810538
 30
0.0
 11
624.91674791211869
 21
323.83570758810538
 31
0.0
  0
ARC
  5
FDD
  8
2
 10
723.91674891211869
 20
307.93570758810552
 30
0.0
 40
15.9
 50
59.791731999999918
 51
90.000004000005603
  0
ARC
  5
FDE
  8
2
 10
723.91674891211869
 20
533.4173375881054
 30
0.0
 40
15.9
 50
269.99999599999438
 51
300.20826800000009
  0
LINE
  5
FDF
  8
2
 10
723.91674791211881
 20
517.51733758810542
 30
0.0
 11
624.91674791211869
 21
517.51733758810542
 31
0.0
  0
ARC
  5
FE0
  8
2
 10
624.91674891211869
 20
533.4173375881054
 30
0.0
 40
15.9
 50
239.79173199999991
 51
270.0000050000005
  0
LINE
  5
FE1
  8
0
 10
754.41674891211858
 20
519.67652258810551
 30
0.0
 11
754.41674891211858
 21
321.6765225881054
 31
0.0
  0
LINE
  5
FE2
  8
0
 10
594.41674891211892
 20
519.67652258810551
 30
0.0
 11
754.41674891211858
 21
519.67652258810551
 31
0.0
  0
LINE
  5
FE3
  8
0
 10
754.41674891211858
 20
321.6765225881054
 30
0.0
 11
594.41674891211892
 21
321.6765225881054
 31
0.0
  0
LINE
  5
FE4
  8
0
 10
594.41674891211892
 20
321.6765225881054
 30
0.0
 11
594.41674891211892
 21
519.67652258810551
 31
0.0
  0
LINE
  5
FE5
  8
0
 10
334.41674891211892
 20
519.67652258810551
 30
0.0
 11
334.41674891211892
 21
321.6765225881054
 31
0.0
  0
LINE
  5
FE6
  8
0
 10
334.41674891211892
 20
321.6765225881054
 30
0.0
 11
494.41674891211892
 21
321.6765225881054
 31
0.0
  0
LINE
  5
FE7
  8
0
 10
494.41674891211892
 20
519.67652258810551
 30
0.0
 11
334.41674891211892
 21
519.67652258810551
 31
0.0
  0
LINE
  5
FE8
  8
0
 10
494.41674891211892
 20
321.6765225881054
 30
0.0
 11
494.41674891211892
 21
519.67652258810551
 31
0.0
  0
LINE
  5
FE9
  8
0
 10
594.41674891211892
 20
241.6765225881054
 30
0.0
 11
594.41674891211892
 21
191.6765225881054
 31
0.0
  0
LINE
  5
FEA
  8
0
 10
594.41674891211892
 20
241.6765225881054
 30
0.0
 11
594.41674891211892
 21
191.6765225881054
 31
0.0
  0
LINE
  5
FEB
  8
0
 10
594.41674891211892
 20
191.6765225881054
 30
0.0
 11
754.41674891211858
 21
191.6765225881054
 31
0.0
  0
LINE
  5
FED
  8
2
 10
404.16674891211898
 20
184.6765225881054
 30
0.0
 11
404.16674891211898
 21
200.37748458810549
 31
0.0
  0
LINE
  5
FEE
  8
2
 10
414.66674891211892
 20
184.6765225881054
 30
0.0
 11
414.66674891211892
 21
200.37748458810549
 31
0.0
  0
LINE
  5
FEF
  8
0
 10
400.36674891211891
 20
185.6765225881054
 30
0.0
 11
400.36674891211891
 21
190.27652258810539
 31
0.0
  0
LINE
  5
FF0
  8
0
 10
401.36674891211902
 20
184.6765225881054
 30
0.0
 11
400.36674891211891
 21
185.6765225881054
 31
0.0
  0
LINE
  5
FF1
  8
2
 10
399.41674891211898
 20
236.6765225881054
 30
0.0
 11
399.41674891211898
 21
241.6765225881054
 31
0.0
  0
LINE
  5
FF2
  8
2
 10
404.16674891211898
 20
200.37748458810549
 30
0.0
 11
414.66674891211892
 21
200.37748458810549
 31
0.0
  0
LINE
  5
FF3
  8
2
 10
415.41674891211892
 20
201.6765225881054
 30
0.0
 11
414.66674891211892
 21
200.37748458810549
 31
0.0
  0
LINE
  5
FF4
  8
2
 10
403.41674891211892
 20
201.6765225881054
 30
0.0
 11
404.16674891211898
 21
200.37748458810549
 31
0.0
  0
LINE
  5
FF5
  8
0
 10
418.46674891211887
 20
185.6765225881054
 30
0.0
 11
418.46674891211887
 21
190.27652258810539
 31
0.0
  0
LINE
  5
FF6
  8
0
 10
417.46674891211887
 20
184.6765225881054
 30
0.0
 11
418.46674891211887
 21
185.6765225881054
 31
0.0
  0
ARC
  5
FF7
  8
0
 10
418.3512779121188
 20
191.27652258810539
 30
0.0
 40
0.4
 50
90.0
 51
209.99999999999611
  0
LINE
  5
FF8
  8
0
 10
418.46674891211887
 20
190.27652258810539
 30
0.0
 11
418.00486791211893
 21
191.07652258810549
 31
0.0
  0
LINE
  5
FF9
  8
2
 10
419.41674891211892
 20
236.6765225881054
 30
0.0
 11
419.41674891211892
 21
241.6765225881054
 31
0.0
  0
LINE
  5
FFA
  8
2
 10
418.41674891211898
 20
201.6765225881054
 30
0.0
 11
418.41674891211898
 21
236.6765225881054
 31
0.0
  0
LINE
  5
FFB
  8
2
 10
400.41674891211892
 20
201.6765225881054
 30
0.0
 11
418.41674891211898
 21
201.6765225881054
 31
0.0
  0
LINE
  5
FFE
  8
2
 10
419.41674891211892
 20
236.6765225881054
 30
0.0
 11
399.41674891211898
 21
236.6765225881054
 31
0.0
  0
LINE
  5
FFF
  8
0
 10
418.46674891211887
 20
185.6765225881054
 30
0.0
 11
400.36674891211891
 21
185.6765225881054
 31
0.0
  0
LINE
  5
1000
  8
0
 10
417.46674891211887
 20
184.6765225881054
 30
0.0
 11
401.36674891211902
 21
184.6765225881054
 31
0.0
  0
LINE
  5
1001
  8
0
 10
264.41674891211892
 20
241.6765225881054
 30
0.0
 11
264.41674891211892
 21
191.6765225881054
 31
0.0
  0
LINE
  5
1002
  8
0
 10
223.451748912119
 20
184.6765225881054
 30
0.0
 11
223.451748912119
 21
191.6765225881054
 31
0.0
  0
LINE
  5
1003
  8
0
 10
218.41434991211889
 20
184.6765225881054
 30
0.0
 11
218.41434991211889
 21
191.6765225881054
 31
0.0
  0
LINE
  5
1004
  8
0
 10
212.4091479121189
 20
184.6765225881054
 30
0.0
 11
212.4091479121189
 21
191.6765225881054
 31
0.0
  0
LINE
  5
1005
  8
0
 10
207.3717489121189
 20
184.6765225881054
 30
0.0
 11
207.3717489121189
 21
191.6765225881054
 31
0.0
  0
LINE
  5
1006
  8
0
 10
463.91674891211892
 20
209.6765225881054
 30
0.0
 11
364.91674691211892
 21
209.6765225881054
 31
0.0
  0
ARC
  5
1007
  8
0
 10
364.91674891211892
 20
201.6765225881054
 30
0.0
 40
8.0
 50
90.000018999994083
 51
270.0000150000015
  0
LINE
  5
1008
  8
0
 10
463.91674891211892
 20
193.6765225881054
 30
0.0
 11
364.9167519121188
 21
193.6765225881054
 31
0.0
  0
ARC
  5
1009
  8
0
 10
463.91674891211892
 20
201.6765225881054
 30
0.0
 40
8.0
 50
270.0
 51
90.0
  0
CIRCLE
  5
100E
  8
0
 10
409.41674891211892
 20
370.6765225881054
 30
0.0
 40
9.0
  0
CIRCLE
  5
100F
  8
0
 10
409.41674891211892
 20
370.6765225881054
 30
0.0
 40
10.0
  0
CIRCLE
  5
1010
  8
0
 10
409.41674891211892
 20
470.67652258810551
 30
0.0
 40
10.0
  0
CIRCLE
  5
1011
  8
0
 10
409.41674891211892
 20
470.67652258810551
 30
0.0
 40
9.0
  0
LINE
  5
1016
  8
0
 10
400.36674891211891
 20
190.27652258810539
 30
0.0
 11
400.8286289121188
 21
191.07652258810549
 31
0.0
  0
ARC
  5
1017
  8
0
 10
400.48221891211892
 20
191.27652258810539
 30
0.0
 40
0.4
 50
330.00000000000352
 51
90.0
  0
LINE
  5
1018
  8
2
 10
400.41674891211892
 20
201.6765225881054
 30
0.0
 11
400.41674891211892
 21
236.6765225881054
 31
0.0
  0
ARC
  5
1019
  8
2
 10
364.91674891211892
 20
307.93570758810552
 30
0.0
 40
15.9
 50
89.999995999994397
 51
120.2082680000001
  0
ARC
  5
101A
  8
2
 10
364.91674891211892
 20
533.4173375881054
 30
0.0
 40
15.9
 50
239.79173199999991
 51
270.00000400000562
  0
LINE
  5
101B
  8
2
 10
364.91675091211891
 20
517.51733758810542
 30
0.0
 11
463.91675091211891
 21
517.51733758810542
 31
0.0
  0
ARC
  5
101C
  8
2
 10
463.91674891211892
 20
533.4173375881054
 30
0.0
 40
15.9
 50
269.9999949999995
 51
300.20826800000009
  0
ARC
  5
101D
  8
2
 10
463.91674891211892
 20
307.93570758810552
 30
0.0
 40
15.9
 50
59.791731999999918
 51
90.000005000000485
  0
LINE
  5
101E
  8
2
 10
364.91675091211891
 20
323.83570758810538
 30
0.0
 11
463.91675091211891
 21
323.83570758810538
 31
0.0
  0
LINE
  5
101F
  8
0
 10
223.46174891211879
 20
184.6765225881054
 30
0.0
 11
207.3717489121189
 21
184.6765225881054
 31
0.0
  0
LINE
  5
1020
  8
0
 10
212.4091479121189
 20
185.6765225881054
 30
0.0
 11
218.41434991211889
 21
185.6765225881054
 31
0.0
  0
ARC
  5
1021
  8
2
 10
278.15756391211897
 20
201.6765225881054
 30
0.0
 40
15.9
 50
149.79173200000389
 51
210.208267999996
  0
LINE
  5
1022
  8
1
 10
674.41674891211881
 20
251.6765225881054
 30
0.0
 11
674.41674891211881
 21
174.67652258810551
 31
0.0
  0
LINE
  5
1023
  8
1
 10
674.41674891211869
 20
529.6765225881054
 30
0.0
 11
674.41674891211869
 21
311.67652258810551
 31
0.0
  0
LINE
  5
1024
  8
1
 10
764.41674891211869
 20
420.67652258810551
 30
0.0
 11
584.41674891211835
 21
420.67652258810551
 31
0.0
  0
ARC
  5
1025
  8
2
 10
1036.1575639121179
 20
201.6765225881054
 30
0.0
 40
15.9
 50
149.79173200000389
 51
210.208267999996
  0
LINE
  5
1026
  8
0
 10
1022.416748912118
 20
241.6765225881054
 30
0.0
 11
1022.416748912118
 21
191.6765225881054
 31
0.0
  0
LINE
  5
1027
  8
0
 10
824.41674891211869
 20
241.6765225881054
 30
0.0
 11
1022.416748912118
 21
241.6765225881054
 31
0.0
  0
LINE
  5
1028
  8
0
 10
1022.416748912118
 20
191.6765225881054
 30
0.0
 11
824.41674891211869
 21
191.6765225881054
 31
0.0
  0
ARC
  5
1029
  8
2
 10
810.67593391211904
 20
201.6765225881054
 30
0.0
 40
15.9
 50
329.79173200000389
 51
30.208267999996039
  0
LINE
  5
102A
  8
1
 10
923.41674891211869
 20
251.6765225881054
 30
0.0
 11
923.41674891211869
 21
174.67652258810551
 31
0.0
  0
LINE
  5
102B
  8
0
 10
824.41674891211869
 20
191.6765225881054
 30
0.0
 11
824.41674891211869
 21
241.6765225881054
 31
0.0
  0
LINE
  5
102C
  8
1
 10
165.41674891211889
 20
251.6765225881054
 30
0.0
 11
165.41674891211889
 21
174.67652258810551
 31
0.0
  0
LINE
  5
102D
  8
2
 10
125.4167489121189
 20
236.6765225881054
 30
0.0
 11
125.4167489121189
 21
241.6765225881054
 31
0.0
  0
LINE
  5
102E
  8
2
 10
105.4167489121189
 20
236.6765225881054
 30
0.0
 11
105.4167489121189
 21
241.6765225881054
 31
0.0
  0
LINE
  5
102F
  8
2
 10
105.4167489121189
 20
236.6765225881054
 30
0.0
 11
125.4167489121189
 21
236.6765225881054
 31
0.0
  0
LINE
  5
1030
  8
2
 10
106.4167489121189
 20
201.6765225881054
 30
0.0
 11
106.4167489121189
 21
236.6765225881054
 31
0.0
  0
LINE
  5
1031
  8
1
 10
115.4167489121189
 20
246.6765225881054
 30
0.0
 11
115.4167489121191
 21
179.6765225881054
 31
0.0
  0
LINE
  5
1032
  8
2
 10
124.4167489121189
 20
201.6765225881054
 30
0.0
 11
124.4167489121189
 21
236.6765225881054
 31
0.0
  0
LINE
  5
1033
  8
2
 10
110.1667489121189
 20
184.6765225881054
 30
0.0
 11
110.1667489121189
 21
200.37748458810549
 31
0.0
  0
LINE
  5
1034
  8
2
 10
120.6667489121189
 20
200.37748458810549
 30
0.0
 11
110.1667489121189
 21
200.37748458810549
 31
0.0
  0
LINE
  5
1035
  8
2
 10
109.4167489121189
 20
201.6765225881054
 30
0.0
 11
110.1667489121189
 21
200.37748458810549
 31
0.0
  0
LINE
  5
1036
  8
2
 10
124.4167489121189
 20
201.6765225881054
 30
0.0
 11
106.4167489121189
 21
201.6765225881054
 31
0.0
  0
LINE
  5
1038
  8
2
 10
120.6667489121189
 20
184.6765225881054
 30
0.0
 11
120.6667489121189
 21
200.37748458810549
 31
0.0
  0
LINE
  5
1039
  8
2
 10
121.4167489121189
 20
201.6765225881054
 30
0.0
 11
120.6667489121189
 21
200.37748458810549
 31
0.0
  0
LINE
  5
103E
  8
2
 10
209.41674891211889
 20
201.6765225881054
 30
0.0
 11
210.16674891211889
 21
200.37748458810549
 31
0.0
  0
LINE
  5
103F
  8
2
 10
210.16674891211889
 20
184.6765225881054
 30
0.0
 11
210.16674891211889
 21
200.37748458810549
 31
0.0
  0
LINE
  5
1041
  8
2
 10
206.41674891211889
 20
201.6765225881054
 30
0.0
 11
224.41674891211889
 21
201.6765225881054
 31
0.0
  0
LINE
  5
1042
  8
2
 10
221.41674891211889
 20
201.6765225881054
 30
0.0
 11
220.66674891211889
 21
200.37748458810549
 31
0.0
  0
LINE
  5
1043
  8
2
 10
210.16674891211889
 20
200.37748458810549
 30
0.0
 11
220.66674891211889
 21
200.37748458810549
 31
0.0
  0
LINE
  5
1044
  8
2
 10
220.66674891211889
 20
184.6765225881054
 30
0.0
 11
220.66674891211889
 21
200.37748458810549
 31
0.0
  0
LINE
  5
1045
  8
2
 10
206.41674891211889
 20
201.6765225881054
 30
0.0
 11
206.41674891211889
 21
236.6765225881054
 31
0.0
  0
LINE
  5
1046
  8
1
 10
215.41674891211889
 20
246.6765225881054
 30
0.0
 11
215.41674891211869
 21
179.6765225881054
 31
0.0
  0
LINE
  5
1047
  8
2
 10
224.41674891211889
 20
201.6765225881054
 30
0.0
 11
224.41674891211889
 21
236.6765225881054
 31
0.0
  0
LINE
  5
1048
  8
2
 10
225.41674891211889
 20
236.6765225881054
 30
0.0
 11
205.41674891211889
 21
236.6765225881054
 31
0.0
  0
LINE
  5
1049
  8
2
 10
225.41674891211889
 20
236.6765225881054
 30
0.0
 11
225.41674891211889
 21
241.6765225881054
 31
0.0
  0
CIRCLE
  5
11EB
  8
5
 10
409.41674891211892
 20
470.67652258810551
 30
0.0
 40
10.0
  0
CIRCLE
  5
11EC
  8
5
 10
409.41674891211892
 20
370.6765225881054
 30
0.0
 40
10.0
  0
LINE
  5
11EF
  8
5
 10
465.41674891211892
 20
392.67652258810551
 30
0.0
 11
465.41674891211892
 21
448.6765225881054
 31
0.0
  0
LINE
  5
11F0
  8
5
 10
382.41674891211892
 20
392.67652258810551
 30
0.0
 11
382.41674891211892
 21
448.67652258810551
 31
0.0
  0
LINE
  5
11F1
  8
5
 10
382.41674891211892
 20
448.6765225881054
 30
0.0
 11
465.41674891211892
 21
448.6765225881054
 31
0.0
  0
LINE
  5
11F2
  8
5
 10
382.41674891211892
 20
392.67652258810551
 30
0.0
 11
465.41674891211892
 21
392.67652258810551
 31
0.0
  0
LINE
  5
11FD
  8
5
 10
719.41674891211869
 20
392.6765225881054
 30
0.0
 11
629.41674891211858
 21
392.6765225881054
 31
0.0
  0
LINE
  5
11FE
  8
5
 10
719.41674891211835
 20
448.6765225881054
 30
0.0
 11
719.41674891211869
 21
392.67652258810551
 31
0.0
  0
LINE
  5
11FF
  8
5
 10
719.41674891211835
 20
448.6765225881054
 30
0.0
 11
629.41674891211846
 21
448.6765225881054
 31
0.0
  0
LINE
  5
1200
  8
5
 10
629.41674891211858
 20
448.6765225881054
 30
0.0
 11
629.41674891211858
 21
392.6765225881054
 31
0.0
  0
LINE
  5
1201
  8
5
 10
895.41674891211892
 20
212.6765225881054
 30
0.0
 11
895.41674891211869
 21
191.6765225881054
 31
0.0
  0
LINE
  5
1202
  8
5
 10
951.41674891211903
 20
212.6765225881054
 30
0.0
 11
951.41674891211858
 21
191.67652258810531
 31
0.0
  0
LINE
  5
1203
  8
5
 10
951.41674891211903
 20
212.6765225881054
 30
0.0
 11
895.41674891211892
 21
212.6765225881054
 31
0.0
  0
LINE
  5
1204
  8
5
 10
719.41674891211903
 20
212.6765225881054
 30
0.0
 11
719.41674891211903
 21
191.67652258810531
 31
0.0
  0
LINE
  5
1205
  8
5
 10
719.41674891211903
 20
212.6765225881054
 30
0.0
 11
629.41674891211903
 21
212.6765225881054
 31
0.0
  0
LINE
  5
1206
  8
5
 10
629.41674891211903
 20
212.6765225881054
 30
0.0
 11
629.41674891211903
 21
191.6765225881054
 31
0.0
  0
LINE
  5
120D
  8
5
 10
465.41674891211892
 20
212.6765225881054
 30
0.0
 11
465.41674891211892
 21
191.6765225881054
 31
0.0
  0
LINE
  5
120E
  8
5
 10
465.41674891211892
 20
212.6765225881054
 30
0.0
 11
382.41674891211892
 21
212.6765225881054
 31
0.0
  0
LINE
  5
120F
  8
5
 10
382.41674891211892
 20
212.6765225881054
 30
0.0
 11
382.41674891211892
 21
191.6765225881054
 31
0.0
  0
LINE
  5
1210
  8
5
 10
419.41674891211892
 20
211.6765225881044
 30
0.0
 11
419.41674891211869
 21
191.67652258810551
 31
0.0
  0
LINE
  5
1211
  8
5
 10
399.4167489121192
 20
211.6765225881044
 30
0.0
 11
419.41674891211892
 21
211.6765225881044
 31
0.0
  0
LINE
  5
1212
  8
5
 10
399.41674891211898
 20
211.6765225881044
 30
0.0
 11
399.41674891211881
 21
191.67652258810551
 31
0.0
  0
LINE
  5
1213
  8
5
 10
193.41674891211889
 20
212.67652258810719
 30
0.0
 11
193.41674891211889
 21
191.6765225881054
 31
0.0
  0
LINE
  5
1214
  8
5
 10
193.41674891211889
 20
212.67652258810719
 30
0.0
 11
137.41674891211889
 21
212.67652258810739
 31
0.0
  0
LINE
  5
1215
  8
5
 10
137.41674891211889
 20
212.6765225881073
 30
0.0
 11
137.41674891211889
 21
191.67652258810531
 31
0.0
  0
LINE
  5
1216
  8
5
 10
125.4167489121189
 20
211.6765225881044
 30
0.0
 11
125.4167489121189
 21
191.6765225881054
 31
0.0
  0
LINE
  5
1217
  8
5
 10
105.4167489121191
 20
211.6765225881044
 30
0.0
 11
125.4167489121189
 21
211.6765225881044
 31
0.0
  0
LINE
  5
1218
  8
5
 10
105.4167489121189
 20
211.6765225881044
 30
0.0
 11
105.4167489121189
 21
191.6765225881054
 31
0.0
  0
LINE
  5
1219
  8
5
 10
205.4167489121194
 20
211.6765225881044
 30
0.0
 11
225.41674891211909
 21
211.6765225881044
 31
0.0
  0
LINE
  5
121A
  8
5
 10
205.4167489121192
 20
211.6765225881044
 30
0.0
 11
205.4167489121192
 21
191.6765225881054
 31
0.0
  0
LINE
  5
121B
  8
5
 10
225.41674891211909
 20
211.6765225881044
 30
0.0
 11
225.41674891211909
 21
191.6765225881054
 31
0.0
  0
TEXT
  5
12C6
  8
0
 62
     3
 10
0.0
 20
0.0
 30
0.0
 40
10.0
  1
SQL1550-SS20
  7
STANDARD1
  0
ENDSEC
  0
EOF
