  0
SECTION
  2
HEADER
  9
$ACADVER
  1
AC1009
  9
$INSBASE
 10
0.0
 20
0.0
 30
0.0
  9
$EXTMIN
 10
0.0
 20
-2.960436562073669
 30
0.0
  9
$EXTMAX
 10
1034.124140460377
 20
726.79677035544398
 30
0.0
  9
$LIMMIN
 10
0.0
 20
0.0
  9
$LIMMAX
 10
375.0
 20
270.0
  9
$ORTHOMODE
 70
     0
  9
$REGENMODE
 70
     1
  9
$FILLMODE
 70
     1
  9
$QTEXTMODE
 70
     0
  9
$MIRRTEXT
 70
     0
  9
$DRAGMODE
 70
     2
  9
$LTSCALE
 40
10.0
  9
$OSMODE
 70
    55
  9
$ATTMODE
 70
     1
  9
$TEXTSIZE
 40
4.000000000000048
  9
$TRACEWID
 40
0.05
  9
$TEXTSTYLE
  7
STANDARD
  9
$CLAYER
  8
0
  9
$CELTYPE
  6
BYLAYER
  9
$CECOLOR
 62
   256
  9
$DIMSCALE
 40
1.0
  9
$DIMASZ
 40
3.0
  9
$DIMEXO
 40
2.0
  9
$DIMDLI
 40
0.38
  9
$DIMRND
 40
0.0
  9
$DIMDLE
 40
0.0
  9
$DIMEXE
 40
2.0
  9
$DIMTP
 40
0.0
  9
$DIMTM
 40
0.0
  9
$DIMTXT
 40
3.2000000000000002
  9
$DIMCEN
 40
0.0
  9
$DIMTSZ
 40
0.0
  9
$DIMTOL
 70
     0
  9
$DIMLIM
 70
     0
  9
$DIMTIH
 70
     0
  9
$DIMTOH
 70
     0
  9
$DIMSE1
 70
     0
  9
$DIMSE2
 70
     0
  9
$DIMTAD
 70
     1
  9
$DIMZIN
 70
     0
  9
$DIMBLK
  1

  9
$DIMASO
 70
     0
  9
$DIMSHO
 70
     0
  9
$DIMPOST
  1

  9
$DIMAPOST
  1

  9
$DIMALT
 70
     0
  9
$DIMALTD
 70
     2
  9
$DIMALTF
 40
25.399999999999999
  9
$DIMLFAC
 40
1.0
  9
$DIMTOFL
 70
     0
  9
$DIMTVP
 40
1.6000000000000001
  9
$DIMTIX
 70
     1
  9
$DIMSOXD
 70
     0
  9
$DIMSAH
 70
     0
  9
$DIMBLK1
  1

  9
$DIMBLK2
  1

  9
$DIMSTYLE
  2
STANDARD
  9
$DIMCLRD
 70
     4
  9
$DIMCLRE
 70
     4
  9
$DIMCLRT
 70
     4
  9
$DIMTFAC
 40
1.0
  9
$DIMGAP
 40
0.09
  9
$LUNITS
 70
     2
  9
$LUPREC
 70
     1
  9
$SKETCHINC
 40
0.1
  9
$FILLETRAD
 40
0.0
  9
$AUNITS
 70
     0
  9
$AUPREC
 70
     0
  9
$MENU
  1
E:\r13\win\SUPPORT\ACAD
  9
$ELEVATION
 40
0.0
  9
$PELEVATION
 40
0.0
  9
$THICKNESS
 40
0.0
  9
$LIMCHECK
 70
     0
  9
$BLIPMODE
 70
     0
  9
$CHAMFERA
 40
1.1999999999999991
  9
$CHAMFERB
 40
1.1999999999999991
  9
$SKPOLY
 70
     0
  9
$TDCREATE
 40
2450158.583426042
  9
$TDUPDATE
 40
2456598.5555884489
  9
$TDINDWG
 40
0.1199025116
  9
$TDUSRTIMER
 40
0.1199025116
  9
$USRTIMER
 70
     1
  9
$ANGBASE
 50
0.0
  9
$ANGDIR
 70
     0
  9
$PDMODE
 70
     0
  9
$PDSIZE
 40
0.0
  9
$PLINEWID
 40
0.0
  9
$COORDS
 70
     1
  9
$SPLFRAME
 70
     0
  9
$SPLINETYPE
 70
     6
  9
$SPLINESEGS
 70
     8
  9
$ATTDIA
 70
     0
  9
$ATTREQ
 70
     1
  9
$HANDLING
 70
     1
  9
$HANDSEED
  5
CE1
  9
$SURFTAB1
 70
     6
  9
$SURFTAB2
 70
     6
  9
$SURFTYPE
 70
     6
  9
$SURFU
 70
     6
  9
$SURFV
 70
     6
  9
$UCSNAME
  2

  9
$UCSORG
 10
0.0
 20
0.0
 30
0.0
  9
$UCSXDIR
 10
1.0
 20
0.0
 30
0.0
  9
$UCSYDIR
 10
0.0
 20
1.0
 30
0.0
  9
$PUCSNAME
  2

  9
$PUCSORG
 10
0.0
 20
0.0
 30
0.0
  9
$PUCSXDIR
 10
1.0
 20
0.0
 30
0.0
  9
$PUCSYDIR
 10
0.0
 20
1.0
 30
0.0
  9
$USERI1
 70
     0
  9
$USERI2
 70
     1
  9
$USERI3
 70
     0
  9
$USERI4
 70
     0
  9
$USERI5
 70
     0
  9
$USERR1
 40
0.0
  9
$USERR2
 40
0.0
  9
$USERR3
 40
0.0
  9
$USERR4
 40
0.0
  9
$USERR5
 40
0.0
  9
$WORLDVIEW
 70
     1
  9
$SHADEDGE
 70
     3
  9
$SHADEDIF
 70
    70
  9
$TILEMODE
 70
     1
  9
$MAXACTVP
 70
    16
  9
$PLIMCHECK
 70
     0
  9
$PEXTMIN
 10
1.0000000000000000E+020
 20
1.0000000000000000E+020
 30
1.0000000000000000E+020
  9
$PEXTMAX
 10
-1.0000000000000000E+020
 20
-1.0000000000000000E+020
 30
-1.0000000000000000E+020
  9
$PLIMMIN
 10
0.0
 20
0.0
  9
$PLIMMAX
 10
12.0
 20
9.0
  9
$UNITMODE
 70
     0
  9
$VISRETAIN
 70
     0
  9
$PLINEGEN
 70
     0
  9
$PSLTSCALE
 70
     0
  0
ENDSEC
  0
SECTION
  2
TABLES
  0
TABLE
  2
VPORT
 70
     1
  0
VPORT
  2
*ACTIVE
 70
     0
 10
0.0
 20
0.0
 11
1.0
 21
1.0
 12
517.06207263794624
 22
531.79421486643935
 13
0.0
 23
0.0
 14
10.0
 24
10.0
 15
10.0
 25
10.0
 16
0.0
 26
0.0
 36
1.0
 17
0.0
 27
0.0
 37
0.0
 40
1078.927022982801
 41
1.7807262569832401
 42
50.0
 43
0.0
 44
0.0
 50
0.0
 51
0.0
 71
     0
 72
   500
 73
     1
 74
     0
 75
     0
 76
     0
 77
     0
 78
     2
  0
ENDTAB
  0
TABLE
  2
LTYPE
 70
     4
  0
LTYPE
  2
CONTINUOUS
 70
     0
  3
Solid Line
 72
    65
 73
     0
 40
0.0
  0
LTYPE
  2
CENTER
 70
     0
  3
____ _ ____ _ ____ _ ____ _ ____ _ ____ _ ____
 72
    65
 73
     4
 40
2.0
 49
1.25
 49
-0.25
 49
0.25
 49
-0.25
  0
LTYPE
  2
HIDDEN
 70
     0
  3
_ _ _ _ _ _ _ _ _ _ _ _ _ _ _ _ _ _ _ _ _ _ _
 72
    65
 73
     2
 40
0.375
 49
0.25
 49
-0.125
  0
LTYPE
  2
PHANTOM2
 70
     0
  3
___ _ _ ___ _ _ ___ _ _ ___ _ _
 72
    65
 73
     6
 40
1.25
 49
0.625
 49
-0.125
 49
0.125
 49
-0.125
 49
0.125
 49
-0.125
  0
ENDTAB
  0
TABLE
  2
LAYER
 70
     3
  0
LAYER
  2
0
 70
     0
 62
     7
  6
CONTINUOUS
  0
LAYER
  2
1
 70
     0
 62
     1
  6
CENTER
  0
LAYER
  2
2
 70
     0
 62
     2
  6
HIDDEN
  0
ENDTAB
  0
TABLE
  2
STYLE
 70
     2
  0
STYLE
  2
STANDARD
 70
     0
 40
0.0
 41
1.0
 50
0.0
 71
     0
 42
4.000000000000048
  3
SIMPLEX
  4
BIGFONT
  0
STYLE
  2
STANDARD1
 70
     0
 40
0.0
 41
1.0
 50
0.0
 71
     0
 42
3.0
  3
txt
  4

  0
ENDTAB
  0
TABLE
  2
VIEW
 70
     1
  0
VIEW
  2
ALL
 70
     0
 40
179.5384664489153
 10
146.94997169852391
 20
89.769233224457665
 41
0.0
 11
0.0
 21
0.0
 31
1.0
 12
0.0
 22
0.0
 32
0.0
 42
50.0
 43
0.0
 44
0.0
 50
0.0
 71
     0
  0
ENDTAB
  0
TABLE
  2
UCS
 70
     0
  0
ENDTAB
  0
TABLE
  2
APPID
 70
     3
  0
APPID
  2
ACAD
 70
     0
  0
APPID
  2
ACAD_MLEADERVER
 70
     0
  0
APPID
  2
ACAD_NAV_VCDISPLAY
 70
     0
  0
ENDTAB
  0
TABLE
  2
DIMSTYLE
 70
     1
  0
DIMSTYLE
  2
STANDARD
 70
     0
  3

  4

  5

  6

  7

 40
1.0
 41
0.18
 42
0.0625
 43
0.38
 44
0.18
 45
0.0
 46
0.0
 47
0.0
 48
0.0
140
0.18
141
0.09
142
0.0
143
25.399999999999999
144
1.0
145
0.0
146
1.0
147
0.09
 71
     0
 72
     0
 73
     1
 74
     1
 75
     0
 76
     0
 77
     0
 78
     0
170
     0
171
     2
172
     0
173
     0
174
     0
175
     0
176
     0
177
     0
178
     0
  0
ENDTAB
  0
ENDSEC
  0
SECTION
  2
BLOCKS
  0
BLOCK
  8
0
  2
$MODEL_SPACE
 70
     0
 10
0.0
 20
0.0
 30
0.0
  3
$MODEL_SPACE
  1

  0
ENDBLK
  5
332
  8
0
  0
BLOCK
 67
     1
  8
0
  2
$PAPER_SPACE
 70
     0
 10
0.0
 20
0.0
 30
0.0
  3
$PAPER_SPACE
  1

  0
ENDBLK
  5
330
 67
     1
  8
0
  0
ENDSEC
  0
SECTION
  2
ENTITIES
  0
LINE
  5
AE5
  8
0
 10
884.32414046037775
 20
418.80370635544409
 30
0.0
 11
884.32414046037775
 21
415.80370635544409
 31
0.0
  0
LINE
  5
AE6
  8
0
 10
971.92769146037801
 20
365.7965763554439
 30
0.0
 11
946.32058546037786
 21
365.7965763554439
 31
0.0
  0
ARC
  5
AE7
  8
0
 10
946.54154246037785
 20
380.79657635544407
 30
0.0
 40
15.0
 50
182.00000000000361
 51
269.99998399999708
  0
LINE
  5
AE8
  8
0
 10
930.30992346037749
 20
415.80370635544409
 30
0.0
 11
931.55067946037775
 21
380.2730843554441
 31
0.0
  0
ARC
  5
AE9
  8
0
 10
971.70673846037778
 20
380.79657635544407
 30
0.0
 40
15.0
 50
270.0
 51
357.99999999999642
  0
LINE
  5
AEA
  8
0
 10
885.12414046037736
 20
468.80370635544432
 30
0.0
 11
885.1241404603777
 21
418.80370635544409
 31
0.0
  0
LINE
  5
AEB
  8
0
 10
987.9383574603778
 20
415.80370635544409
 30
0.0
 11
986.69760146037777
 21
380.2730843554441
 31
0.0
  0
LINE
  5
AEC
  8
0
 10
1033.9241404603781
 20
418.80370635544409
 30
0.0
 11
884.32414046037775
 21
418.80370635544409
 31
0.0
  0
LINE
  5
AED
  8
0
 10
1033.124140460377
 20
418.80370635544409
 30
0.0
 11
1033.124140460377
 21
468.80370635544432
 31
0.0
  0
LINE
  5
AEE
  8
0
 10
1033.9241404603781
 20
415.80370635544409
 30
0.0
 11
1033.9241404603781
 21
418.80370635544409
 31
0.0
  0
ARC
  5
AEF
  8
2
 10
1046.8649554603769
 20
428.7967703554441
 30
0.0
 40
15.9
 50
149.79173200000719
 51
210.20826799999281
  0
LINE
  5
AF0
  8
1
 10
959.12414046037736
 20
478.7967703554441
 30
0.0
 11
959.12414046037736
 21
338.80370635544409
 31
0.0
  0
ARC
  5
AF1
  8
2
 10
871.38332546037793
 20
428.7967703554441
 30
0.0
 40
15.9
 50
329.79173199999991
 51
30.208268000000079
  0
LINE
  5
AF2
  8
0
 10
884.32414046037775
 20
415.80370635544432
 30
0.0
 11
1033.9241404603781
 21
415.80370635544409
 31
0.0
  0
LINE
  5
AF3
  8
0
 10
884.12414046037736
 20
414.30370635544409
 30
0.0
 11
884.12414046037759
 21
350.30370635544392
 31
0.0
  0
LINE
  5
AF4
  8
0
 10
1034.124140460377
 20
414.30370635544409
 30
0.0
 11
1034.124140460377
 21
350.30370635544392
 31
0.0
  0
LINE
  5
AF5
  8
0
 10
1032.624140460377
 20
348.80370635544392
 30
0.0
 11
885.62414046037759
 21
348.80370635544392
 31
0.0
  0
ARC
  5
AF6
  8
0
 10
885.62414046037759
 20
350.30370635544392
 30
0.0
 40
1.5
 50
180.0
 51
270.0
  0
ARC
  5
AF7
  8
0
 10
1032.624140460377
 20
350.30370635544392
 30
0.0
 40
1.5
 50
270.0
 51
0.0
  0
ARC
  5
AF8
  8
0
 10
1032.624140460377
 20
414.30370635544409
 30
0.0
 40
1.5
 50
0.0
 51
90.0
  0
ARC
  5
AF9
  8
0
 10
885.62414046037748
 20
414.30370635544409
 30
0.0
 40
1.5
 50
90.0
 51
180.0
  0
LINE
  5
AFA
  8
0
 10
1033.124140460377
 20
468.80370635544381
 30
0.0
 11
885.12414046037736
 21
468.80370635544381
 31
0.0
  0
LINE
  5
AFB
  8
0
 10
75.16414046037761
 20
468.80370635544381
 30
0.0
 11
223.16414046037789
 21
468.80370635544381
 31
0.0
  0
ARC
  5
AFC
  8
0
 10
222.66414046037781
 20
414.30370635544409
 30
0.0
 40
1.5
 50
0.0
 51
90.0
  0
ARC
  5
AFD
  8
0
 10
75.66414046037778
 20
414.30370635544409
 30
0.0
 40
1.5
 50
90.0
 51
180.0
  0
ARC
  5
AFE
  8
0
 10
75.66414046037778
 20
350.30370635544392
 30
0.0
 40
1.5
 50
180.0
 51
270.0
  0
ARC
  5
AFF
  8
0
 10
222.66414046037769
 20
350.30370635544392
 30
0.0
 40
1.5
 50
270.0
 51
0.0
  0
LINE
  5
B00
  8
0
 10
75.66414046037778
 20
348.80370635544392
 30
0.0
 11
222.66414046037769
 21
348.80370635544392
 31
0.0
  0
LINE
  5
B01
  8
0
 10
74.16414046037778
 20
414.30370635544409
 30
0.0
 11
74.16414046037778
 21
350.30370635544392
 31
0.0
  0
LINE
  5
B02
  8
0
 10
224.16414046037781
 20
414.30370635544409
 30
0.0
 11
224.16414046037769
 21
350.30370635544392
 31
0.0
  0
LINE
  5
B03
  8
0
 10
223.96414046037759
 20
415.80370635544432
 30
0.0
 11
74.364140460377541
 21
415.80370635544409
 31
0.0
  0
ARC
  5
B04
  8
0
 10
319.14414046037768
 20
642.7967703554441
 30
0.0
 40
22.0
 50
132.98588599999991
 51
227.01411400000001
  0
ARC
  5
B05
  8
0
 10
305.6441404603778
 20
716.2967703554441
 30
0.0
 40
1.5
 50
90.0
 51
160.52877936550701
  0
LINE
  5
B06
  8
0
 10
304.1441404603778
 20
569.29677035544398
 30
0.0
 11
304.1441404603778
 21
716.2967703554441
 31
0.0
  0
ARC
  5
B07
  8
0
 10
305.6441404603778
 20
569.29677035544398
 30
0.0
 40
1.5
 50
199.47122063449291
 51
270.0
  0
LINE
  5
B08
  8
0
 10
802.64414046037734
 20
567.7967703554441
 30
0.0
 11
305.6441404603778
 21
567.7967703554441
 31
0.0
  0
ARC
  5
B09
  8
0
 10
802.64414046037734
 20
569.29677035544398
 30
0.0
 40
1.5
 50
270.0
 51
340.52877936550698
  0
LINE
  5
B0A
  8
0
 10
305.6441404603778
 20
717.7967703554441
 30
0.0
 11
802.64414046037734
 21
717.7967703554441
 31
0.0
  0
ARC
  5
B0B
  8
0
 10
802.64414046037734
 20
716.2967703554441
 30
0.0
 40
1.5
 50
19.471220634492951
 51
90.0
  0
LINE
  5
B0C
  8
0
 10
804.14414046037746
 20
716.2967703554441
 30
0.0
 11
804.14414046037746
 21
569.29677035544398
 31
0.0
  0
LINE
  5
B0D
  8
1
 10
724.14414046037768
 20
726.79677035544398
 30
0.0
 11
724.14414046037768
 21
558.7967703554441
 31
0.0
  0
LINE
  5
B0E
  8
0
 10
644.14414046037768
 20
716.7967703554441
 30
0.0
 11
644.14414046037768
 21
568.79677035544398
 31
0.0
  0
LINE
  5
B0F
  8
0
 10
644.14414046037768
 20
568.79677035544398
 30
0.0
 11
804.14414046037757
 21
568.79677035544398
 31
0.0
  0
LINE
  5
B10
  8
0
 10
804.14414046037757
 20
716.7967703554441
 30
0.0
 11
644.14414046037768
 21
716.7967703554441
 31
0.0
  0
LINE
  5
B11
  8
2
 10
674.64414246037745
 20
570.95595535544408
 30
0.0
 11
773.64414246037745
 21
570.95595535544408
 31
0.0
  0
ARC
  5
B12
  8
2
 10
773.64414046037768
 20
555.05595535544421
 30
0.0
 40
15.9
 50
59.791731999999918
 51
90.000005000000485
  0
ARC
  5
B13
  8
2
 10
773.64414046037768
 20
730.53758535544409
 30
0.0
 40
15.9
 50
269.9999949999995
 51
300.20826800000009
  0
LINE
  5
B14
  8
2
 10
674.64414246037745
 20
714.63758535544412
 30
0.0
 11
773.64414246037745
 21
714.63758535544412
 31
0.0
  0
ARC
  5
B15
  8
2
 10
674.64414046037768
 20
730.53758535544409
 30
0.0
 40
15.9
 50
239.79173199999991
 51
270.00000400000562
  0
ARC
  5
B16
  8
2
 10
674.64414046037768
 20
555.05595535544421
 30
0.0
 40
15.9
 50
89.999995999994397
 51
120.2082680000001
  0
LINE
  5
B17
  8
0
 10
804.14414046037757
 20
568.79677035544398
 30
0.0
 11
804.14414046037757
 21
716.7967703554441
 31
0.0
  0
LINE
  5
B18
  8
1
 10
724.14414046037768
 20
478.80370635544392
 30
0.0
 11
724.14414046037768
 21
408.80370635544381
 31
0.0
  0
LINE
  5
B19
  8
0
 10
804.14414046037757
 20
468.80370635544381
 30
0.0
 11
804.14414046037757
 21
418.80370635544381
 31
0.0
  0
LINE
  5
B1A
  8
0
 10
804.14414046037757
 20
418.80370635544381
 30
0.0
 11
644.14414046037768
 21
418.80370635544381
 31
0.0
  0
LINE
  5
B1B
  8
0
 10
644.14414046037768
 20
468.80370635544381
 30
0.0
 11
804.14414046037757
 21
468.80370635544381
 31
0.0
  0
LINE
  5
B1C
  8
0
 10
644.14414046037768
 20
418.80370635544381
 30
0.0
 11
644.14414046037768
 21
468.80370635544381
 31
0.0
  0
ARC
  5
B1D
  8
0
 10
773.64414046037768
 20
428.80370635544392
 30
0.0
 40
8.0
 50
270.0
 51
90.0
  0
LINE
  5
B1E
  8
0
 10
773.64414046037768
 20
420.80370635544392
 30
0.0
 11
674.64414346037734
 21
420.80370635544392
 31
0.0
  0
ARC
  5
B1F
  8
0
 10
674.64414046037768
 20
428.80370635544392
 30
0.0
 40
8.0
 50
90.000018999994083
 51
270.0000150000015
  0
LINE
  5
B20
  8
0
 10
773.64414046037768
 20
436.80370635544381
 30
0.0
 11
674.64413846037735
 21
436.80370635544381
 31
0.0
  0
LINE
  5
B21
  8
0
 10
484.14414046037763
 20
468.80370635544381
 30
0.0
 11
484.14414046037763
 21
418.80370635544381
 31
0.0
  0
ARC
  5
B22
  8
0
 10
555.14414046037757
 20
430.30370635544381
 30
0.0
 40
9.5
 50
270.0
 51
90.0
  0
ARC
  5
B23
  8
0
 10
553.14414046037768
 20
430.30370635544381
 30
0.0
 40
9.5
 50
90.0
 51
270.0
  0
LINE
  5
B24
  8
0
 10
484.14414046037763
 20
418.80370635544381
 30
0.0
 11
624.14414046037768
 21
418.80370635544381
 31
0.0
  0
LINE
  5
B25
  8
0
 10
484.14414046037763
 20
468.80370635544381
 30
0.0
 11
624.14414046037768
 21
468.80370635544381
 31
0.0
  0
LINE
  5
B26
  8
0
 10
624.14414046037768
 20
418.80370635544381
 30
0.0
 11
624.14414046037768
 21
468.80370635544381
 31
0.0
  0
LINE
  5
B27
  8
0
 10
553.14414046037768
 20
439.80370635544381
 30
0.0
 11
555.14414046037757
 21
439.80370635544381
 31
0.0
  0
LINE
  5
B28
  8
0
 10
553.14414046037768
 20
420.80370635544392
 30
0.0
 11
555.14414046037757
 21
420.80370635544392
 31
0.0
  0
LINE
  5
B29
  8
0
 10
464.14414046037763
 20
468.80370635544381
 30
0.0
 11
464.14414046037763
 21
418.80370635544381
 31
0.0
  0
LINE
  5
B2A
  8
0
 10
464.14414046037763
 20
418.80370635544381
 30
0.0
 11
304.14414046037768
 21
418.80370635544381
 31
0.0
  0
LINE
  5
B2B
  8
0
 10
304.14414046037768
 20
468.80370635544381
 30
0.0
 11
464.14414046037763
 21
468.80370635544381
 31
0.0
  0
LINE
  5
B2C
  8
0
 10
304.14414046037768
 20
418.80370635544381
 30
0.0
 11
304.14414046037768
 21
468.80370635544381
 31
0.0
  0
ARC
  5
B2D
  8
0
 10
433.64414046037763
 20
428.80370635544392
 30
0.0
 40
8.0
 50
270.0
 51
90.0
  0
LINE
  5
B2E
  8
0
 10
433.64414046037763
 20
420.80370635544392
 30
0.0
 11
334.64414346037728
 21
420.80370635544392
 31
0.0
  0
ARC
  5
B2F
  8
0
 10
334.64414046037768
 20
428.80370635544392
 30
0.0
 40
8.0
 50
90.000018999994083
 51
270.0000150000015
  0
LINE
  5
B30
  8
0
 10
433.64414046037763
 20
436.80370635544381
 30
0.0
 11
334.64413846037752
 21
436.80370635544381
 31
0.0
  0
LINE
  5
B31
  8
1
 10
384.14414046037768
 20
478.80370635544392
 30
0.0
 11
384.14414046037768
 21
408.80370635544381
 31
0.0
  0
CIRCLE
  5
B32
  8
0
 10
554.14414046037757
 20
692.7967703554441
 30
0.0
 40
5.25
  0
CIRCLE
  5
B33
  8
0
 10
554.14414046037757
 20
692.7967703554441
 30
0.0
 40
9.0
  0
CIRCLE
  5
B34
  8
0
 10
554.14414046037757
 20
692.7967703554441
 30
0.0
 40
10.0
  0
LINE
  5
B35
  8
1
 10
539.14414046037757
 20
692.7967703554441
 30
0.0
 11
569.14414046037768
 21
692.7967703554441
 31
0.0
  0
LINE
  5
B36
  8
1
 10
539.14414046037757
 20
592.7967703554441
 30
0.0
 11
569.14414046037768
 21
592.7967703554441
 31
0.0
  0
CIRCLE
  5
B37
  8
0
 10
554.14414046037757
 20
592.7967703554441
 30
0.0
 40
10.0
  0
CIRCLE
  5
B38
  8
0
 10
554.14414046037757
 20
592.7967703554441
 30
0.0
 40
9.0
  0
CIRCLE
  5
B39
  8
0
 10
554.14414046037757
 20
592.7967703554441
 30
0.0
 40
5.25
  0
LINE
  5
B3A
  8
1
 10
554.14414046037757
 20
726.79677035544398
 30
0.0
 11
554.14414046037757
 21
558.7967703554441
 31
0.0
  0
LINE
  5
B3B
  8
0
 10
624.14414046037768
 20
716.7967703554441
 30
0.0
 11
624.14414046037768
 21
568.79677035544398
 31
0.0
  0
ARC
  5
B3C
  8
2
 10
553.14414046037768
 20
729.54667235544412
 30
0.0
 40
15.9
 50
233.31006599999881
 51
270.00000200000278
  0
ARC
  5
B3D
  8
2
 10
555.14414046037757
 20
729.54667235544412
 30
0.0
 40
15.9
 50
269.99999799999722
 51
306.68993400000119
  0
ARC
  5
B3E
  8
2
 10
555.14414046037757
 20
556.04686835544396
 30
0.0
 40
15.9
 50
53.31006599999877
 51
90.000002000002809
  0
ARC
  5
B3F
  8
2
 10
553.14414046037768
 20
556.04686835544396
 30
0.0
 40
15.9
 50
89.999997999997177
 51
126.6899340000012
  0
LINE
  5
B40
  8
2
 10
553.14414146037745
 20
571.94686835544405
 30
0.0
 11
555.14414046037757
 21
571.94686835544405
 31
0.0
  0
LINE
  5
B41
  8
2
 10
553.14414146037745
 20
713.64667235544403
 30
0.0
 11
555.14414046037757
 21
713.64667235544403
 31
0.0
  0
LINE
  5
B42
  8
0
 10
484.14414046037763
 20
716.7967703554441
 30
0.0
 11
624.14414046037768
 21
716.7967703554441
 31
0.0
  0
LINE
  5
B43
  8
0
 10
624.14414046037768
 20
568.79677035544398
 30
0.0
 11
484.14414046037763
 21
568.79677035544398
 31
0.0
  0
LINE
  5
B44
  8
0
 10
484.14414046037763
 20
568.79677035544398
 30
0.0
 11
484.14414046037763
 21
716.7967703554441
 31
0.0
  0
LINE
  5
B45
  8
1
 10
294.14414046037768
 20
642.7967703554441
 30
0.0
 11
814.14414046037757
 21
642.7967703554441
 31
0.0
  0
LINE
  5
B46
  8
1
 10
384.14414046037768
 20
726.79677035544398
 30
0.0
 11
384.14414046037768
 21
558.7967703554441
 31
0.0
  0
LINE
  5
B47
  8
0
 10
464.14414046037763
 20
568.79677035544398
 30
0.0
 11
464.14414046037763
 21
716.7967703554441
 31
0.0
  0
ARC
  5
B48
  8
2
 10
334.64414046037768
 20
555.05595535544421
 30
0.0
 40
15.9
 50
89.999995999994397
 51
120.2082680000001
  0
ARC
  5
B49
  8
2
 10
334.64414046037768
 20
730.53758535544409
 30
0.0
 40
15.9
 50
239.79173199999991
 51
270.00000400000562
  0
LINE
  5
B4A
  8
2
 10
334.64414246037751
 20
714.63758535544412
 30
0.0
 11
433.64414246037751
 21
714.63758535544412
 31
0.0
  0
ARC
  5
B4B
  8
2
 10
433.64414046037763
 20
730.53758535544409
 30
0.0
 40
15.9
 50
269.9999949999995
 51
300.20826800000009
  0
ARC
  5
B4C
  8
2
 10
433.64414046037763
 20
555.05595535544421
 30
0.0
 40
15.9
 50
59.791731999999918
 51
90.000005000000485
  0
LINE
  5
B4D
  8
2
 10
334.64414246037751
 20
570.95595535544408
 30
0.0
 11
433.64414246037751
 21
570.95595535544408
 31
0.0
  0
LINE
  5
B4E
  8
0
 10
464.14414046037763
 20
716.7967703554441
 30
0.0
 11
304.14414046037768
 21
716.7967703554441
 31
0.0
  0
LINE
  5
B4F
  8
0
 10
304.14414046037768
 20
568.79677035544398
 30
0.0
 11
464.14414046037763
 21
568.79677035544398
 31
0.0
  0
LINE
  5
B50
  8
0
 10
304.14414046037768
 20
716.7967703554441
 30
0.0
 11
304.14414046037768
 21
568.79677035544398
 31
0.0
  0
LINE
  5
B51
  8
1
 10
644.14414046037734
 20
119.671117355444
 30
0.0
 11
614.14414046037734
 21
119.671117355444
 31
0.0
  0
LINE
  5
B52
  8
1
 10
629.14414046037734
 20
104.671117355444
 30
0.0
 11
629.14414046037734
 21
134.67111735544401
 31
0.0
  0
LINE
  5
B53
  8
1
 10
679.14414046037734
 20
158.67111735544401
 30
0.0
 11
679.14414046037734
 21
180.67111735544401
 31
0.0
  0
LINE
  5
B54
  8
1
 10
629.14414046037734
 20
234.6711173554441
 30
0.0
 11
629.14414046037734
 21
204.67111735544401
 31
0.0
  0
LINE
  5
B55
  8
1
 10
644.14414046037734
 20
219.67111735544401
 30
0.0
 11
614.14414046037734
 21
219.67111735544401
 31
0.0
  0
LINE
  5
B56
  8
1
 10
565.14414046037768
 20
119.671117355444
 30
0.0
 11
543.14414046037757
 21
119.671117355444
 31
0.0
  0
LINE
  5
B57
  8
1
 10
565.14414046037768
 20
219.67111735544401
 30
0.0
 11
543.14414046037757
 21
219.67111735544401
 31
0.0
  0
LINE
  5
B58
  8
1
 10
479.14414046037763
 20
234.6711173554441
 30
0.0
 11
479.14414046037763
 21
204.67111735544401
 31
0.0
  0
LINE
  5
B59
  8
1
 10
464.14414046037763
 20
219.67111735544401
 30
0.0
 11
494.14414046037768
 21
219.67111735544401
 31
0.0
  0
LINE
  5
B5A
  8
1
 10
479.14414046037763
 20
104.671117355444
 30
0.0
 11
479.14414046037763
 21
134.67111735544401
 31
0.0
  0
LINE
  5
B5B
  8
0
 10
479.14414046037763
 20
119.671117355444
 30
0.0
 11
479.14414046037763
 21
119.671117355444
 31
0.0
  0
LINE
  5
B5C
  8
1
 10
464.14414046037763
 20
119.671117355444
 30
0.0
 11
494.14414046037768
 21
119.671117355444
 31
0.0
  0
LINE
  5
B5D
  8
1
 10
429.14414046037763
 20
158.67111735544401
 30
0.0
 11
429.14414046037763
 21
180.67111735544401
 31
0.0
  0
CIRCLE
  5
B5E
  8
0
 10
679.14414046037734
 20
169.67111735544401
 30
0.0
 40
6.0
  0
CIRCLE
  5
B5F
  8
0
 10
554.14414046037757
 20
219.67111735544401
 30
0.0
 40
6.0
  0
CIRCLE
  5
B60
  8
0
 10
554.14414046037757
 20
119.671117355444
 30
0.0
 40
6.0
  0
CIRCLE
  5
B61
  8
0
 10
429.14414046037763
 20
169.67111735544401
 30
0.0
 40
6.0
  0
LINE
  5
B62
  8
1
 10
554.14414046037757
 20
254.67111735544401
 30
0.0
 11
554.14414046037757
 21
84.671117355444039
 31
0.0
  0
LINE
  5
B63
  8
1
 10
814.14414046037734
 20
169.67111735544401
 30
0.0
 11
294.14414046037768
 21
169.67111735544401
 31
0.0
  0
LINE
  5
B64
  8
1
 10
554.14414046037757
 20
478.80370635544392
 30
0.0
 11
554.14414046037757
 21
338.81064235544392
 31
0.0
  0
ARC
  5
B65
  8
2
 10
236.90495546037769
 20
428.7967703554441
 30
0.0
 40
15.9
 50
149.79173199999991
 51
210.20826800000009
  0
LINE
  5
B66
  8
1
 10
149.16414046037781
 20
478.7967703554441
 30
0.0
 11
149.16414046037781
 21
338.80370635544409
 31
0.0
  0
ARC
  5
B67
  8
2
 10
61.423325460377669
 20
428.7967703554441
 30
0.0
 40
15.9
 50
329.79173200000719
 51
30.20826799999281
  0
CIRCLE
  5
B68
  8
0
 10
479.14414046037763
 20
219.67111735544401
 30
0.0
 40
6.75
  0
CIRCLE
  5
B69
  8
0
 10
629.14414046037757
 20
219.67111735544401
 30
0.0
 40
6.75
  0
ARC
  5
B6A
  8
0
 10
802.64414046037734
 20
96.171117355444053
 30
0.0
 40
1.5
 50
270.0
 51
0.0
  0
LINE
  5
B6B
  8
0
 10
802.64414046037734
 20
94.671117355444039
 30
0.0
 11
305.64414046037768
 21
94.671117355444039
 31
0.0
  0
ARC
  5
B6C
  8
0
 10
305.64414046037768
 20
96.171117355444053
 30
0.0
 40
1.5
 50
180.0
 51
270.0
  0
LINE
  5
B6D
  8
0
 10
74.364140460377598
 20
415.80370635544409
 30
0.0
 11
74.364140460377598
 21
418.80370635544409
 31
0.0
  0
LINE
  5
B6E
  8
0
 10
75.164140460377666
 20
418.80370635544409
 30
0.0
 11
75.164140460377666
 21
468.80370635544432
 31
0.0
  0
CIRCLE
  5
B6F
  8
2
 10
629.14414046037757
 20
119.671117355444
 30
0.0
 40
10.0
  0
CIRCLE
  5
B70
  8
2
 10
479.14414046037763
 20
119.671117355444
 30
0.0
 40
10.0
  0
CIRCLE
  5
B71
  8
0
 10
479.14414046037763
 20
119.671117355444
 30
0.0
 40
6.75
  0
LINE
  5
B72
  8
0
 10
804.14414046037746
 20
243.17111735544401
 30
0.0
 11
804.14414046037746
 21
96.171117355444053
 31
0.0
  0
LINE
  5
B73
  8
0
 10
304.14414046037768
 20
96.171117355444053
 30
0.0
 11
304.14414046037768
 21
243.17111735544401
 31
0.0
  0
CIRCLE
  5
B74
  8
0
 10
629.14414046037757
 20
119.671117355444
 30
0.0
 40
6.75
  0
LINE
  5
B75
  8
0
 10
74.364140460377598
 20
418.80370635544409
 30
0.0
 11
223.96414046037759
 21
418.80370635544409
 31
0.0
  0
CIRCLE
  5
B76
  8
2
 10
479.14414046037763
 20
219.67111735544401
 30
0.0
 40
10.0
  0
CIRCLE
  5
B77
  8
2
 10
629.14414046037757
 20
219.67111735544401
 30
0.0
 40
10.0
  0
LINE
  5
B78
  8
0
 10
787.14414046037734
 20
393.8106423554438
 30
0.0
 11
321.14414046037768
 21
393.8106423554438
 31
0.0
  0
ARC
  5
B79
  8
0
 10
321.14414046037768
 20
400.8106423554438
 30
0.0
 40
7.0
 50
90.0
 51
270.0
  0
ARC
  5
B7A
  8
0
 10
802.64414046037734
 20
243.17111735544401
 30
0.0
 40
1.5
 50
0.0
 51
90.0
  0
LINE
  5
B7B
  8
0
 10
305.64414046037768
 20
244.67111735544401
 30
0.0
 11
802.64414046037734
 21
244.67111735544401
 31
0.0
  0
ARC
  5
B7C
  8
0
 10
305.64414046037768
 20
243.17111735544401
 30
0.0
 40
1.5
 50
90.0
 51
180.0
  0
ARC
  5
B7D
  8
0
 10
319.14414046037768
 20
389.60370635544382
 30
0.0
 40
22.0
 50
132.98588599999991
 51
227.01411400000001
  0
LINE
  5
B7E
  8
0
 10
787.14414046037734
 20
407.8106423554438
 30
0.0
 11
321.14414046037768
 21
407.8106423554438
 31
0.0
  0
ARC
  5
B7F
  8
0
 10
787.14414046037734
 20
400.8106423554438
 30
0.0
 40
7.0
 50
270.00002500000249
 51
89.99997800000169
  0
ARC
  5
B80
  8
0
 10
138.41414046037761
 20
411.64657635544398
 30
0.0
 40
2.25
 50
90.0
 51
270.0
  0
LINE
  5
B81
  8
0
 10
120.3499234603775
 20
415.80370635544409
 30
0.0
 11
121.5906794603776
 21
380.2730843554441
 31
0.0
  0
LINE
  5
B82
  8
0
 10
223.16414046037781
 20
468.80370635544432
 30
0.0
 11
223.16414046037769
 21
418.80370635544409
 31
0.0
  0
LINE
  5
B83
  8
0
 10
138.41414046037761
 20
409.39657635544398
 30
0.0
 11
159.91414046037761
 21
409.39657635544398
 31
0.0
  0
ARC
  5
B84
  8
0
 10
136.58154246037759
 20
380.79657635544407
 30
0.0
 40
15.0
 50
182.00000000000361
 51
270.0
  0
LINE
  5
B85
  8
0
 10
177.97835746037779
 20
415.80370635544409
 30
0.0
 11
176.73760146037759
 21
380.2730843554441
 31
0.0
  0
ARC
  5
B86
  8
0
 10
159.91414046037761
 20
411.64657635544398
 30
0.0
 40
2.25
 50
270.0
 51
90.0
  0
ARC
  5
B87
  8
0
 10
161.7467384603776
 20
380.79657635544407
 30
0.0
 40
15.0
 50
270.00001600000292
 51
357.99999999999642
  0
LINE
  5
B88
  8
0
 10
136.36058946037761
 20
365.7965763554439
 30
0.0
 11
161.9676954603776
 21
365.7965763554439
 31
0.0
  0
LINE
  5
B89
  8
0
 10
149.1641424603776
 20
398.8107733554441
 30
0.0
 11
149.1641424603776
 21
379.711164355444
 31
0.0
  0
CIRCLE
  5
B8A
  8
0
 10
149.1641424603776
 20
389.59677035544411
 30
0.0
 40
16.093477
  0
ARC
  5
B8B
  8
0
 10
305.64414046037768
 20
350.30370635544392
 30
0.0
 40
1.5
 50
180.0
 51
270.0
  0
LINE
  5
B8C
  8
0
 10
305.64414046037768
 20
348.80370635544392
 30
0.0
 11
802.64414046037734
 21
348.80370635544392
 31
0.0
  0
LINE
  5
B8D
  8
0
 10
804.14414046037746
 20
350.30370635544392
 30
0.0
 11
804.14414046037746
 21
414.3037053554437
 31
0.0
  0
LINE
  5
B8E
  8
0
 10
304.14414046037768
 20
414.30370635544381
 30
0.0
 11
304.14414046037768
 21
350.30370635544392
 31
0.0
  0
ARC
  5
B8F
  8
0
 10
802.64414046037734
 20
350.30370635544392
 30
0.0
 40
1.5
 50
270.0
 51
0.0
  0
ARC
  5
B90
  8
0
 10
305.64414046037768
 20
414.30370635544381
 30
0.0
 40
1.5
 50
90.0
 51
180.0
  0
LINE
  5
B91
  8
0
 10
304.34414046037767
 20
415.80370635544381
 30
0.0
 11
304.34414046037767
 21
418.80370635544381
 31
0.0
  0
ARC
  5
B92
  8
0
 10
802.64414046037734
 20
414.30370635544381
 30
0.0
 40
1.5
 50
359.99995500000199
 51
90.000040999998916
  0
LINE
  5
B93
  8
0
 10
803.94414046037764
 20
415.80370635544381
 30
0.0
 11
304.34414046037767
 21
415.80370635544381
 31
0.0
  0
LINE
  5
B94
  8
0
 10
803.94414046037764
 20
418.80370635544381
 30
0.0
 11
803.94414046037764
 21
415.80370635544381
 31
0.0
  0
LINE
  5
B95
  8
0
 10
304.34414046037767
 20
418.80370635544381
 30
0.0
 11
803.94414046037764
 21
418.80370635544381
 31
0.0
  0
LINE
  5
B96
  8
0
 10
138.41414046037761
 20
413.89657635544398
 30
0.0
 11
159.91414046037761
 21
413.89657635544398
 31
0.0
  0
LINE
  5
B97
  8
0
 10
223.96414046037759
 20
418.80370635544409
 30
0.0
 11
223.96414046037759
 21
415.80370635544409
 31
0.0
  0
ARC
  5
B98
  8
0
 10
320.64414046037768
 20
372.31064235544392
 30
0.0
 40
6.5
 50
90.0
 51
270.0
  0
LINE
  5
B99
  8
0
 10
320.64414046037768
 20
365.81064235544392
 30
0.0
 11
787.64414046037746
 21
365.81064235544392
 31
0.0
  0
ARC
  5
B9A
  8
0
 10
787.64414046037746
 20
372.31064235544392
 30
0.0
 40
6.5
 50
270.0000219999983
 51
89.999975999998881
  0
LINE
  5
B9B
  8
0
 10
787.64414046037746
 20
378.81064235544392
 30
0.0
 11
320.64414046037768
 21
378.81064235544392
 31
0.0
  0
TEXT
  5
C4B
  8
0
 62
     3
 10
0.0
 20
0.0
 30
0.0
 40
10.0
  1
SQL1550
  7
STANDARD1
  0
ENDSEC
  0
EOF
