  0
SECTION
  2
HEADER
  9
$ACADVER
  1
AC1009
  9
$INSBASE
 10
0.0
 20
0.0
 30
0.0
  9
$EXTMIN
 10
0.0
 20
-2.960436562073669
 30
0.0
  9
$EXTMAX
 10
237.38163514619771
 20
145.29933241377259
 30
0.0
  9
$LIMMIN
 10
0.0
 20
0.0
  9
$LIMMAX
 10
375.0
 20
270.0
  9
$ORTHOMODE
 70
     0
  9
$REGENMODE
 70
     1
  9
$FILLMODE
 70
     1
  9
$QTEXTMODE
 70
     0
  9
$MIRRTEXT
 70
     0
  9
$DRAGMODE
 70
     2
  9
$LTSCALE
 40
5.0
  9
$OSMODE
 70
    55
  9
$ATTMODE
 70
     1
  9
$TEXTSIZE
 40
5.0
  9
$TRACEWID
 40
0.05
  9
$TEXTSTYLE
  7
STANDARD
  9
$CLAYER
  8
0
  9
$CELTYPE
  6
BYLAYER
  9
$CECOLOR
 62
   256
  9
$DIMSCALE
 40
1.0
  9
$DIMASZ
 40
3.0
  9
$DIMEXO
 40
2.0
  9
$DIMDLI
 40
0.38
  9
$DIMRND
 40
0.0
  9
$DIMDLE
 40
0.0
  9
$DIMEXE
 40
2.0
  9
$DIMTP
 40
0.0
  9
$DIMTM
 40
0.0
  9
$DIMTXT
 40
3.0
  9
$DIMCEN
 40
0.09
  9
$DIMTSZ
 40
0.0
  9
$DIMTOL
 70
     0
  9
$DIMLIM
 70
     0
  9
$DIMTIH
 70
     0
  9
$DIMTOH
 70
     0
  9
$DIMSE1
 70
     0
  9
$DIMSE2
 70
     0
  9
$DIMTAD
 70
     1
  9
$DIMZIN
 70
     0
  9
$DIMBLK
  1

  9
$DIMASO
 70
     0
  9
$DIMSHO
 70
     0
  9
$DIMPOST
  1

  9
$DIMAPOST
  1

  9
$DIMALT
 70
     0
  9
$DIMALTD
 70
     2
  9
$DIMALTF
 40
25.399999999999999
  9
$DIMLFAC
 40
1.0
  9
$DIMTOFL
 70
     0
  9
$DIMTVP
 40
1.6000000000000001
  9
$DIMTIX
 70
     1
  9
$DIMSOXD
 70
     0
  9
$DIMSAH
 70
     0
  9
$DIMBLK1
  1

  9
$DIMBLK2
  1

  9
$DIMSTYLE
  2
STANDARD
  9
$DIMCLRD
 70
     0
  9
$DIMCLRE
 70
     0
  9
$DIMCLRT
 70
     0
  9
$DIMTFAC
 40
1.0
  9
$DIMGAP
 40
0.09
  9
$LUNITS
 70
     2
  9
$LUPREC
 70
     4
  9
$SKETCHINC
 40
0.1
  9
$FILLETRAD
 40
16.0
  9
$AUNITS
 70
     0
  9
$AUPREC
 70
     0
  9
$MENU
  1
E:\r13\win\SUPPORT\ACAD
  9
$ELEVATION
 40
0.0
  9
$PELEVATION
 40
0.0
  9
$THICKNESS
 40
0.0
  9
$LIMCHECK
 70
     0
  9
$BLIPMODE
 70
     0
  9
$CHAMFERA
 40
0.0
  9
$CHAMFERB
 40
0.0
  9
$SKPOLY
 70
     0
  9
$TDCREATE
 40
2449839.7831712961
  9
$TDUPDATE
 40
2456598.5560949072
  9
$TDINDWG
 40
0.0666086574
  9
$TDUSRTIMER
 40
0.0666086574
  9
$USRTIMER
 70
     1
  9
$ANGBASE
 50
0.0
  9
$ANGDIR
 70
     0
  9
$PDMODE
 70
     0
  9
$PDSIZE
 40
0.0
  9
$PLINEWID
 40
0.0
  9
$COORDS
 70
     1
  9
$SPLFRAME
 70
     0
  9
$SPLINETYPE
 70
     6
  9
$SPLINESEGS
 70
     8
  9
$ATTDIA
 70
     0
  9
$ATTREQ
 70
     1
  9
$HANDLING
 70
     1
  9
$HANDSEED
  5
20C
  9
$SURFTAB1
 70
     6
  9
$SURFTAB2
 70
     6
  9
$SURFTYPE
 70
     6
  9
$SURFU
 70
     6
  9
$SURFV
 70
     6
  9
$UCSNAME
  2

  9
$UCSORG
 10
0.0
 20
0.0
 30
0.0
  9
$UCSXDIR
 10
1.0
 20
0.0
 30
0.0
  9
$UCSYDIR
 10
0.0
 20
1.0
 30
0.0
  9
$PUCSNAME
  2

  9
$PUCSORG
 10
0.0
 20
0.0
 30
0.0
  9
$PUCSXDIR
 10
1.0
 20
0.0
 30
0.0
  9
$PUCSYDIR
 10
0.0
 20
1.0
 30
0.0
  9
$USERI1
 70
     0
  9
$USERI2
 70
     1
  9
$USERI3
 70
     1
  9
$USERI4
 70
     0
  9
$USERI5
 70
     0
  9
$USERR1
 40
0.0
  9
$USERR2
 40
0.0
  9
$USERR3
 40
0.0
  9
$USERR4
 40
0.0
  9
$USERR5
 40
0.0
  9
$WORLDVIEW
 70
     1
  9
$SHADEDGE
 70
     3
  9
$SHADEDIF
 70
    70
  9
$TILEMODE
 70
     1
  9
$MAXACTVP
 70
    16
  9
$PLIMCHECK
 70
     0
  9
$PEXTMIN
 10
1.0000000000000000E+020
 20
1.0000000000000000E+020
 30
1.0000000000000000E+020
  9
$PEXTMAX
 10
-1.0000000000000000E+020
 20
-1.0000000000000000E+020
 30
-1.0000000000000000E+020
  9
$PLIMMIN
 10
0.0
 20
0.0
  9
$PLIMMAX
 10
12.0
 20
9.0
  9
$UNITMODE
 70
     0
  9
$VISRETAIN
 70
     0
  9
$PLINEGEN
 70
     0
  9
$PSLTSCALE
 70
     0
  0
ENDSEC
  0
SECTION
  2
TABLES
  0
TABLE
  2
VPORT
 70
     1
  0
VPORT
  2
*ACTIVE
 70
     0
 10
0.0
 20
0.0
 11
1.0
 21
1.0
 12
187.4942783906524
 22
197.0509055860143
 13
0.0
 23
0.0
 14
10.0
 24
10.0
 15
10.0
 25
10.0
 16
0.0
 26
0.0
 36
1.0
 17
0.0
 27
0.0
 37
0.0
 40
403.57315882993248
 41
1.7807262569832401
 42
50.0
 43
0.0
 44
0.0
 50
0.0
 51
0.0
 71
     0
 72
   500
 73
     1
 74
     0
 75
     0
 76
     0
 77
     0
 78
     2
  0
ENDTAB
  0
TABLE
  2
LTYPE
 70
     3
  0
LTYPE
  2
CONTINUOUS
 70
     0
  3
Solid Line
 72
    65
 73
     0
 40
0.0
  0
LTYPE
  2
CENTER
 70
     0
  3
____ _ ____ _ ____ _ ____ _ ____ _ ____ _ ____
 72
    65
 73
     4
 40
2.0
 49
1.25
 49
-0.25
 49
0.25
 49
-0.25
  0
LTYPE
  2
PHANTOM2
 70
     0
  3
___ _ _ ___ _ _ ___ _ _ ___ _ _
 72
    65
 73
     6
 40
1.25
 49
0.625
 49
-0.125
 49
0.125
 49
-0.125
 49
0.125
 49
-0.125
  0
ENDTAB
  0
TABLE
  2
LAYER
 70
     3
  0
LAYER
  2
0
 70
     0
 62
     7
  6
CONTINUOUS
  0
LAYER
  2
1
 70
     0
 62
     1
  6
CENTER
  0
LAYER
  2
3
 70
     0
 62
     3
  6
CONTINUOUS
  0
ENDTAB
  0
TABLE
  2
STYLE
 70
     2
  0
STYLE
  2
STANDARD
 70
     0
 40
0.0
 41
1.0
 50
0.0
 71
     0
 42
5.0
  3
TXT
  4
BIGFONT
  0
STYLE
  2
STANDARD1
 70
     0
 40
0.0
 41
1.0
 50
0.0
 71
     0
 42
3.0
  3
txt
  4

  0
ENDTAB
  0
TABLE
  2
VIEW
 70
     0
  0
ENDTAB
  0
TABLE
  2
UCS
 70
     0
  0
ENDTAB
  0
TABLE
  2
APPID
 70
     3
  0
APPID
  2
ACAD
 70
     0
  0
APPID
  2
ACAD_MLEADERVER
 70
     0
  0
APPID
  2
ACAD_NAV_VCDISPLAY
 70
     0
  0
ENDTAB
  0
TABLE
  2
DIMSTYLE
 70
     1
  0
DIMSTYLE
  2
STANDARD
 70
     0
  3

  4

  5

  6

  7

 40
1.0
 41
0.18
 42
0.0625
 43
0.38
 44
0.18
 45
0.0
 46
0.0
 47
0.0
 48
0.0
140
0.18
141
0.09
142
0.0
143
25.399999999999999
144
1.0
145
0.0
146
1.0
147
0.09
 71
     0
 72
     0
 73
     1
 74
     1
 75
     0
 76
     0
 77
     0
 78
     0
170
     0
171
     2
172
     0
173
     0
174
     0
175
     0
176
     0
177
     0
178
     0
  0
ENDTAB
  0
ENDSEC
  0
SECTION
  2
BLOCKS
  0
BLOCK
  8
0
  2
$MODEL_SPACE
 70
     0
 10
0.0
 20
0.0
 30
0.0
  3
$MODEL_SPACE
  1

  0
ENDBLK
  5
12
  8
0
  0
BLOCK
 67
     1
  8
0
  2
$PAPER_SPACE
 70
     0
 10
0.0
 20
0.0
 30
0.0
  3
$PAPER_SPACE
  1

  0
ENDBLK
  5
19
 67
     1
  8
0
  0
ENDSEC
  0
SECTION
  2
ENTITIES
  0
LINE
  5
6D
  8
0
 10
134.38163514619799
 20
145.29933241377259
 30
0.0
 11
116.8469963468588
 21
144.08164916381841
 31
0.0
  0
LINE
  5
6E
  8
0
 10
116.8469963468588
 20
130.51701566372671
 30
0.0
 11
134.38163514619799
 21
129.29933241377259
 31
0.0
  0
LINE
  5
6F
  8
0
 10
134.38163514619799
 20
129.29933241377259
 30
0.0
 11
172.60317569874769
 21
129.29933241377259
 31
0.0
  0
LINE
  5
70
  8
0
 10
172.60317569874769
 20
145.2993324137725
 30
0.0
 11
134.38163514619799
 21
145.29933241377259
 31
0.0
  0
ARC
  5
71
  8
0
 10
172.60317569874769
 20
132.79933241377259
 30
0.0
 40
3.4999999999999849
 50
270.0
 51
352.91811830971483
  0
ARC
  5
72
  8
0
 10
172.60317569874769
 20
141.7993324137725
 30
0.0
 40
3.4999999999999849
 50
7.0818816902860551
 51
90.0
  0
ARC
  5
73
  8
0
 10
116.88163514619799
 20
143.58285045333469
 30
0.0
 40
0.5
 50
93.972495940753134
 51
180.0000000000004
  0
ARC
  5
74
  8
0
 10
116.88163514619799
 20
131.01581437421049
 30
0.0
 40
0.5
 50
180.0000000000004
 51
266.02750405924678
  0
ARC
  5
75
  8
0
 10
136.38163514619799
 20
137.29933241377259
 30
0.0
 40
39.999999999999993
 50
352.91811830971483
 51
7.0818816902856501
  0
LINE
  5
76
  8
0
 10
114.38163514619799
 20
130.79933241377259
 30
0.0
 11
115.88163514619799
 21
130.79933241377259
 31
0.0
  0
LINE
  5
77
  8
0
 10
115.88163514619799
 20
143.79933241377259
 30
0.0
 11
114.38163514619799
 21
143.79933241377259
 31
0.0
  0
LINE
  5
78
  8
0
 10
115.88163514619799
 20
130.79933241377259
 30
0.0
 11
116.3816355261776
 21
131.2993323616185
 31
0.0
  0
LINE
  5
79
  8
0
 10
116.3816355261776
 20
143.29933246592671
 30
0.0
 11
115.88163514619799
 21
143.79933241377259
 31
0.0
  0
LINE
  5
7A
  8
0
 10
101.5816351461981
 20
141.29933241377259
 30
0.0
 11
100.38163514619799
 21
140.0993324137726
 31
0.0
  0
LINE
  5
7B
  8
0
 10
100.38163514619799
 20
134.49933241377261
 30
0.0
 11
101.5816351461981
 21
133.29933241377259
 31
0.0
  0
LINE
  5
7C
  8
0
 10
101.5816351461981
 20
133.29933241377259
 30
0.0
 11
108.38163514619799
 21
133.29933222378281
 31
0.0
  0
LINE
  5
7D
  8
0
 10
108.38163514619799
 20
141.29933260376239
 30
0.0
 11
101.5816351461981
 21
141.29933241377259
 31
0.0
  0
LINE
  5
7E
  8
0
 10
134.38163514619799
 20
129.29933241377259
 30
0.0
 11
134.38163514619799
 21
145.29933241377259
 31
0.0
  0
LINE
  5
7F
  8
0
 10
116.38163514619799
 20
131.01581437421061
 30
0.0
 11
116.38163514619799
 21
143.5828504533346
 31
0.0
  0
LINE
  5
80
  8
0
 10
114.38163514619799
 20
130.79933241377259
 30
0.0
 11
114.38163514619799
 21
132.1758570307928
 31
0.0
  0
LINE
  5
81
  8
0
 10
114.38163514619799
 20
132.1758570307928
 30
0.0
 11
108.88163514619799
 21
132.1758570307928
 31
0.0
  0
LINE
  5
82
  8
0
 10
108.88163514619799
 20
142.42280779675241
 30
0.0
 11
108.88163514619799
 21
132.1758570307928
 31
0.0
  0
LINE
  5
83
  8
0
 10
108.88163514619799
 20
142.42280779675241
 30
0.0
 11
114.38163514619799
 21
142.42280779675241
 31
0.0
  0
LINE
  5
84
  8
0
 10
114.38163514619799
 20
142.42280779675241
 30
0.0
 11
114.38163514619799
 21
143.79933241377259
 31
0.0
  0
LINE
  5
85
  8
0
 10
115.88163514619799
 20
130.79933241377259
 30
0.0
 11
115.88163514619799
 21
143.79933241377259
 31
0.0
  0
LINE
  5
86
  8
0
 10
108.784759374085
 20
132.2993325255313
 30
0.0
 11
108.38163514619799
 21
132.29933241377259
 31
0.0
  0
LINE
  5
87
  8
0
 10
108.38163514619799
 20
132.29933241377259
 30
0.0
 11
108.38163514619799
 21
142.29933241377259
 31
0.0
  0
LINE
  5
88
  8
0
 10
108.38163514619799
 20
142.29933241377259
 30
0.0
 11
108.784759374085
 21
142.29933230201391
 31
0.0
  0
LINE
  5
89
  8
0
 10
108.784759374085
 20
142.29933230201391
 30
0.0
 11
108.88163514619799
 21
142.42280779675241
 31
0.0
  0
LINE
  5
8A
  8
0
 10
108.88163514619799
 20
132.1758570307928
 30
0.0
 11
108.784759374085
 21
132.2993325255313
 31
0.0
  0
LINE
  5
8B
  8
0
 10
100.38163514619799
 20
134.49933241377261
 30
0.0
 11
100.38163514619799
 21
140.0993324137726
 31
0.0
  0
LINE
  5
8C
  8
0
 10
101.5816351461981
 20
141.29933241377259
 30
0.0
 11
101.5816351461981
 21
133.29933241377259
 31
0.0
  0
LINE
  5
8D
  8
0
 10
116.8469963468588
 20
144.08164916381841
 30
0.0
 11
116.8469963468588
 21
130.51701566372671
 31
0.0
  0
LINE
  5
8E
  8
0
 10
172.60317569874769
 20
129.29933241377259
 30
0.0
 11
172.60317569874769
 21
145.2993324137725
 31
0.0
  0
LINE
  5
8F
  8
0
 10
176.0764741078963
 20
142.2308392630876
 30
0.0
 11
176.0764741078963
 21
132.36782556445749
 31
0.0
  0
LINE
  5
90
  8
1
 10
95.381635146197993
 20
137.29933241377259
 30
0.0
 11
181.38163514619799
 21
137.29933241377259
 31
0.0
  0
LINE
  5
93
  8
3
 10
100.981635146198
 20
133.89933241377261
 30
0.0
 11
107.181635146198
 21
133.89933241377261
 31
0.0
  0
LINE
  5
95
  8
0
 10
107.181635146198
 20
133.89933241377261
 30
0.0
 11
107.181635146198
 21
133.29933241377259
 31
0.0
  0
LINE
  5
96
  8
3
 10
100.981635146198
 20
140.69933241377259
 30
0.0
 11
107.181635146198
 21
140.69933241377259
 31
0.0
  0
LINE
  5
97
  8
0
 10
107.181635146198
 20
140.69933241377259
 30
0.0
 11
107.181635146198
 21
141.29933241377259
 31
0.0
  0
LINE
  5
98
  8
0
 10
107.181635146198
 20
133.29933241377259
 30
0.0
 11
107.181635146198
 21
141.29933241377259
 31
0.0
  0
LINE
  5
99
  8
0
 10
107.181635146198
 20
133.29933241377259
 30
0.0
 11
107.181635146198
 21
133.29933241377259
 31
0.0
  0
CIRCLE
  5
9A
  8
0
 10
224.38163514619791
 20
79.430151356646974
 30
0.0
 40
4.9315068493149639
  0
CIRCLE
  5
9B
  8
0
 10
224.38163514619791
 20
79.430151356646974
 30
0.0
 40
7.999999999999857
  0
CIRCLE
  5
9C
  8
0
 10
52.3816351461981
 20
79.430151356647016
 30
0.0
 40
6.7823167500457746
  0
CIRCLE
  5
9D
  8
0
 10
52.3816351461981
 20
79.430151356647016
 30
0.0
 40
7.999999999999889
  0
CIRCLE
  5
9E
  8
0
 10
52.38163514619805
 20
79.430151356647016
 30
0.0
 40
2.8000000000000109
  0
CIRCLE
  5
9F
  8
0
 10
52.38163514619805
 20
79.430151356647016
 30
0.0
 40
4.0
  0
LINE
  5
A0
  8
0
 10
57.381635034439391
 20
83.430151546636864
 30
0.0
 11
57.3816351461981
 21
82.746776147002436
 31
0.0
  0
ARC
  5
A1
  8
0
 10
52.38163514619805
 20
79.430151356647016
 30
0.0
 40
6.0000000000000098
 50
33.557309761921331
 51
146.44269023807911
  0
LINE
  5
A2
  8
0
 10
47.3816351461981
 20
82.746776147002436
 30
0.0
 11
47.381635257956809
 21
83.430151546636822
 31
0.0
  0
LINE
  5
A3
  8
0
 10
47.381635257956809
 20
83.430151546636822
 30
0.0
 11
47.258159763218252
 21
83.430151356647016
 31
0.0
  0
ARC
  5
A4
  8
0
 10
52.38163514619805
 20
79.430151356647016
 30
0.0
 40
6.5000000000000071
 50
37.979872444853449
 51
142.02012755514809
  0
LINE
  5
A5
  8
0
 10
57.505110529177898
 20
83.430151356647073
 30
0.0
 11
57.381635034439391
 21
83.430151546636864
 31
0.0
  0
LINE
  5
A6
  8
0
 10
57.381635146198171
 20
76.11352656629164
 30
0.0
 11
57.3816351461981
 21
82.746776147002436
 31
0.0
  0
ARC
  5
A7
  8
0
 10
52.38163514619805
 20
79.430151356647016
 30
0.0
 40
6.0000000000000071
 50
213.55730976192089
 51
326.44269023808067
  0
LINE
  5
A8
  8
0
 10
47.3816351461981
 20
82.746776147002436
 30
0.0
 11
47.381635146198157
 21
76.11352656629164
 31
0.0
  0
LINE
  5
A9
  8
0
 10
47.381635257956873
 20
75.430151166657211
 30
0.0
 11
47.381635146198157
 21
76.11352656629164
 31
0.0
  0
LINE
  5
AA
  8
0
 10
57.381635146198171
 20
76.11352656629164
 30
0.0
 11
57.381635034439462
 21
75.430151166657268
 31
0.0
  0
LINE
  5
AB
  8
0
 10
57.381635034439462
 20
75.430151166657268
 30
0.0
 11
57.505110529177948
 21
75.430151356647073
 31
0.0
  0
ARC
  5
AC
  8
0
 10
52.38163514619805
 20
79.430151356647016
 30
0.0
 40
6.5000000000000018
 50
217.97987244485191
 51
322.02012755514858
  0
LINE
  5
AD
  8
0
 10
47.258159763218323
 20
75.430151356647016
 30
0.0
 11
47.381635257956873
 21
75.430151166657211
 31
0.0
  0
ARC
  5
AE
  8
0
 10
52.38163514619805
 20
79.430151356647016
 30
0.0
 40
6.5000000000000018
 50
322.02012755514858
 51
37.979872444853449
  0
ARC
  5
AF
  8
0
 10
52.38163514619805
 20
79.430151356647016
 30
0.0
 40
6.5000000000000071
 50
142.02012755514809
 51
217.97987244485191
  0
CIRCLE
  5
B0
  8
3
 10
52.38163514619805
 20
79.430151356647016
 30
0.0
 40
3.3999999999999768
  0
LINE
  5
B1
  8
1
 10
95.381635146197993
 20
79.430151356646974
 30
0.0
 11
181.38163514619799
 21
79.430151356646974
 31
0.0
  0
LINE
  5
B2
  8
3
 10
114.38163514619799
 20
83.430151356647016
 30
0.0
 11
108.88163514619799
 21
75.430151356646988
 31
0.0
  0
LINE
  5
B3
  8
3
 10
114.38163514619799
 20
75.430151356647045
 30
0.0
 11
108.88163514619799
 21
83.430151356646959
 31
0.0
  0
LINE
  5
B4
  8
0
 10
115.88163514619799
 20
72.930151356646988
 30
0.0
 11
116.38163514619799
 21
73.430151356646988
 31
0.0
  0
LINE
  5
B5
  8
0
 10
116.38163514619799
 20
85.430151356646988
 30
0.0
 11
115.88163514619799
 21
85.930151356646974
 31
0.0
  0
LINE
  5
B6
  8
0
 10
108.88163514619799
 20
72.930151356646988
 30
0.0
 11
115.88163514619799
 21
72.930151356646988
 31
0.0
  0
LINE
  5
B7
  8
0
 10
115.88163514619799
 20
85.930151356646974
 30
0.0
 11
108.88163514619799
 21
85.930151356646974
 31
0.0
  0
LINE
  5
B8
  8
0
 10
108.38163514619799
 20
73.430151356646988
 30
0.0
 11
108.88163514619799
 21
72.930151356646988
 31
0.0
  0
LINE
  5
B9
  8
0
 10
108.88163514619799
 20
85.930151356646974
 30
0.0
 11
108.38163514619799
 21
85.430151356646988
 31
0.0
  0
LINE
  5
BA
  8
0
 10
101.5816351461981
 20
75.430151356646988
 30
0.0
 11
108.38163514619799
 21
75.430151166657183
 31
0.0
  0
LINE
  5
BB
  8
0
 10
108.38163514619799
 20
83.430151546636793
 30
0.0
 11
101.5816351461981
 21
83.430151356646974
 31
0.0
  0
LINE
  5
BC
  8
0
 10
101.5816351461981
 20
83.430151356646974
 30
0.0
 11
100.38163514619799
 21
82.230151356646999
 31
0.0
  0
LINE
  5
BD
  8
0
 10
100.38163514619799
 20
76.630151356646977
 30
0.0
 11
101.5816351461981
 21
75.430151356646988
 31
0.0
  0
LINE
  5
BE
  8
0
 10
115.88163514619799
 20
72.930151356646988
 30
0.0
 11
115.88163514619799
 21
85.930151356646974
 31
0.0
  0
LINE
  5
BF
  8
0
 10
116.38163514619799
 20
85.430151356646988
 30
0.0
 11
116.38163514619799
 21
73.430151356646988
 31
0.0
  0
LINE
  5
C0
  8
0
 10
114.38163514619799
 20
75.430151356647045
 30
0.0
 11
114.38163514619799
 21
83.430151356647016
 31
0.0
  0
LINE
  5
C1
  8
0
 10
114.38163514619799
 20
83.430151356647016
 30
0.0
 11
108.88163514619799
 21
83.430151356647016
 31
0.0
  0
LINE
  5
C2
  8
0
 10
108.88163514619799
 20
85.930151356646974
 30
0.0
 11
108.88163514619799
 21
83.430151356647016
 31
0.0
  0
LINE
  5
C3
  8
0
 10
108.88163514619799
 20
75.430151356647045
 30
0.0
 11
108.88163514619799
 21
72.930151356646988
 31
0.0
  0
LINE
  5
C4
  8
0
 10
108.88163514619799
 20
75.430151356647045
 30
0.0
 11
114.38163514619799
 21
75.430151356647045
 31
0.0
  0
LINE
  5
C5
  8
0
 10
108.38163514619799
 20
73.430151356646988
 30
0.0
 11
108.38163514619799
 21
76.11352656629164
 31
0.0
  0
LINE
  5
C6
  8
0
 10
108.38163514619799
 20
76.11352656629164
 30
0.0
 11
108.784759374085
 21
75.430151166657211
 31
0.0
  0
LINE
  5
C7
  8
0
 10
108.784759374085
 20
75.430151166657211
 30
0.0
 11
108.88163514619799
 21
75.430151356647045
 31
0.0
  0
LINE
  5
C8
  8
0
 10
108.784759374085
 20
83.430151546636822
 30
0.0
 11
108.38163514619799
 21
82.746776147002436
 31
0.0
  0
LINE
  5
C9
  8
0
 10
108.38163514619799
 20
82.746776147002436
 30
0.0
 11
108.38163514619799
 21
85.430151356646988
 31
0.0
  0
LINE
  5
CA
  8
0
 10
108.88163514619799
 20
83.430151356647016
 30
0.0
 11
108.784759374085
 21
83.430151546636822
 31
0.0
  0
LINE
  5
CB
  8
0
 10
108.38163514619799
 20
76.11352656629164
 30
0.0
 11
108.38163514619799
 21
82.746776147002436
 31
0.0
  0
LINE
  5
CC
  8
0
 10
101.5816351461981
 20
83.430151356647016
 30
0.0
 11
101.5816351461981
 21
75.430151356646988
 31
0.0
  0
LINE
  5
CD
  8
0
 10
100.38163514619799
 20
76.630151356646977
 30
0.0
 11
100.38163514619799
 21
82.230151356646999
 31
0.0
  0
LINE
  5
CE
  8
0
 10
134.3816356826398
 20
71.430150976667363
 30
0.0
 11
116.8469963468588
 21
72.647834606601165
 31
0.0
  0
ARC
  5
CF
  8
0
 10
116.88163514619799
 20
73.14663331708492
 30
0.0
 40
0.5
 50
180.0000000000004
 51
266.02750405924678
  0
LINE
  5
D0
  8
0
 10
116.38163514619799
 20
73.146633317084977
 30
0.0
 11
116.38163514619799
 21
73.430151356646988
 31
0.0
  0
LINE
  5
D1
  8
0
 10
116.38163514619799
 20
85.430151356646988
 30
0.0
 11
116.38163514619799
 21
85.713669396208985
 31
0.0
  0
ARC
  5
D2
  8
0
 10
116.88163514619799
 20
85.713669396209056
 30
0.0
 40
0.5
 50
93.972495940753134
 51
180.0000000000004
  0
LINE
  5
D3
  8
0
 10
116.8469963468588
 20
86.212468106692825
 30
0.0
 11
134.3816356826398
 21
87.430151736626598
 31
0.0
  0
LINE
  5
D4
  8
0
 10
134.3816356826398
 20
87.430151736626598
 30
0.0
 11
172.60317569874769
 21
87.430151356646931
 31
0.0
  0
ARC
  5
D5
  8
0
 10
172.60317569874769
 20
83.930151356646988
 30
0.0
 40
3.4999999999999831
 50
7.0818816902856501
 51
90.0
  0
ARC
  5
D6
  8
0
 10
136.38163514619799
 20
79.430151356646974
 30
0.0
 40
39.999999999999993
 50
352.91811830971483
 51
7.0818816902856501
  0
ARC
  5
D7
  8
0
 10
172.60317569874769
 20
74.930151356646974
 30
0.0
 40
3.4999999999999849
 50
270.0
 51
352.91811830971483
  0
LINE
  5
D8
  8
0
 10
172.60317569874769
 20
71.430151356647045
 30
0.0
 11
134.3816356826398
 21
71.430150976667363
 31
0.0
  0
LINE
  5
D9
  8
3
 10
100.981635146198
 20
76.030151356647011
 30
0.0
 11
107.181635146198
 21
76.030151356647011
 31
0.0
  0
LINE
  5
DA
  8
0
 10
107.181635146198
 20
76.030151356647011
 30
0.0
 11
107.181635146198
 21
75.430151356646988
 31
0.0
  0
LINE
  5
DB
  8
3
 10
100.981635146198
 20
82.830151356646994
 30
0.0
 11
107.181635146198
 21
82.830151356646994
 31
0.0
  0
LINE
  5
DC
  8
0
 10
107.181635146198
 20
82.830151356646994
 30
0.0
 11
107.181635146198
 21
83.430151356646974
 31
0.0
  0
LINE
  5
DD
  8
0
 10
107.181635146198
 20
75.430151356646988
 30
0.0
 11
107.181635146198
 21
83.430151356646974
 31
0.0
  0
LINE
  5
DE
  8
0
 10
107.181635146198
 20
75.430151356646988
 30
0.0
 11
107.181635146198
 21
75.430151356646988
 31
0.0
  0
LINE
  5
DF
  8
1
 10
39.381635146198278
 20
79.430151356647016
 30
0.0
 11
65.38163514619805
 21
79.430151356647016
 31
0.0
  0
LINE
  5
E0
  8
1
 10
52.381635146198171
 20
92.430151356646888
 30
0.0
 11
52.381635146198171
 21
66.43015135664713
 31
0.0
  0
LINE
  5
E1
  8
1
 10
224.38163514619791
 20
92.430151356646846
 30
0.0
 11
224.38163514619791
 21
66.43015135664713
 31
0.0
  0
LINE
  5
E2
  8
1
 10
237.38163514619771
 20
79.430151356646974
 30
0.0
 11
211.38163514619799
 21
79.430151356646974
 31
0.0
  0
LINE
  5
E3
  8
0
 10
176.0764741078963
 20
84.361658205961987
 30
0.0
 11
176.0764741078963
 21
74.498644507332003
 31
0.0
  0
LINE
  5
E4
  8
0
 10
172.60317569874769
 20
71.430151356647045
 30
0.0
 11
172.60317569874769
 21
87.430151356646974
 31
0.0
  0
LINE
  5
E5
  8
0
 10
134.38163514619799
 20
71.430150976667363
 30
0.0
 11
134.38163514619799
 21
87.430151356646974
 31
0.0
  0
LINE
  5
E6
  8
0
 10
116.8469963468588
 20
86.212468106692825
 30
0.0
 11
116.8469963468588
 21
72.647834606601165
 31
0.0
  0
TEXT
  5
179
  8
0
 62
     3
 10
0.0
 20
0.0
 30
0.0
 40
10.0
  1
SRG16
  7
STANDARD1
  0
ENDSEC
  0
EOF
