  0
SECTION
  2
HEADER
  9
$ACADVER
  1
AC1009
  9
$INSBASE
 10
0.0
 20
0.0
 30
0.0
  9
$EXTMIN
 10
0.0
 20
-2.960436562073669
 30
0.0
  9
$EXTMAX
 10
224.6235828820725
 20
156.6014467501781
 30
0.0
  9
$LIMMIN
 10
0.0
 20
0.0
  9
$LIMMAX
 10
375.0
 20
270.0
  9
$ORTHOMODE
 70
     0
  9
$REGENMODE
 70
     1
  9
$FILLMODE
 70
     1
  9
$QTEXTMODE
 70
     0
  9
$MIRRTEXT
 70
     0
  9
$DRAGMODE
 70
     2
  9
$LTSCALE
 40
5.0
  9
$OSMODE
 70
    55
  9
$ATTMODE
 70
     1
  9
$TEXTSIZE
 40
4.000000000000048
  9
$TRACEWID
 40
0.05
  9
$TEXTSTYLE
  7
STANDARD
  9
$CLAYER
  8
0
  9
$CELTYPE
  6
BYLAYER
  9
$CECOLOR
 62
   256
  9
$DIMSCALE
 40
1.0
  9
$DIMASZ
 40
3.0
  9
$DIMEXO
 40
2.0
  9
$DIMDLI
 40
0.3799999999999999
  9
$DIMRND
 40
0.0
  9
$DIMDLE
 40
0.0
  9
$DIMEXE
 40
2.0
  9
$DIMTP
 40
0.0
  9
$DIMTM
 40
0.0
  9
$DIMTXT
 40
3.2000000000000002
  9
$DIMCEN
 40
0.0
  9
$DIMTSZ
 40
0.0
  9
$DIMTOL
 70
     0
  9
$DIMLIM
 70
     0
  9
$DIMTIH
 70
     0
  9
$DIMTOH
 70
     0
  9
$DIMSE1
 70
     0
  9
$DIMSE2
 70
     0
  9
$DIMTAD
 70
     1
  9
$DIMZIN
 70
     0
  9
$DIMBLK
  1

  9
$DIMASO
 70
     0
  9
$DIMSHO
 70
     0
  9
$DIMPOST
  1

  9
$DIMAPOST
  1

  9
$DIMALT
 70
     0
  9
$DIMALTD
 70
     2
  9
$DIMALTF
 40
25.399999999999999
  9
$DIMLFAC
 40
1.0
  9
$DIMTOFL
 70
     1
  9
$DIMTVP
 40
0.0
  9
$DIMTIX
 70
     1
  9
$DIMSOXD
 70
     0
  9
$DIMSAH
 70
     0
  9
$DIMBLK1
  1

  9
$DIMBLK2
  1

  9
$DIMSTYLE
  2
STANDARD
  9
$DIMCLRD
 70
     0
  9
$DIMCLRE
 70
     0
  9
$DIMCLRT
 70
     0
  9
$DIMTFAC
 40
1.0
  9
$DIMGAP
 40
0.09
  9
$LUNITS
 70
     2
  9
$LUPREC
 70
     4
  9
$SKETCHINC
 40
0.1
  9
$FILLETRAD
 40
7.0
  9
$AUNITS
 70
     0
  9
$AUPREC
 70
     0
  9
$MENU
  1
E:\r13\win\SUPPORT\ACAD
  9
$ELEVATION
 40
0.0
  9
$PELEVATION
 40
0.0
  9
$THICKNESS
 40
0.0
  9
$LIMCHECK
 70
     0
  9
$BLIPMODE
 70
     0
  9
$CHAMFERA
 40
0.0
  9
$CHAMFERB
 40
0.0
  9
$SKPOLY
 70
     0
  9
$TDCREATE
 40
2449840.6332291672
  9
$TDUPDATE
 40
2456598.5562362848
  9
$TDINDWG
 40
0.0031238194
  9
$TDUSRTIMER
 40
0.0031238194
  9
$USRTIMER
 70
     1
  9
$ANGBASE
 50
0.0
  9
$ANGDIR
 70
     0
  9
$PDMODE
 70
     0
  9
$PDSIZE
 40
0.0
  9
$PLINEWID
 40
0.0
  9
$COORDS
 70
     1
  9
$SPLFRAME
 70
     0
  9
$SPLINETYPE
 70
     6
  9
$SPLINESEGS
 70
     8
  9
$ATTDIA
 70
     0
  9
$ATTREQ
 70
     1
  9
$HANDLING
 70
     1
  9
$HANDSEED
  5
33C
  9
$SURFTAB1
 70
     6
  9
$SURFTAB2
 70
     6
  9
$SURFTYPE
 70
     6
  9
$SURFU
 70
     6
  9
$SURFV
 70
     6
  9
$UCSNAME
  2

  9
$UCSORG
 10
0.0
 20
0.0
 30
0.0
  9
$UCSXDIR
 10
1.0
 20
0.0
 30
0.0
  9
$UCSYDIR
 10
0.0
 20
1.0
 30
0.0
  9
$PUCSNAME
  2

  9
$PUCSORG
 10
0.0
 20
0.0
 30
0.0
  9
$PUCSXDIR
 10
1.0
 20
0.0
 30
0.0
  9
$PUCSYDIR
 10
0.0
 20
1.0
 30
0.0
  9
$USERI1
 70
     0
  9
$USERI2
 70
     1
  9
$USERI3
 70
     0
  9
$USERI4
 70
     0
  9
$USERI5
 70
     0
  9
$USERR1
 40
0.0
  9
$USERR2
 40
0.0
  9
$USERR3
 40
0.0
  9
$USERR4
 40
0.0
  9
$USERR5
 40
0.0
  9
$WORLDVIEW
 70
     1
  9
$SHADEDGE
 70
     3
  9
$SHADEDIF
 70
    70
  9
$TILEMODE
 70
     1
  9
$MAXACTVP
 70
    16
  9
$PLIMCHECK
 70
     0
  9
$PEXTMIN
 10
1.0000000000000000E+020
 20
1.0000000000000000E+020
 30
1.0000000000000000E+020
  9
$PEXTMAX
 10
-1.0000000000000000E+020
 20
-1.0000000000000000E+020
 30
-1.0000000000000000E+020
  9
$PLIMMIN
 10
0.0
 20
0.0
  9
$PLIMMAX
 10
12.0
 20
9.0
  9
$UNITMODE
 70
     0
  9
$VISRETAIN
 70
     0
  9
$PLINEGEN
 70
     0
  9
$PSLTSCALE
 70
     0
  0
ENDSEC
  0
SECTION
  2
TABLES
  0
TABLE
  2
VPORT
 70
     1
  0
VPORT
  2
*ACTIVE
 70
     0
 10
0.0
 20
0.0
 11
1.0
 21
1.0
 12
187.4942783906524
 22
197.0509055860143
 13
0.0
 23
0.0
 14
10.0
 24
10.0
 15
10.0
 25
10.0
 16
0.0
 26
0.0
 36
1.0
 17
0.0
 27
0.0
 37
0.0
 40
403.57315882993248
 41
1.7807262569832401
 42
50.0
 43
0.0
 44
0.0
 50
0.0
 51
0.0
 71
     0
 72
   500
 73
     1
 74
     0
 75
     0
 76
     0
 77
     0
 78
     0
  0
ENDTAB
  0
TABLE
  2
LTYPE
 70
     4
  0
LTYPE
  2
CONTINUOUS
 70
     0
  3
Solid Line
 72
    65
 73
     0
 40
0.0
  0
LTYPE
  2
CENTER
 70
     0
  3
____ _ ____ _ ____ _ ____ _ ____ _ ____ _ ____
 72
    65
 73
     4
 40
2.0
 49
1.25
 49
-0.25
 49
0.25
 49
-0.25
  0
LTYPE
  2
HIDDEN
 70
     0
  3
_ _ _ _ _ _ _ _ _ _ _ _ _ _ _ _ _ _ _ _ _ _ _
 72
    65
 73
     2
 40
0.375
 49
0.25
 49
-0.125
  0
LTYPE
  2
PHANTOM2
 70
     0
  3
___ _ _ ___ _ _ ___ _ _ ___ _ _
 72
    65
 73
     6
 40
1.25
 49
0.625
 49
-0.125
 49
0.125
 49
-0.125
 49
0.125
 49
-0.125
  0
ENDTAB
  0
TABLE
  2
LAYER
 70
     4
  0
LAYER
  2
0
 70
     0
 62
     7
  6
CONTINUOUS
  0
LAYER
  2
1
 70
     0
 62
     1
  6
CENTER
  0
LAYER
  2
2
 70
     0
 62
     2
  6
HIDDEN
  0
LAYER
  2
3
 70
     0
 62
     3
  6
CONTINUOUS
  0
ENDTAB
  0
TABLE
  2
STYLE
 70
     2
  0
STYLE
  2
STANDARD
 70
     0
 40
0.0
 41
1.0
 50
0.0
 71
     0
 42
4.000000000000048
  3
TXT
  4
BIGFONT
  0
STYLE
  2
STANDARD1
 70
     0
 40
0.0
 41
1.0
 50
0.0
 71
     0
 42
3.0
  3
txt
  4

  0
ENDTAB
  0
TABLE
  2
VIEW
 70
     1
  0
VIEW
  2
ALL
 70
     0
 40
270.0
 10
220.99159663865549
 20
135.0
 41
0.0
 11
0.0
 21
0.0
 31
1.0
 12
0.0
 22
0.0
 32
0.0
 42
0.0
 43
0.0
 44
0.0
 50
0.0
 71
     0
  0
ENDTAB
  0
TABLE
  2
UCS
 70
     0
  0
ENDTAB
  0
TABLE
  2
APPID
 70
     3
  0
APPID
  2
ACAD
 70
     0
  0
APPID
  2
ACAD_MLEADERVER
 70
     0
  0
APPID
  2
ACAD_NAV_VCDISPLAY
 70
     0
  0
ENDTAB
  0
TABLE
  2
DIMSTYLE
 70
     1
  0
DIMSTYLE
  2
STANDARD
 70
     0
  3

  4

  5

  6

  7

 40
1.0
 41
0.18
 42
0.0625
 43
0.38
 44
0.18
 45
0.0
 46
0.0
 47
0.0
 48
0.0
140
0.18
141
0.09
142
0.0
143
25.399999999999999
144
1.0
145
0.0
146
1.0
147
0.09
 71
     0
 72
     0
 73
     1
 74
     1
 75
     0
 76
     0
 77
     0
 78
     0
170
     0
171
     2
172
     0
173
     0
174
     0
175
     0
176
     0
177
     0
178
     0
  0
ENDTAB
  0
ENDSEC
  0
SECTION
  2
BLOCKS
  0
BLOCK
  8
0
  2
$MODEL_SPACE
 70
     0
 10
0.0
 20
0.0
 30
0.0
  3
$MODEL_SPACE
  1

  0
ENDBLK
  5
1A0
  8
0
  0
BLOCK
 67
     1
  8
0
  2
$PAPER_SPACE
 70
     0
 10
0.0
 20
0.0
 30
0.0
  3
$PAPER_SPACE
  1

  0
ENDBLK
  5
19E
 67
     1
  8
0
  0
ENDSEC
  0
SECTION
  2
ENTITIES
  0
LINE
  5
111
  8
1
 10
164.62358288207309
 20
147.60144675017841
 30
0.0
 11
26.623582882073549
 21
147.60144675017841
 31
0.0
  0
LINE
  5
112
  8
1
 10
35.623582882073322
 20
156.6014467501781
 30
0.0
 11
35.623582882073322
 21
138.60144675017801
 31
0.0
  0
LINE
  5
113
  8
1
 10
155.62358288207329
 20
156.6014467501781
 30
0.0
 11
155.62358288207329
 21
138.60144675017801
 31
0.0
  0
LINE
  5
114
  8
1
 10
35.62358288207335
 20
80.601446750178468
 30
0.0
 11
35.623582882073393
 21
39.101446750178603
 31
0.0
  0
LINE
  5
115
  8
0
 10
30.623582882073379
 20
52.601446750178567
 30
0.0
 11
40.62358288207335
 21
52.601446750178582
 31
0.0
  0
LINE
  5
116
  8
1
 10
42.623582882073372
 20
87.601446750178454
 30
0.0
 11
148.62358288207341
 21
87.601446750178255
 31
0.0
  0
LINE
  5
117
  8
2
 10
33.123582882073379
 20
52.601446750178567
 30
0.0
 11
33.123582882073379
 21
62.601446750178567
 31
0.0
  0
LINE
  5
118
  8
2
 10
33.556582882072689
 20
52.601446750178567
 30
0.0
 11
33.556582882072689
 21
65.601446750178397
 31
0.0
  0
LINE
  5
119
  8
2
 10
37.690582882074068
 20
52.601446750178567
 30
0.0
 11
37.690582882074068
 21
65.601446750178397
 31
0.0
  0
LINE
  5
11A
  8
2
 10
38.123582882073379
 20
52.601446750178582
 30
0.0
 11
38.123582882073379
 21
62.601446750178567
 31
0.0
  0
LINE
  5
11B
  8
2
 10
33.556582882072689
 20
65.601446750178397
 30
0.0
 11
35.623582882073379
 21
66.843425649708635
 31
0.0
  0
LINE
  5
11C
  8
2
 10
37.690582882074068
 20
65.601446750178397
 30
0.0
 11
35.623582882073379
 21
66.843425649708635
 31
0.0
  0
LINE
  5
11D
  8
2
 10
33.123582882073379
 20
62.601446750178567
 30
0.0
 11
38.123582882073379
 21
62.601446750178567
 31
0.0
  0
LINE
  5
11E
  8
2
 10
33.556582882072689
 20
65.601446750178397
 30
0.0
 11
37.690582882074068
 21
65.601446750178397
 31
0.0
  0
LINE
  5
122
  8
0
 10
160.62358288207341
 20
52.601446750178567
 30
0.0
 11
150.62358288207329
 21
52.601446750178567
 31
0.0
  0
LINE
  5
123
  8
1
 10
155.62358288207341
 20
80.601446750178241
 30
0.0
 11
155.62358288207341
 21
39.101446750178603
 31
0.0
  0
LINE
  5
124
  8
1
 10
215.62358288207281
 20
96.601446750178297
 30
0.0
 11
215.62358288207409
 21
39.101446750178567
 31
0.0
  0
LINE
  5
125
  8
0
 10
210.6235828820738
 20
52.601446750178582
 30
0.0
 11
220.6235828820738
 21
52.601446750178582
 31
0.0
  0
ARC
  5
126
  8
1
 10
42.62358288207335
 20
80.601446750178468
 30
0.0
 40
7.0
 50
89.999999999999844
 51
179.99999999999989
  0
ARC
  5
127
  8
1
 10
148.62358288207341
 20
80.601446750178241
 30
0.0
 40
7.0
 50
0.0
 51
89.999999999999844
  0
LINE
  5
128
  8
1
 10
224.6235828820725
 20
87.601446750178255
 30
0.0
 11
206.62358288207301
 21
87.601446750178255
 31
0.0
  0
LINE
  5
129
  8
0
 10
210.62358288207301
 20
87.601446750178255
 30
0.0
 11
210.6235828820738
 21
52.601446750178582
 31
0.0
  0
LINE
  5
12A
  8
0
 10
220.62358288207301
 20
87.601446750178255
 30
0.0
 11
220.6235828820738
 21
52.601446750178582
 31
0.0
  0
ARC
  5
12B
  8
0
 10
215.62358288207301
 20
87.601446750178255
 30
0.0
 40
5.0
 50
0.0
 51
180.0
  0
ARC
  5
12C
  8
2
 10
215.62358288207301
 20
87.601446750178255
 30
0.0
 40
5.0
 50
180.0
 51
0.0
  0
LINE
  5
12D
  8
0
 10
155.62358288207329
 20
152.60144675017841
 30
0.0
 11
35.623582882073322
 21
152.60144675017841
 31
0.0
  0
LINE
  5
12E
  8
0
 10
155.62358288207329
 20
142.60144675017841
 30
0.0
 11
35.623582882073322
 21
142.60144675017841
 31
0.0
  0
ARC
  5
12F
  8
0
 10
35.62358288207335
 20
147.60144675017841
 30
0.0
 40
5.0
 50
90.000000000000313
 51
269.99999999999972
  0
ARC
  5
130
  8
2
 10
35.6235828820733
 20
147.60144675017841
 30
0.0
 40
5.0
 50
270.00000000000028
 51
89.999999999999687
  0
ARC
  5
131
  8
0
 10
155.62358288207329
 20
147.60144675017841
 30
0.0
 40
5.0
 50
270.00000000000028
 51
89.999999999999687
  0
ARC
  5
132
  8
2
 10
155.62358288207329
 20
147.60144675017841
 30
0.0
 40
5.0
 50
90.000000000000313
 51
269.99999999999972
  0
LINE
  5
133
  8
0
 10
42.623582882073372
 20
92.601446750178454
 30
0.0
 11
148.62358288207341
 21
92.601446750178255
 31
0.0
  0
LINE
  5
134
  8
0
 10
42.623582882073372
 20
82.601446750178454
 30
0.0
 11
148.62358288207341
 21
82.601446750178255
 31
0.0
  0
ARC
  5
135
  8
0
 10
42.62358288207335
 20
80.601446750178468
 30
0.0
 40
2.0
 50
89.999999999999844
 51
179.99999999999989
  0
ARC
  5
136
  8
0
 10
42.62358288207335
 20
80.601446750178468
 30
0.0
 40
12.0
 50
89.999999999999844
 51
179.99999999999989
  0
LINE
  5
137
  8
0
 10
30.62358288207335
 20
80.601446750178468
 30
0.0
 11
30.62358288207335
 21
52.601446750178553
 31
0.0
  0
LINE
  5
138
  8
0
 10
40.62358288207335
 20
80.601446750178468
 30
0.0
 11
40.62358288207335
 21
52.601446750178553
 31
0.0
  0
ARC
  5
139
  8
0
 10
148.62358288207341
 20
80.601446750178241
 30
0.0
 40
2.0
 50
0.0
 51
89.999999999999844
  0
ARC
  5
13A
  8
0
 10
148.62358288207341
 20
80.601446750178241
 30
0.0
 40
12.0
 50
0.0
 51
89.999999999999844
  0
LINE
  5
13B
  8
0
 10
160.62358288207341
 20
80.601446750178241
 30
0.0
 11
160.62358288207341
 21
52.601446750178567
 31
0.0
  0
LINE
  5
13C
  8
0
 10
150.62358288207341
 20
80.601446750178241
 30
0.0
 11
150.62358288207341
 21
52.601446750178567
 31
0.0
  0
LINE
  5
148
  8
2
 10
213.5565828820726
 20
65.601446750176535
 30
0.0
 11
217.69058288207401
 21
65.601446750176535
 31
0.0
  0
LINE
  5
149
  8
2
 10
213.12358288207329
 20
62.601446750176699
 30
0.0
 11
218.12358288207329
 21
62.601446750176699
 31
0.0
  0
LINE
  5
14A
  8
2
 10
217.69058288207401
 20
65.601446750176535
 30
0.0
 11
215.62358288207329
 21
66.843425649706774
 31
0.0
  0
LINE
  5
14B
  8
2
 10
213.5565828820726
 20
65.601446750176535
 30
0.0
 11
215.62358288207329
 21
66.843425649706774
 31
0.0
  0
LINE
  5
14C
  8
2
 10
218.12358288207329
 20
52.601446750178582
 30
0.0
 11
218.12358288207329
 21
62.601446750176699
 31
0.0
  0
LINE
  5
14D
  8
2
 10
217.69058288207401
 20
52.601446750178582
 30
0.0
 11
217.69058288207401
 21
65.601446750176535
 31
0.0
  0
LINE
  5
14E
  8
2
 10
213.5565828820726
 20
52.601446750178582
 30
0.0
 11
213.5565828820726
 21
65.601446750176535
 31
0.0
  0
LINE
  5
14F
  8
2
 10
213.12358288207329
 20
52.601446750178582
 30
0.0
 11
213.12358288207329
 21
62.601446750176699
 31
0.0
  0
LINE
  5
153
  8
2
 10
153.55658288207269
 20
65.601446750178397
 30
0.0
 11
157.69058288207401
 21
65.601446750178397
 31
0.0
  0
LINE
  5
154
  8
2
 10
153.12358288207329
 20
62.601446750178567
 30
0.0
 11
158.12358288207341
 21
62.601446750178567
 31
0.0
  0
LINE
  5
155
  8
2
 10
157.69058288207401
 20
65.601446750178397
 30
0.0
 11
155.62358288207341
 21
66.843425649708635
 31
0.0
  0
LINE
  5
156
  8
2
 10
153.55658288207269
 20
65.601446750178397
 30
0.0
 11
155.62358288207341
 21
66.843425649708635
 31
0.0
  0
LINE
  5
157
  8
2
 10
158.12358288207341
 20
52.601446750178567
 30
0.0
 11
158.12358288207341
 21
62.601446750178567
 31
0.0
  0
LINE
  5
158
  8
2
 10
157.6905828820741
 20
52.601446750178567
 30
0.0
 11
157.69058288207401
 21
65.601446750178397
 31
0.0
  0
LINE
  5
159
  8
2
 10
153.55658288207269
 20
52.601446750178567
 30
0.0
 11
153.55658288207269
 21
65.601446750178397
 31
0.0
  0
LINE
  5
15A
  8
2
 10
153.12358288207341
 20
52.601446750178567
 30
0.0
 11
153.12358288207329
 21
62.601446750178567
 31
0.0
  0
LINE
  5
1AD
  8
0
 10
33.123582882073947
 20
52.601446750178567
 30
0.0
 11
33.123582882073947
 21
48.60144675017856
 31
0.0
  0
LINE
  5
1AE
  8
3
 10
33.574832882073849
 20
52.60144675017856
 30
0.0
 11
33.574832882073913
 21
48.60144675017856
 31
0.0
  0
LINE
  5
1AF
  8
3
 10
37.672332882073931
 20
52.60144675017856
 30
0.0
 11
37.672332882073988
 21
48.60144675017856
 31
0.0
  0
LINE
  5
1B0
  8
0
 10
38.123582882073833
 20
52.601446750178567
 30
0.0
 11
38.123582882073833
 21
48.60144675017856
 31
0.0
  0
LINE
  5
1B1
  8
0
 10
30.62358288207383
 20
48.60144675017856
 30
0.0
 11
30.62358288207383
 21
47.601446750178582
 31
0.0
  0
ARC
  5
1B2
  8
0
 10
35.6235828820611
 20
51.801916187134303
 30
0.0
 40
7.6427344100359971
 50
252.4120462259749
 51
287.58795377422672
  0
ARC
  5
1B3
  8
0
 10
32.159481266936268
 20
46.203839975842733
 30
0.0
 40
2.044658198744437
 50
244.3842474666811
 51
304.38424746792759
  0
LINE
  5
1B4
  8
0
 10
31.00478072855697
 20
44.516447367005163
 30
0.0
 11
31.723582882071241
 21
44.10144675017861
 31
0.0
  0
LINE
  5
1B5
  8
0
 10
37.932983958832438
 20
44.516447367015282
 30
0.0
 11
37.93298395882028
 21
47.601446750178582
 31
0.0
  0
LINE
  5
1B6
  8
0
 10
33.314181805315457
 20
47.60144675017861
 30
0.0
 11
33.314181805315457
 21
44.516447367013292
 31
0.0
  0
LINE
  5
1B7
  8
0
 10
31.00478072855719
 20
44.516447367005213
 30
0.0
 11
31.00478072855697
 21
47.60144675017861
 31
0.0
  0
LINE
  5
1B8
  8
2
 10
37.290249548740583
 20
57.601446750178567
 30
0.0
 11
33.956916215407198
 21
57.601446750178567
 31
0.0
  0
LINE
  5
1B9
  8
2
 10
38.123582882073833
 20
56.768113416845232
 30
0.0
 11
37.290249548740583
 21
57.601446750178567
 31
0.0
  0
LINE
  5
1BA
  8
2
 10
33.956916215407198
 20
57.601446750178567
 30
0.0
 11
33.123582882073833
 21
56.768113416845232
 31
0.0
  0
LINE
  5
1BB
  8
2
 10
33.123582882073833
 20
56.768113416845232
 30
0.0
 11
38.123582882073833
 21
56.768113416845232
 31
0.0
  0
LINE
  5
1BC
  8
0
 10
30.623582882073951
 20
48.601446750178567
 30
0.0
 11
40.623582882073833
 21
48.60144675017856
 31
0.0
  0
LINE
  5
1BD
  8
0
 10
40.623582882073833
 20
48.60144675017856
 30
0.0
 11
40.62358288207394
 21
47.601446750178582
 31
0.0
  0
LINE
  5
1BE
  8
0
 10
30.623582882073951
 20
47.601446750178567
 30
0.0
 11
40.62358288207394
 21
47.601446750178567
 31
0.0
  0
LINE
  5
1BF
  8
0
 10
40.242385035590921
 20
44.516447367005163
 30
0.0
 11
39.523582882076767
 21
44.10144675017861
 31
0.0
  0
ARC
  5
1C0
  8
0
 10
39.08768449721174
 20
46.203839975842733
 30
0.0
 40
2.044658198744437
 50
235.61575253207229
 51
295.61575253331893
  0
LINE
  5
1C1
  8
0
 10
40.242385035590921
 20
44.516447367005163
 30
0.0
 11
40.242385035590921
 21
47.60144675017856
 31
0.0
  0
LINE
  5
1C2
  8
0
 10
39.523582882074948
 20
44.10144675017856
 30
0.0
 11
31.723582882071351
 21
44.10144675017861
 31
0.0
  0
LINE
  5
1C3
  8
0
 10
31.623582882074182
 20
48.601446750178567
 30
0.0
 11
39.623582882072583
 21
48.601446750178567
 31
0.0
  0
LINE
  5
1C5
  8
0
 10
153.12358288207389
 20
52.601446750178567
 30
0.0
 11
153.12358288207389
 21
48.601446750178553
 31
0.0
  0
LINE
  5
1C6
  8
3
 10
153.57483288207379
 20
52.601446750178553
 30
0.0
 11
153.57483288207391
 21
48.601446750178553
 31
0.0
  0
LINE
  5
1C7
  8
3
 10
157.6723328820739
 20
52.601446750178553
 30
0.0
 11
157.67233288207399
 21
48.601446750178553
 31
0.0
  0
LINE
  5
1C8
  8
0
 10
158.1235828820738
 20
52.601446750178567
 30
0.0
 11
158.1235828820738
 21
48.601446750178553
 31
0.0
  0
LINE
  5
1C9
  8
0
 10
150.6235828820738
 20
48.601446750178553
 30
0.0
 11
150.6235828820738
 21
47.601446750178567
 31
0.0
  0
ARC
  5
1CA
  8
0
 10
155.6235828820611
 20
51.801916187134289
 30
0.0
 40
7.6427344100359971
 50
252.4120462259749
 51
287.58795377422672
  0
ARC
  5
1CB
  8
0
 10
152.1594812669363
 20
46.203839975842719
 30
0.0
 40
2.044658198744437
 50
244.3842474666811
 51
304.38424746792731
  0
LINE
  5
1CC
  8
0
 10
151.00478072855691
 20
44.516447367005149
 30
0.0
 11
151.72358288207121
 21
44.10144675017861
 31
0.0
  0
LINE
  5
1CD
  8
0
 10
157.93298395883241
 20
44.516447367015267
 30
0.0
 11
157.93298395882019
 21
47.601446750178567
 31
0.0
  0
LINE
  5
1CE
  8
0
 10
153.3141818053154
 20
47.60144675017861
 30
0.0
 11
153.3141818053154
 21
44.516447367013278
 31
0.0
  0
LINE
  5
1CF
  8
0
 10
151.00478072855719
 20
44.516447367005213
 30
0.0
 11
151.00478072855691
 21
47.60144675017861
 31
0.0
  0
LINE
  5
1D0
  8
2
 10
157.29024954874049
 20
57.601446750178567
 30
0.0
 11
153.9569162154072
 21
57.601446750178567
 31
0.0
  0
LINE
  5
1D1
  8
2
 10
158.1235828820738
 20
56.768113416845232
 30
0.0
 11
157.29024954874049
 21
57.601446750178567
 31
0.0
  0
LINE
  5
1D2
  8
2
 10
153.9569162154072
 20
57.601446750178567
 30
0.0
 11
153.1235828820738
 21
56.768113416845232
 31
0.0
  0
LINE
  5
1D3
  8
2
 10
153.1235828820738
 20
56.768113416845232
 30
0.0
 11
158.1235828820738
 21
56.768113416845232
 31
0.0
  0
LINE
  5
1D4
  8
0
 10
150.62358288207389
 20
48.60144675017856
 30
0.0
 11
160.6235828820738
 21
48.601446750178553
 31
0.0
  0
LINE
  5
1D5
  8
0
 10
160.6235828820738
 20
48.601446750178553
 30
0.0
 11
160.62358288207389
 21
47.601446750178567
 31
0.0
  0
LINE
  5
1D6
  8
0
 10
150.62358288207389
 20
47.601446750178567
 30
0.0
 11
160.62358288207389
 21
47.601446750178567
 31
0.0
  0
LINE
  5
1D7
  8
0
 10
160.2423850355909
 20
44.516447367005149
 30
0.0
 11
159.52358288207679
 21
44.10144675017861
 31
0.0
  0
ARC
  5
1D8
  8
0
 10
159.08768449721171
 20
46.203839975842719
 30
0.0
 40
2.044658198744437
 50
235.61575253207261
 51
295.61575253331893
  0
LINE
  5
1D9
  8
0
 10
160.2423850355909
 20
44.516447367005149
 30
0.0
 11
160.2423850355909
 21
47.601446750178553
 31
0.0
  0
LINE
  5
1DA
  8
0
 10
159.52358288207489
 20
44.101446750178553
 30
0.0
 11
151.7235828820713
 21
44.10144675017861
 31
0.0
  0
LINE
  5
1DB
  8
0
 10
151.62358288207409
 20
48.60144675017856
 30
0.0
 11
159.62358288207261
 21
48.60144675017856
 31
0.0
  0
LINE
  5
1DD
  8
0
 10
213.12358288207409
 20
48.601446750178681
 30
0.0
 11
213.12358288207409
 21
52.601446750178653
 31
0.0
  0
LINE
  5
1DE
  8
0
 10
218.1235828820742
 20
48.601446750178653
 30
0.0
 11
218.12358288207409
 21
52.601446750178653
 31
0.0
  0
LINE
  5
1DF
  8
3
 10
213.57483288207419
 20
48.601446750178667
 30
0.0
 11
213.57483288207411
 21
52.601446750178653
 31
0.0
  0
LINE
  5
1E0
  8
3
 10
217.6723328820743
 20
48.601446750178653
 30
0.0
 11
217.6723328820743
 21
52.601446750178653
 31
0.0
  0
LINE
  5
1E1
  8
0
 10
210.62358288207409
 20
48.601446750178667
 30
0.0
 11
210.62358288207409
 21
47.601446750178688
 31
0.0
  0
LINE
  5
1E2
  8
0
 10
211.62358288207389
 20
44.159181777098283
 30
0.0
 11
211.6235828820742
 21
47.601446750178681
 31
0.0
  0
ARC
  5
1E3
  8
0
 10
213.62358288207409
 20
49.935890783425911
 30
0.0
 40
5.7767090063276196
 50
249.7438419996561
 51
290.25615800034387
  0
LINE
  5
1E4
  8
0
 10
211.62358288207409
 20
44.159181777098283
 30
0.0
 11
211.7235828820755
 21
44.10144675017856
 31
0.0
  0
LINE
  5
1E5
  8
0
 10
215.6235828820702
 20
47.601446750178653
 30
0.0
 11
215.62358288208139
 21
44.516447367005107
 31
0.0
  0
LINE
  5
1E6
  8
2
 10
213.1235828820742
 20
56.768113416845239
 30
0.0
 11
218.1235828820742
 21
56.768113416845239
 31
0.0
  0
LINE
  5
1E7
  8
2
 10
213.9569162154076
 20
57.601446750178582
 30
0.0
 11
213.1235828820742
 21
56.768113416845239
 31
0.0
  0
LINE
  5
1E8
  8
2
 10
218.1235828820742
 20
56.768113416845239
 30
0.0
 11
217.290249548741
 21
57.601446750178582
 31
0.0
  0
LINE
  5
1E9
  8
2
 10
217.290249548741
 20
57.601446750178582
 30
0.0
 11
213.9569162154076
 21
57.601446750178582
 31
0.0
  0
LINE
  5
1EA
  8
0
 10
210.62358288207409
 20
47.601446750178681
 30
0.0
 11
220.62358288207409
 21
47.601446750178681
 31
0.0
  0
LINE
  5
1EB
  8
0
 10
220.62358288207409
 20
48.601446750178667
 30
0.0
 11
220.62358288207409
 21
47.601446750178688
 31
0.0
  0
LINE
  5
1EC
  8
0
 10
210.62358288207409
 20
48.601446750178681
 30
0.0
 11
220.62358288207409
 21
48.601446750178667
 31
0.0
  0
LINE
  5
1ED
  8
0
 10
219.62358288207409
 20
44.159181777098283
 30
0.0
 11
219.5235828820727
 21
44.10144675017856
 31
0.0
  0
ARC
  5
1EE
  8
0
 10
217.62358288207409
 20
49.935890783425911
 30
0.0
 40
5.7767090063276196
 50
249.7438419996561
 51
290.25615800034387
  0
LINE
  5
1EF
  8
0
 10
219.62358288207429
 20
44.159181777098283
 30
0.0
 11
219.62358288207389
 21
47.601446750178681
 31
0.0
  0
LINE
  5
1F0
  8
0
 10
219.5235828820727
 20
44.10144675017856
 30
0.0
 11
211.72358288207539
 21
44.10144675017856
 31
0.0
  0
TEXT
  5
2A3
  8
0
 62
     3
 10
0.0
 20
0.0
 30
0.0
 40
10.0
  1
SRH1-120
  7
STANDARD1
  0
ENDSEC
  0
EOF
