  0
SECTION
  2
HEADER
  9
$ACADVER
  1
AC1009
  9
$INSBASE
 10
0.0
 20
0.0
 30
0.0
  9
$EXTMIN
 10
0.0
 20
-2.960436562073669
 30
0.0
  9
$EXTMAX
 10
569.16773188460752
 20
333.56535086921701
 30
0.0
  9
$LIMMIN
 10
0.0
 20
0.0
  9
$LIMMAX
 10
750.0
 20
540.0
  9
$ORTHOMODE
 70
     0
  9
$REGENMODE
 70
     1
  9
$FILLMODE
 70
     1
  9
$QTEXTMODE
 70
     0
  9
$MIRRTEXT
 70
     0
  9
$DRAGMODE
 70
     2
  9
$LTSCALE
 40
10.0
  9
$OSMODE
 70
    55
  9
$ATTMODE
 70
     1
  9
$TEXTSIZE
 40
4.000000000000048
  9
$TRACEWID
 40
0.05
  9
$TEXTSTYLE
  7
STANDARD
  9
$CLAYER
  8
0
  9
$CELTYPE
  6
BYLAYER
  9
$CECOLOR
 62
   256
  9
$DIMSCALE
 40
2.0
  9
$DIMASZ
 40
3.0
  9
$DIMEXO
 40
2.0
  9
$DIMDLI
 40
0.3799999999999999
  9
$DIMRND
 40
0.0
  9
$DIMDLE
 40
0.0
  9
$DIMEXE
 40
2.0
  9
$DIMTP
 40
0.0
  9
$DIMTM
 40
0.0
  9
$DIMTXT
 40
3.2000000000000002
  9
$DIMCEN
 40
0.0
  9
$DIMTSZ
 40
0.0
  9
$DIMTOL
 70
     0
  9
$DIMLIM
 70
     0
  9
$DIMTIH
 70
     0
  9
$DIMTOH
 70
     0
  9
$DIMSE1
 70
     0
  9
$DIMSE2
 70
     0
  9
$DIMTAD
 70
     1
  9
$DIMZIN
 70
     0
  9
$DIMBLK
  1

  9
$DIMASO
 70
     0
  9
$DIMSHO
 70
     0
  9
$DIMPOST
  1

  9
$DIMAPOST
  1

  9
$DIMALT
 70
     0
  9
$DIMALTD
 70
     2
  9
$DIMALTF
 40
25.399999999999999
  9
$DIMLFAC
 40
1.0
  9
$DIMTOFL
 70
     1
  9
$DIMTVP
 40
0.0
  9
$DIMTIX
 70
     1
  9
$DIMSOXD
 70
     0
  9
$DIMSAH
 70
     0
  9
$DIMBLK1
  1

  9
$DIMBLK2
  1

  9
$DIMSTYLE
  2
STANDARD
  9
$DIMCLRD
 70
     0
  9
$DIMCLRE
 70
     0
  9
$DIMCLRT
 70
     0
  9
$DIMTFAC
 40
1.0
  9
$DIMGAP
 40
0.09
  9
$LUNITS
 70
     2
  9
$LUPREC
 70
     4
  9
$SKETCHINC
 40
0.1
  9
$FILLETRAD
 40
7.0
  9
$AUNITS
 70
     0
  9
$AUPREC
 70
     0
  9
$MENU
  1
E:\r13\win\SUPPORT\ACAD
  9
$ELEVATION
 40
0.0
  9
$PELEVATION
 40
0.0
  9
$THICKNESS
 40
0.0
  9
$LIMCHECK
 70
     0
  9
$BLIPMODE
 70
     0
  9
$CHAMFERA
 40
0.0
  9
$CHAMFERB
 40
0.0
  9
$SKPOLY
 70
     0
  9
$TDCREATE
 40
2449840.6332870368
  9
$TDUPDATE
 40
2456598.5563406488
  9
$TDINDWG
 40
0.0032579167
  9
$TDUSRTIMER
 40
0.0032579167
  9
$USRTIMER
 70
     1
  9
$ANGBASE
 50
0.0
  9
$ANGDIR
 70
     0
  9
$PDMODE
 70
     0
  9
$PDSIZE
 40
0.0
  9
$PLINEWID
 40
0.0
  9
$COORDS
 70
     1
  9
$SPLFRAME
 70
     0
  9
$SPLINETYPE
 70
     6
  9
$SPLINESEGS
 70
     8
  9
$ATTDIA
 70
     0
  9
$ATTREQ
 70
     1
  9
$HANDLING
 70
     1
  9
$HANDSEED
  5
33E
  9
$SURFTAB1
 70
     6
  9
$SURFTAB2
 70
     6
  9
$SURFTYPE
 70
     6
  9
$SURFU
 70
     6
  9
$SURFV
 70
     6
  9
$UCSNAME
  2

  9
$UCSORG
 10
0.0
 20
0.0
 30
0.0
  9
$UCSXDIR
 10
1.0
 20
0.0
 30
0.0
  9
$UCSYDIR
 10
0.0
 20
1.0
 30
0.0
  9
$PUCSNAME
  2

  9
$PUCSORG
 10
0.0
 20
0.0
 30
0.0
  9
$PUCSXDIR
 10
1.0
 20
0.0
 30
0.0
  9
$PUCSYDIR
 10
0.0
 20
1.0
 30
0.0
  9
$USERI1
 70
     0
  9
$USERI2
 70
     1
  9
$USERI3
 70
     0
  9
$USERI4
 70
     0
  9
$USERI5
 70
     0
  9
$USERR1
 40
0.0
  9
$USERR2
 40
0.0
  9
$USERR3
 40
0.0
  9
$USERR4
 40
0.0
  9
$USERR5
 40
0.0
  9
$WORLDVIEW
 70
     1
  9
$SHADEDGE
 70
     3
  9
$SHADEDIF
 70
    70
  9
$TILEMODE
 70
     1
  9
$MAXACTVP
 70
    16
  9
$PLIMCHECK
 70
     0
  9
$PEXTMIN
 10
1.0000000000000000E+020
 20
1.0000000000000000E+020
 30
1.0000000000000000E+020
  9
$PEXTMAX
 10
-1.0000000000000000E+020
 20
-1.0000000000000000E+020
 30
-1.0000000000000000E+020
  9
$PLIMMIN
 10
0.0
 20
0.0
  9
$PLIMMAX
 10
12.0
 20
9.0
  9
$UNITMODE
 70
     0
  9
$VISRETAIN
 70
     0
  9
$PLINEGEN
 70
     0
  9
$PSLTSCALE
 70
     0
  0
ENDSEC
  0
SECTION
  2
TABLES
  0
TABLE
  2
VPORT
 70
     1
  0
VPORT
  2
*ACTIVE
 70
     0
 10
0.0
 20
0.0
 11
1.0
 21
1.0
 12
374.98855678130462
 22
394.89452070385119
 13
0.0
 23
0.0
 14
20.0
 24
20.0
 15
20.0
 25
20.0
 16
0.0
 26
0.0
 36
1.0
 17
0.0
 27
0.0
 37
0.0
 40
802.76084457946263
 41
1.7807262569832401
 42
50.0
 43
0.0
 44
0.0
 50
0.0
 51
0.0
 71
     0
 72
   500
 73
     1
 74
     0
 75
     0
 76
     0
 77
     0
 78
     0
  0
ENDTAB
  0
TABLE
  2
LTYPE
 70
     4
  0
LTYPE
  2
CONTINUOUS
 70
     0
  3
Solid Line
 72
    65
 73
     0
 40
0.0
  0
LTYPE
  2
CENTER
 70
     0
  3
____ _ ____ _ ____ _ ____ _ ____ _ ____ _ ____
 72
    65
 73
     4
 40
2.0
 49
1.25
 49
-0.25
 49
0.25
 49
-0.25
  0
LTYPE
  2
HIDDEN
 70
     0
  3
_ _ _ _ _ _ _ _ _ _ _ _ _ _ _ _ _ _ _ _ _ _ _
 72
    65
 73
     2
 40
0.375
 49
0.25
 49
-0.125
  0
LTYPE
  2
PHANTOM2
 70
     0
  3
___ _ _ ___ _ _ ___ _ _ ___ _ _
 72
    65
 73
     6
 40
1.25
 49
0.625
 49
-0.125
 49
0.125
 49
-0.125
 49
0.125
 49
-0.125
  0
ENDTAB
  0
TABLE
  2
LAYER
 70
     4
  0
LAYER
  2
0
 70
     0
 62
     7
  6
CONTINUOUS
  0
LAYER
  2
1
 70
     0
 62
     1
  6
CENTER
  0
LAYER
  2
2
 70
     0
 62
     2
  6
HIDDEN
  0
LAYER
  2
3
 70
     0
 62
     3
  6
CONTINUOUS
  0
ENDTAB
  0
TABLE
  2
STYLE
 70
     2
  0
STYLE
  2
STANDARD
 70
     0
 40
0.0
 41
1.0
 50
0.0
 71
     0
 42
4.000000000000048
  3
TXT
  4
BIGFONT
  0
STYLE
  2
STANDARD1
 70
     0
 40
0.0
 41
1.0
 50
0.0
 71
     0
 42
3.0
  3
txt
  4

  0
ENDTAB
  0
TABLE
  2
VIEW
 70
     1
  0
VIEW
  2
ALL
 70
     0
 40
540.0
 10
441.98319327731087
 20
270.0
 41
0.0
 11
0.0
 21
0.0
 31
1.0
 12
0.0
 22
0.0
 32
0.0
 42
0.0
 43
0.0
 44
0.0
 50
0.0
 71
     0
  0
ENDTAB
  0
TABLE
  2
UCS
 70
     0
  0
ENDTAB
  0
TABLE
  2
APPID
 70
     3
  0
APPID
  2
ACAD
 70
     0
  0
APPID
  2
ACAD_MLEADERVER
 70
     0
  0
APPID
  2
ACAD_NAV_VCDISPLAY
 70
     0
  0
ENDTAB
  0
TABLE
  2
DIMSTYLE
 70
     1
  0
DIMSTYLE
  2
STANDARD
 70
     0
  3

  4

  5

  6

  7

 40
1.0
 41
0.18
 42
0.0625
 43
0.38
 44
0.18
 45
0.0
 46
0.0
 47
0.0
 48
0.0
140
0.18
141
0.09
142
0.0
143
25.399999999999999
144
1.0
145
0.0
146
1.0
147
0.09
 71
     0
 72
     0
 73
     1
 74
     1
 75
     0
 76
     0
 77
     0
 78
     0
170
     0
171
     2
172
     0
173
     0
174
     0
175
     0
176
     0
177
     0
178
     0
  0
ENDTAB
  0
ENDSEC
  0
SECTION
  2
BLOCKS
  0
BLOCK
  8
0
  2
$MODEL_SPACE
 70
     0
 10
0.0
 20
0.0
 30
0.0
  3
$MODEL_SPACE
  1

  0
ENDBLK
  5
1A0
  8
0
  0
BLOCK
 67
     1
  8
0
  2
$PAPER_SPACE
 70
     0
 10
0.0
 20
0.0
 30
0.0
  3
$PAPER_SPACE
  1

  0
ENDBLK
  5
19E
 67
     1
  8
0
  0
ENDSEC
  0
SECTION
  2
ENTITIES
  0
LINE
  5
111
  8
1
 10
459.16773188460633
 20
318.5653508692161
 30
0.0
 11
79.167731884607548
 21
318.5653508692161
 31
0.0
  0
LINE
  5
112
  8
1
 10
94.167731884608173
 20
333.56535086921701
 30
0.0
 11
94.16773188460823
 21
303.56535086921599
 31
0.0
  0
LINE
  5
113
  8
1
 10
444.1677318846082
 20
333.56535086921701
 30
0.0
 11
444.1677318846082
 21
303.56535086921701
 31
0.0
  0
LINE
  5
114
  8
1
 10
94.167731884608216
 20
201.56535086921619
 30
0.0
 11
94.167731884608216
 21
155.06535086921639
 31
0.0
  0
LINE
  5
115
  8
0
 10
89.167731884608216
 20
173.5653508692163
 30
0.0
 11
99.167731884608216
 21
173.5653508692163
 31
0.0
  0
LINE
  5
116
  8
1
 10
101.1677318846082
 20
208.56535086921619
 30
0.0
 11
437.1677318846082
 21
208.56535086921599
 31
0.0
  0
LINE
  5
117
  8
2
 10
91.667731884608216
 20
173.5653508692163
 30
0.0
 11
91.667731884608216
 21
183.5653508692163
 31
0.0
  0
LINE
  5
118
  8
2
 10
92.100731884607498
 20
173.5653508692163
 30
0.0
 11
92.100731884607526
 21
186.56535086921619
 31
0.0
  0
LINE
  5
119
  8
2
 10
96.234731884608905
 20
173.5653508692163
 30
0.0
 11
96.234731884608905
 21
186.56535086921619
 31
0.0
  0
LINE
  5
11A
  8
2
 10
96.667731884608216
 20
173.5653508692163
 30
0.0
 11
96.667731884608216
 21
183.5653508692163
 31
0.0
  0
LINE
  5
11B
  8
2
 10
92.100731884607526
 20
186.56535086921619
 30
0.0
 11
94.167731884608216
 21
187.8073297687464
 31
0.0
  0
LINE
  5
11C
  8
2
 10
96.234731884608905
 20
186.56535086921619
 30
0.0
 11
94.167731884608216
 21
187.8073297687464
 31
0.0
  0
LINE
  5
11D
  8
2
 10
91.667731884608216
 20
183.5653508692163
 30
0.0
 11
96.667731884608216
 21
183.5653508692163
 31
0.0
  0
LINE
  5
11E
  8
2
 10
92.100731884607526
 20
186.56535086921619
 30
0.0
 11
96.234731884608905
 21
186.56535086921619
 31
0.0
  0
LINE
  5
122
  8
0
 10
449.1677318846082
 20
173.5653508692163
 30
0.0
 11
439.1677318846082
 21
173.5653508692163
 31
0.0
  0
LINE
  5
123
  8
1
 10
444.1677318846082
 20
201.56535086921599
 30
0.0
 11
444.16773188460832
 21
155.0653508692163
 31
0.0
  0
LINE
  5
124
  8
1
 10
554.16773188460752
 20
223.56535086921599
 30
0.0
 11
554.167731884609
 21
155.0653508692163
 31
0.0
  0
LINE
  5
125
  8
0
 10
549.16773188460866
 20
173.5653508692163
 30
0.0
 11
559.16773188460866
 21
173.5653508692163
 31
0.0
  0
ARC
  5
126
  8
1
 10
101.1677318846082
 20
201.56535086921619
 30
0.0
 40
7.0
 50
89.999999999999844
 51
179.99999999999989
  0
ARC
  5
127
  8
1
 10
437.1677318846082
 20
201.56535086921599
 30
0.0
 40
7.0
 50
0.0
 51
89.999999999999844
  0
LINE
  5
128
  8
1
 10
569.16773188460752
 20
208.56535086921599
 30
0.0
 11
539.16773188460775
 21
208.56535086921599
 31
0.0
  0
LINE
  5
129
  8
0
 10
549.16773188460775
 20
208.56535086921599
 30
0.0
 11
549.16773188460866
 21
173.5653508692163
 31
0.0
  0
LINE
  5
12A
  8
0
 10
559.16773188460786
 20
208.56535086921599
 30
0.0
 11
559.16773188460866
 21
173.5653508692163
 31
0.0
  0
ARC
  5
12B
  8
0
 10
554.16773188460775
 20
208.56535086921599
 30
0.0
 40
5.0
 50
0.0
 51
180.0
  0
ARC
  5
12C
  8
2
 10
554.16773188460775
 20
208.56535086921599
 30
0.0
 40
5.0
 50
180.0
 51
0.0
  0
LINE
  5
12D
  8
0
 10
444.1677318846082
 20
323.56535086921599
 30
0.0
 11
94.167731884608216
 21
323.56535086921599
 31
0.0
  0
LINE
  5
12E
  8
0
 10
444.1677318846082
 20
313.56535086921599
 30
0.0
 11
94.167731884608216
 21
313.56535086921599
 31
0.0
  0
ARC
  5
12F
  8
0
 10
94.167731884608258
 20
318.5653508692161
 30
0.0
 40
5.0
 50
90.000000000000313
 51
269.99999999999972
  0
ARC
  5
130
  8
2
 10
94.167731884608216
 20
318.5653508692161
 30
0.0
 40
5.0
 50
270.00000000000028
 51
89.999999999999687
  0
ARC
  5
131
  8
0
 10
444.1677318846082
 20
318.5653508692161
 30
0.0
 40
5.0
 50
270.00000000000028
 51
89.999999999999687
  0
ARC
  5
132
  8
2
 10
444.1677318846082
 20
318.5653508692161
 30
0.0
 40
5.0
 50
90.000000000000313
 51
269.99999999999972
  0
LINE
  5
133
  8
0
 10
101.1677318846082
 20
213.5653508692163
 30
0.0
 11
437.1677318846082
 21
213.56535086921599
 31
0.0
  0
LINE
  5
134
  8
0
 10
101.1677318846082
 20
203.56535086921619
 30
0.0
 11
437.1677318846082
 21
203.56535086921599
 31
0.0
  0
ARC
  5
135
  8
0
 10
101.1677318846082
 20
201.56535086921619
 30
0.0
 40
2.0
 50
89.999999999999844
 51
179.99999999999989
  0
ARC
  5
136
  8
0
 10
101.1677318846082
 20
201.56535086921619
 30
0.0
 40
12.0
 50
89.999999999999844
 51
179.99999999999989
  0
LINE
  5
137
  8
0
 10
89.167731884608216
 20
201.56535086921619
 30
0.0
 11
89.167731884608216
 21
173.5653508692163
 31
0.0
  0
LINE
  5
138
  8
0
 10
99.167731884608216
 20
201.56535086921619
 30
0.0
 11
99.167731884608216
 21
173.5653508692163
 31
0.0
  0
ARC
  5
139
  8
0
 10
437.1677318846082
 20
201.56535086921599
 30
0.0
 40
2.0
 50
0.0
 51
89.999999999999844
  0
ARC
  5
13A
  8
0
 10
437.1677318846082
 20
201.56535086921599
 30
0.0
 40
12.0
 50
0.0
 51
89.999999999999844
  0
LINE
  5
13B
  8
0
 10
449.1677318846082
 20
201.56535086921599
 30
0.0
 11
449.1677318846082
 21
173.5653508692163
 31
0.0
  0
LINE
  5
13C
  8
0
 10
439.1677318846082
 20
201.56535086921599
 30
0.0
 11
439.1677318846082
 21
173.5653508692163
 31
0.0
  0
LINE
  5
140
  8
2
 10
552.1007318846074
 20
186.56535086921431
 30
0.0
 11
556.23473188460889
 21
186.56535086921431
 31
0.0
  0
LINE
  5
141
  8
2
 10
551.6677318846082
 20
183.56535086921451
 30
0.0
 11
556.6677318846082
 21
183.56535086921451
 31
0.0
  0
LINE
  5
142
  8
2
 10
556.23473188460889
 20
186.56535086921431
 30
0.0
 11
554.16773188460809
 21
187.80732976874449
 31
0.0
  0
LINE
  5
143
  8
2
 10
552.1007318846074
 20
186.56535086921431
 30
0.0
 11
554.16773188460809
 21
187.80732976874449
 31
0.0
  0
LINE
  5
144
  8
2
 10
556.66773188460809
 20
173.5653508692163
 30
0.0
 11
556.6677318846082
 21
183.56535086921451
 31
0.0
  0
LINE
  5
145
  8
2
 10
556.23473188460889
 20
173.5653508692163
 30
0.0
 11
556.23473188460889
 21
186.56535086921431
 31
0.0
  0
LINE
  5
146
  8
2
 10
552.10073188460728
 20
173.5653508692163
 30
0.0
 11
552.1007318846074
 21
186.56535086921431
 31
0.0
  0
LINE
  5
147
  8
2
 10
551.6677318846082
 20
173.5653508692163
 30
0.0
 11
551.6677318846082
 21
183.56535086921451
 31
0.0
  0
LINE
  5
14B
  8
2
 10
442.10073188460751
 20
186.56535086921619
 30
0.0
 11
446.23473188460889
 21
186.56535086921619
 31
0.0
  0
LINE
  5
14C
  8
2
 10
441.66773188460809
 20
183.5653508692163
 30
0.0
 11
446.66773188460809
 21
183.5653508692163
 31
0.0
  0
LINE
  5
14D
  8
2
 10
446.23473188460889
 20
186.56535086921619
 30
0.0
 11
444.1677318846082
 21
187.8073297687464
 31
0.0
  0
LINE
  5
14E
  8
2
 10
442.10073188460751
 20
186.56535086921619
 30
0.0
 11
444.1677318846082
 21
187.8073297687464
 31
0.0
  0
LINE
  5
14F
  8
2
 10
446.66773188460809
 20
173.5653508692163
 30
0.0
 11
446.66773188460809
 21
183.5653508692163
 31
0.0
  0
LINE
  5
150
  8
2
 10
446.23473188460878
 20
173.5653508692163
 30
0.0
 11
446.23473188460889
 21
186.56535086921619
 31
0.0
  0
LINE
  5
151
  8
2
 10
442.10073188460751
 20
173.5653508692163
 30
0.0
 11
442.10073188460751
 21
186.56535086921619
 31
0.0
  0
LINE
  5
152
  8
2
 10
441.66773188460809
 20
173.5653508692163
 30
0.0
 11
441.66773188460809
 21
183.5653508692163
 31
0.0
  0
LINE
  5
1AF
  8
0
 10
91.667731884608784
 20
173.5653508692163
 30
0.0
 11
91.667731884608784
 21
169.5653508692163
 31
0.0
  0
LINE
  5
1B0
  8
3
 10
92.118981884608687
 20
173.5653508692163
 30
0.0
 11
92.118981884608743
 21
169.5653508692163
 31
0.0
  0
LINE
  5
1B1
  8
3
 10
96.216481884608768
 20
173.5653508692163
 30
0.0
 11
96.216481884608825
 21
169.5653508692163
 31
0.0
  0
LINE
  5
1B2
  8
0
 10
96.667731884608671
 20
173.5653508692163
 30
0.0
 11
96.667731884608671
 21
169.5653508692163
 31
0.0
  0
LINE
  5
1B3
  8
0
 10
89.167731884608671
 20
169.5653508692163
 30
0.0
 11
89.167731884608671
 21
168.56535086921639
 31
0.0
  0
ARC
  5
1B4
  8
0
 10
94.167731884595923
 20
172.76582030617209
 30
0.0
 40
7.6427344100359971
 50
252.41204622597479
 51
287.58795377422678
  0
ARC
  5
1B5
  8
0
 10
90.703630269471105
 20
167.1677440948805
 30
0.0
 40
2.044658198744437
 50
244.3842474666809
 51
304.3842474679272
  0
LINE
  5
1B6
  8
0
 10
89.548929731091789
 20
165.48035148604291
 30
0.0
 11
90.267731884606064
 21
165.06535086921639
 31
0.0
  0
LINE
  5
1B7
  8
0
 10
96.477132961367275
 20
165.480351486053
 30
0.0
 11
96.477132961355125
 21
168.56535086921639
 31
0.0
  0
LINE
  5
1B8
  8
0
 10
91.858330807850294
 20
168.56535086921639
 30
0.0
 11
91.858330807850294
 21
165.48035148605101
 31
0.0
  0
LINE
  5
1B9
  8
0
 10
89.548929731092031
 20
165.48035148604299
 30
0.0
 11
89.548929731091789
 21
168.56535086921639
 31
0.0
  0
LINE
  5
1BA
  8
2
 10
95.834398551275413
 20
178.5653508692163
 30
0.0
 11
92.501065217942042
 21
178.5653508692163
 31
0.0
  0
LINE
  5
1BB
  8
2
 10
96.667731884608671
 20
177.73201753588299
 30
0.0
 11
95.834398551275413
 21
178.5653508692163
 31
0.0
  0
LINE
  5
1BC
  8
2
 10
92.501065217942042
 20
178.5653508692163
 30
0.0
 11
91.667731884608671
 21
177.73201753588299
 31
0.0
  0
LINE
  5
1BD
  8
2
 10
91.667731884608671
 20
177.73201753588299
 30
0.0
 11
96.667731884608671
 21
177.73201753588299
 31
0.0
  0
LINE
  5
1BE
  8
0
 10
89.167731884608784
 20
169.5653508692163
 30
0.0
 11
99.167731884608671
 21
169.5653508692163
 31
0.0
  0
LINE
  5
1BF
  8
0
 10
99.167731884608671
 20
169.5653508692163
 30
0.0
 11
99.167731884608784
 21
168.56535086921639
 31
0.0
  0
LINE
  5
1C0
  8
0
 10
89.167731884608784
 20
168.5653508692163
 30
0.0
 11
99.167731884608784
 21
168.5653508692163
 31
0.0
  0
LINE
  5
1C1
  8
0
 10
98.786534038125765
 20
165.48035148604291
 30
0.0
 11
98.067731884611604
 21
165.06535086921639
 31
0.0
  0
ARC
  5
1C2
  8
0
 10
97.631833499746577
 20
167.1677440948805
 30
0.0
 40
2.044658198744437
 50
235.61575253207269
 51
295.61575253331898
  0
LINE
  5
1C3
  8
0
 10
98.786534038125765
 20
165.48035148604291
 30
0.0
 11
98.786534038125765
 21
168.5653508692163
 31
0.0
  0
LINE
  5
1C4
  8
0
 10
98.067731884609785
 20
165.0653508692163
 30
0.0
 11
90.267731884606192
 21
165.06535086921639
 31
0.0
  0
LINE
  5
1C5
  8
0
 10
90.167731884608997
 20
169.5653508692163
 30
0.0
 11
98.167731884607434
 21
169.5653508692163
 31
0.0
  0
LINE
  5
1C7
  8
0
 10
441.66773188460883
 20
173.5653508692163
 30
0.0
 11
441.66773188460883
 21
169.5653508692163
 31
0.0
  0
LINE
  5
1C8
  8
3
 10
442.11898188460862
 20
173.5653508692163
 30
0.0
 11
442.11898188460862
 21
169.5653508692163
 31
0.0
  0
LINE
  5
1C9
  8
3
 10
446.2164818846087
 20
173.5653508692163
 30
0.0
 11
446.21648188460881
 21
169.5653508692163
 31
0.0
  0
LINE
  5
1CA
  8
0
 10
446.66773188460871
 20
173.5653508692163
 30
0.0
 11
446.66773188460871
 21
169.5653508692163
 31
0.0
  0
LINE
  5
1CB
  8
0
 10
439.1677318846086
 20
169.5653508692163
 30
0.0
 11
439.1677318846086
 21
168.56535086921639
 31
0.0
  0
ARC
  5
1CC
  8
0
 10
444.16773188459592
 20
172.76582030617209
 30
0.0
 40
7.6427344100359971
 50
252.41204622597479
 51
287.58795377422678
  0
ARC
  5
1CD
  8
0
 10
440.70363026947098
 20
167.1677440948805
 30
0.0
 40
2.044658198744437
 50
244.3842474666811
 51
304.38424746792759
  0
LINE
  5
1CE
  8
0
 10
439.54892973109168
 20
165.48035148604291
 30
0.0
 11
440.26773188460601
 21
165.06535086921639
 31
0.0
  0
LINE
  5
1CF
  8
0
 10
446.47713296136732
 20
165.480351486053
 30
0.0
 11
446.4771329613551
 21
168.56535086921639
 31
0.0
  0
LINE
  5
1D0
  8
0
 10
441.85833080785028
 20
168.56535086921639
 30
0.0
 11
441.85833080785028
 21
165.48035148605101
 31
0.0
  0
LINE
  5
1D1
  8
0
 10
439.54892973109202
 20
165.48035148604299
 30
0.0
 11
439.54892973109168
 21
168.56535086921639
 31
0.0
  0
LINE
  5
1D2
  8
2
 10
445.8343985512754
 20
178.5653508692163
 30
0.0
 11
442.50106521794203
 21
178.5653508692163
 31
0.0
  0
LINE
  5
1D3
  8
2
 10
446.66773188460871
 20
177.73201753588299
 30
0.0
 11
445.8343985512754
 21
178.5653508692163
 31
0.0
  0
LINE
  5
1D4
  8
2
 10
442.50106521794203
 20
178.5653508692163
 30
0.0
 11
441.6677318846086
 21
177.73201753588299
 31
0.0
  0
LINE
  5
1D5
  8
2
 10
441.6677318846086
 20
177.73201753588299
 30
0.0
 11
446.66773188460871
 21
177.73201753588299
 31
0.0
  0
LINE
  5
1D6
  8
0
 10
439.16773188460871
 20
169.5653508692163
 30
0.0
 11
449.1677318846086
 21
169.5653508692163
 31
0.0
  0
LINE
  5
1D7
  8
0
 10
449.1677318846086
 20
169.5653508692163
 30
0.0
 11
449.16773188460871
 21
168.56535086921639
 31
0.0
  0
LINE
  5
1D8
  8
0
 10
439.16773188460871
 20
168.5653508692163
 30
0.0
 11
449.16773188460871
 21
168.5653508692163
 31
0.0
  0
LINE
  5
1D9
  8
0
 10
448.78653403812569
 20
165.48035148604291
 30
0.0
 11
448.06773188461148
 21
165.06535086921639
 31
0.0
  0
ARC
  5
1DA
  8
0
 10
447.63183349974651
 20
167.1677440948805
 30
0.0
 40
2.044658198744437
 50
235.61575253207241
 51
295.61575253331893
  0
LINE
  5
1DB
  8
0
 10
448.78653403812569
 20
165.48035148604291
 30
0.0
 11
448.78653403812569
 21
168.5653508692163
 31
0.0
  0
LINE
  5
1DC
  8
0
 10
448.06773188460971
 20
165.0653508692163
 30
0.0
 11
440.26773188460618
 21
165.06535086921639
 31
0.0
  0
LINE
  5
1DD
  8
0
 10
440.167731884609
 20
169.5653508692163
 30
0.0
 11
448.16773188460741
 21
169.5653508692163
 31
0.0
  0
LINE
  5
1DF
  8
0
 10
551.667731884609
 20
169.56535086921639
 30
0.0
 11
551.667731884609
 21
173.56535086921639
 31
0.0
  0
LINE
  5
1E0
  8
0
 10
556.66773188460911
 20
169.56535086921639
 30
0.0
 11
556.667731884609
 21
173.56535086921639
 31
0.0
  0
LINE
  5
1E1
  8
3
 10
552.11898188460907
 20
169.56535086921639
 30
0.0
 11
552.11898188460896
 21
173.56535086921639
 31
0.0
  0
LINE
  5
1E2
  8
3
 10
556.21648188460915
 20
169.56535086921639
 30
0.0
 11
556.21648188460915
 21
173.56535086921639
 31
0.0
  0
LINE
  5
1E3
  8
0
 10
549.167731884609
 20
169.56535086921639
 30
0.0
 11
549.167731884609
 21
168.56535086921639
 31
0.0
  0
LINE
  5
1E4
  8
0
 10
550.16773188460877
 20
165.12308589613599
 30
0.0
 11
550.167731884609
 21
168.56535086921639
 31
0.0
  0
ARC
  5
1E5
  8
0
 10
552.167731884609
 20
170.8997949024637
 30
0.0
 40
5.7767090063276196
 50
249.74384199965601
 51
290.25615800034399
  0
LINE
  5
1E6
  8
0
 10
550.16773188460888
 20
165.12308589613599
 30
0.0
 11
550.26773188461027
 21
165.0653508692163
 31
0.0
  0
LINE
  5
1E7
  8
0
 10
554.16773188460513
 20
168.56535086921639
 30
0.0
 11
554.16773188461616
 21
165.48035148604291
 31
0.0
  0
LINE
  5
1E8
  8
2
 10
551.66773188460911
 20
177.73201753588299
 30
0.0
 11
556.66773188460911
 21
177.73201753588299
 31
0.0
  0
LINE
  5
1E9
  8
2
 10
552.50106521794248
 20
178.5653508692163
 30
0.0
 11
551.66773188460911
 21
177.73201753588299
 31
0.0
  0
LINE
  5
1EA
  8
2
 10
556.66773188460911
 20
177.73201753588299
 30
0.0
 11
555.83439855127585
 21
178.5653508692163
 31
0.0
  0
LINE
  5
1EB
  8
2
 10
555.83439855127585
 20
178.5653508692163
 30
0.0
 11
552.50106521794248
 21
178.5653508692163
 31
0.0
  0
LINE
  5
1EC
  8
0
 10
549.167731884609
 20
168.56535086921639
 30
0.0
 11
559.16773188460888
 21
168.56535086921639
 31
0.0
  0
LINE
  5
1ED
  8
0
 10
559.16773188460888
 20
169.56535086921639
 30
0.0
 11
559.16773188460888
 21
168.56535086921639
 31
0.0
  0
LINE
  5
1EE
  8
0
 10
549.167731884609
 20
169.56535086921639
 30
0.0
 11
559.16773188460888
 21
169.56535086921639
 31
0.0
  0
LINE
  5
1EF
  8
0
 10
558.16773188460888
 20
165.12308589613599
 30
0.0
 11
558.06773188460761
 21
165.0653508692163
 31
0.0
  0
ARC
  5
1F0
  8
0
 10
556.167731884609
 20
170.8997949024637
 30
0.0
 40
5.7767090063276196
 50
249.74384199965601
 51
290.25615800034399
  0
LINE
  5
1F1
  8
0
 10
558.16773188460922
 20
165.12308589613599
 30
0.0
 11
558.16773188460877
 21
168.56535086921639
 31
0.0
  0
LINE
  5
1F2
  8
0
 10
558.06773188460761
 20
165.0653508692163
 30
0.0
 11
550.26773188461016
 21
165.0653508692163
 31
0.0
  0
TEXT
  5
2A5
  8
0
 62
     3
 10
0.0
 20
0.0
 30
0.0
 40
10.0
  1
SRH1-350
  7
STANDARD1
  0
ENDSEC
  0
EOF
