  0
SECTION
  2
HEADER
  9
$ACADVER
  1
AC1009
  9
$INSBASE
 10
0.0
 20
0.0
 30
0.0
  9
$EXTMIN
 10
0.0
 20
-2.960436562073669
 30
0.0
  9
$EXTMAX
 10
344.00000000000011
 20
252.99999999999989
 30
0.0
  9
$LIMMIN
 10
0.0
 20
0.0
  9
$LIMMAX
 10
375.0
 20
270.0
  9
$ORTHOMODE
 70
     1
  9
$REGENMODE
 70
     1
  9
$FILLMODE
 70
     1
  9
$QTEXTMODE
 70
     0
  9
$MIRRTEXT
 70
     0
  9
$DRAGMODE
 70
     2
  9
$LTSCALE
 40
10.0
  9
$OSMODE
 70
    37
  9
$ATTMODE
 70
     1
  9
$TEXTSIZE
 40
4.0
  9
$TRACEWID
 40
0.05
  9
$TEXTSTYLE
  7
STANDARD
  9
$CLAYER
  8
0
  9
$CELTYPE
  6
BYLAYER
  9
$CECOLOR
 62
   256
  9
$DIMSCALE
 40
1.0
  9
$DIMASZ
 40
3.0
  9
$DIMEXO
 40
2.0
  9
$DIMDLI
 40
0.38
  9
$DIMRND
 40
0.0
  9
$DIMDLE
 40
0.0
  9
$DIMEXE
 40
2.0
  9
$DIMTP
 40
0.0
  9
$DIMTM
 40
0.0
  9
$DIMTXT
 40
3.2000000000000002
  9
$DIMCEN
 40
0.0
  9
$DIMTSZ
 40
0.0
  9
$DIMTOL
 70
     0
  9
$DIMLIM
 70
     0
  9
$DIMTIH
 70
     0
  9
$DIMTOH
 70
     0
  9
$DIMSE1
 70
     0
  9
$DIMSE2
 70
     0
  9
$DIMTAD
 70
     1
  9
$DIMZIN
 70
     0
  9
$DIMBLK
  1

  9
$DIMASO
 70
     1
  9
$DIMSHO
 70
     0
  9
$DIMPOST
  1

  9
$DIMAPOST
  1

  9
$DIMALT
 70
     0
  9
$DIMALTD
 70
     2
  9
$DIMALTF
 40
25.399999999999999
  9
$DIMLFAC
 40
1.0
  9
$DIMTOFL
 70
     0
  9
$DIMTVP
 40
1.6000000000000001
  9
$DIMTIX
 70
     1
  9
$DIMSOXD
 70
     0
  9
$DIMSAH
 70
     0
  9
$DIMBLK1
  1

  9
$DIMBLK2
  1

  9
$DIMSTYLE
  2
STANDARD
  9
$DIMCLRD
 70
     4
  9
$DIMCLRE
 70
     4
  9
$DIMCLRT
 70
     4
  9
$DIMTFAC
 40
1.0
  9
$DIMGAP
 40
0.09
  9
$LUNITS
 70
     2
  9
$LUPREC
 70
     1
  9
$SKETCHINC
 40
0.1
  9
$FILLETRAD
 40
0.0
  9
$AUNITS
 70
     0
  9
$AUPREC
 70
     0
  9
$MENU
  1
E:\r13\win\SUPPORT\ACAD
  9
$ELEVATION
 40
0.0
  9
$PELEVATION
 40
0.0
  9
$THICKNESS
 40
0.0
  9
$LIMCHECK
 70
     0
  9
$BLIPMODE
 70
     0
  9
$CHAMFERA
 40
3.0
  9
$CHAMFERB
 40
3.0
  9
$SKPOLY
 70
     0
  9
$TDCREATE
 40
2449930.6863194439
  9
$TDUPDATE
 40
2458247.5719729508
  9
$TDINDWG
 40
0.0576277662
  9
$TDUSRTIMER
 40
0.0576277662
  9
$USRTIMER
 70
     1
  9
$ANGBASE
 50
0.0
  9
$ANGDIR
 70
     0
  9
$PDMODE
 70
     0
  9
$PDSIZE
 40
0.0
  9
$PLINEWID
 40
0.0
  9
$COORDS
 70
     1
  9
$SPLFRAME
 70
     0
  9
$SPLINETYPE
 70
     6
  9
$SPLINESEGS
 70
     8
  9
$ATTDIA
 70
     0
  9
$ATTREQ
 70
     1
  9
$HANDLING
 70
     1
  9
$HANDSEED
  5
92F
  9
$SURFTAB1
 70
     6
  9
$SURFTAB2
 70
     6
  9
$SURFTYPE
 70
     6
  9
$SURFU
 70
     6
  9
$SURFV
 70
     6
  9
$UCSNAME
  2

  9
$UCSORG
 10
0.0
 20
0.0
 30
0.0
  9
$UCSXDIR
 10
1.0
 20
0.0
 30
0.0
  9
$UCSYDIR
 10
0.0
 20
1.0
 30
0.0
  9
$PUCSNAME
  2

  9
$PUCSORG
 10
0.0
 20
0.0
 30
0.0
  9
$PUCSXDIR
 10
1.0
 20
0.0
 30
0.0
  9
$PUCSYDIR
 10
0.0
 20
1.0
 30
0.0
  9
$USERI1
 70
     0
  9
$USERI2
 70
     1
  9
$USERI3
 70
     1
  9
$USERI4
 70
     0
  9
$USERI5
 70
     0
  9
$USERR1
 40
0.0
  9
$USERR2
 40
0.0
  9
$USERR3
 40
0.0
  9
$USERR4
 40
0.0
  9
$USERR5
 40
0.0
  9
$WORLDVIEW
 70
     1
  9
$SHADEDGE
 70
     3
  9
$SHADEDIF
 70
    70
  9
$TILEMODE
 70
     1
  9
$MAXACTVP
 70
    16
  9
$PLIMCHECK
 70
     0
  9
$PEXTMIN
 10
1.0000000000000000E+020
 20
1.0000000000000000E+020
 30
1.0000000000000000E+020
  9
$PEXTMAX
 10
-1.0000000000000000E+020
 20
-1.0000000000000000E+020
 30
-1.0000000000000000E+020
  9
$PLIMMIN
 10
0.0
 20
0.0
  9
$PLIMMAX
 10
12.0
 20
9.0
  9
$UNITMODE
 70
     0
  9
$VISRETAIN
 70
     0
  9
$PLINEGEN
 70
     0
  9
$PSLTSCALE
 70
     0
  0
ENDSEC
  0
SECTION
  2
TABLES
  0
TABLE
  2
VPORT
 70
     1
  0
VPORT
  2
*ACTIVE
 70
     0
 10
0.0
 20
0.0
 11
1.0
 21
1.0
 12
332.33842023199338
 22
125.01866506117361
 13
0.0
 23
0.0
 14
10.0
 24
10.0
 15
10.0
 25
10.0
 16
0.0
 26
0.0
 36
1.0
 17
0.0
 27
0.0
 37
0.0
 40
258.23706124150272
 41
2.6019575856443709
 42
50.0
 43
0.0
 44
0.0
 50
0.0
 51
0.0
 71
     0
 72
   500
 73
     1
 74
     0
 75
     0
 76
     0
 77
     0
 78
     2
  0
ENDTAB
  0
TABLE
  2
LTYPE
 70
     4
  0
LTYPE
  2
CONTINUOUS
 70
     0
  3
Solid Line
 72
    65
 73
     0
 40
0.0
  0
LTYPE
  2
CENTER
 70
     0
  3
____ _ ____ _ ____ _ ____ _ ____ _ ____ _ ____
 72
    65
 73
     4
 40
2.0
 49
1.25
 49
-0.25
 49
0.25
 49
-0.25
  0
LTYPE
  2
HIDDEN
 70
     0
  3
_ _ _ _ _ _ _ _ _ _ _ _ _ _ _ _ _ _ _ _ _ _ _
 72
    65
 73
     2
 40
0.375
 49
0.25
 49
-0.125
  0
LTYPE
  2
PHANTOM2
 70
     0
  3
___ _ _ ___ _ _ ___ _ _ ___ _ _
 72
    65
 73
     6
 40
1.25
 49
0.625
 49
-0.125
 49
0.125
 49
-0.125
 49
0.125
 49
-0.125
  0
ENDTAB
  0
TABLE
  2
LAYER
 70
     4
  0
LAYER
  2
0
 70
     0
 62
     7
  6
CONTINUOUS
  0
LAYER
  2
1
 70
     0
 62
     1
  6
CENTER
  0
LAYER
  2
2
 70
     0
 62
     2
  6
HIDDEN
  0
LAYER
  2
DEFPOINTS
 70
     0
 62
     7
  6
CONTINUOUS
  0
ENDTAB
  0
TABLE
  2
STYLE
 70
     2
  0
STYLE
  2
STANDARD
 70
     0
 40
0.0
 41
1.0
 50
0.0
 71
     0
 42
4.0
  3
SIMPLEX
  4
BIGFONT
  0
STYLE
  2
STANDARD1
 70
     0
 40
0.0
 41
1.0
 50
0.0
 71
     0
 42
3.0
  3
txt
  4

  0
ENDTAB
  0
TABLE
  2
VIEW
 70
     1
  0
VIEW
  2
ALL
 70
     0
 40
270.0
 10
220.78595317725751
 20
135.0
 41
441.57190635451502
 11
0.0
 21
0.0
 31
1.0
 12
0.0
 22
0.0
 32
0.0
 42
50.0
 43
0.0
 44
0.0
 50
0.0
 71
     0
  0
ENDTAB
  0
TABLE
  2
UCS
 70
     0
  0
ENDTAB
  0
TABLE
  2
APPID
 70
     4
  0
APPID
  2
ACAD
 70
     0
  0
APPID
  2
ACAD_MLEADERVER
 70
     0
  0
APPID
  2
ACAD_NAV_VCDISPLAY
 70
     0
  0
APPID
  2
ACAD_EXEMPT_FROM_CAD_STANDARDS
 70
     0
  0
ENDTAB
  0
TABLE
  2
DIMSTYLE
 70
     1
  0
DIMSTYLE
  2
STANDARD
 70
     0
  3

  4

  5

  6

  7

 40
1.0
 41
0.18
 42
0.0625
 43
0.38
 44
0.18
 45
0.0
 46
0.0
 47
0.0
 48
0.0
140
0.18
141
0.09
142
0.0
143
25.399999999999999
144
1.0
145
0.0
146
1.0
147
0.09
 71
     0
 72
     0
 73
     1
 74
     1
 75
     0
 76
     0
 77
     0
 78
     0
170
     0
171
     2
172
     0
173
     0
174
     0
175
     0
176
     0
177
     0
178
     0
  0
ENDTAB
  0
ENDSEC
  0
SECTION
  2
BLOCKS
  0
BLOCK
  8
0
  2
$MODEL_SPACE
 70
     0
 10
0.0
 20
0.0
 30
0.0
  3
$MODEL_SPACE
  1

  0
ENDBLK
  5
1B0
  8
0
  0
BLOCK
 67
     1
  8
0
  2
$PAPER_SPACE
 70
     0
 10
0.0
 20
0.0
 30
0.0
  3
$PAPER_SPACE
  1

  0
ENDBLK
  5
1AE
 67
     1
  8
0
  0
ENDSEC
  0
SECTION
  2
ENTITIES
  0
TEXT
  5
29C
  8
0
 62
     3
 10
0.0
 20
0.0
 30
0.0
 40
10.0
  1
SRH5-120-A4
  7
STANDARD1
  0
LINE
  5
527
  8
0
 10
307.49208626550012
 20
120.2336072641999
 30
0.0
 11
336.90474824075432
 21
145.44446038577331
 31
0.0
  0
LINE
  5
528
  8
0
 10
329.09525175931083
 20
154.55553961414611
 30
0.0
 11
299.68258978400007
 21
129.3446864924999
 31
0.0
  0
ARC
  5
529
  8
0
 10
314.00000000000011
 20
112.6410412404999
 30
0.0
 40
21.99999999999995
 50
130.6012946450011
 51
180.0
  0
ARC
  5
52A
  8
0
 10
314.00000000000011
 20
112.6410412404999
 30
0.0
 40
9.9999999999999574
 50
130.6012946450011
 51
180.0
  0
LINE
  5
52B
  8
0
 10
292.00000000000011
 20
112.6410412404999
 30
0.0
 11
292.00000000000011
 21
80.000000000000114
 31
0.0
  0
LINE
  5
52C
  8
0
 10
304.0
 20
79.999999999999886
 30
0.0
 11
304.0
 21
112.6410412404999
 31
0.0
  0
ARC
  5
52F
  8
0
 10
333.0
 20
149.99999999999989
 30
0.0
 40
6.0000000000000258
 50
310.60129464500119
 51
130.6012946450011
  0
LINE
  5
531
  8
0
 10
292.00000000000011
 20
80.000000000000114
 30
0.0
 11
304.0
 21
79.999999999999886
 31
0.0
  0
LINE
  5
532
  8
1
 10
341.3518226260324
 20
157.15870510799911
 30
0.0
 11
303.58733802473182
 21
124.78914687831271
 31
0.0
  0
LINE
  5
533
  8
1
 10
298.0
 20
74.999999999999886
 30
0.0
 11
298.0
 21
112.6410412404999
 31
0.0
  0
LINE
  5
541
  8
0
 10
112.0
 20
79.999999999999773
 30
0.0
 11
112.0
 21
139.58733802469979
 31
0.0
  0
LINE
  5
542
  8
0
 10
100.0
 20
139.58733802469979
 30
0.0
 11
100.0
 21
80.0
 31
0.0
  0
LINE
  5
543
  8
0
 10
232.00000000000011
 20
80.0
 30
0.0
 11
232.00000000000011
 21
139.58733802469979
 31
0.0
  0
LINE
  5
544
  8
0
 10
220.00000000000011
 20
139.58733802469979
 30
0.0
 11
220.00000000000011
 21
79.999999999999773
 31
0.0
  0
POLYLINE
  5
545
  8
0
 66
     1
 10
0.0
 20
0.0
 30
0.0
 70
   128
  0
VERTEX
  5
880
  8
0
 10
231.9991999723
 20
139.58725990159979
 30
0.0
  0
VERTEX
  5
881
  8
0
 10
231.9282568241
 20
140.93999400169989
 30
0.0
  0
VERTEX
  5
882
  8
0
 10
231.7068594091001
 20
142.31334407259979
 30
0.0
  0
VERTEX
  5
883
  8
0
 10
231.33150691
 20
143.68290026779991
 30
0.0
  0
VERTEX
  5
884
  8
0
 10
230.7974819069
 20
145.0403174911998
 30
0.0
  0
VERTEX
  5
885
  8
0
 10
230.09946126669999
 20
146.37701152779991
 30
0.0
  0
VERTEX
  5
886
  8
0
 10
229.33733203130009
 20
147.53927715439991
 30
0.0
  0
VERTEX
  5
887
  8
0
 10
228.4526245481
 20
148.65265517819989
 30
0.0
  0
VERTEX
  5
888
  8
0
 10
227.45051438670001
 20
149.70870268299981
 30
0.0
  0
VERTEX
  5
889
  8
0
 10
226.3382683076
 20
150.69909981709981
 30
0.0
  0
VERTEX
  5
88A
  8
0
 10
225.125302264
 20
151.61610620719989
 30
0.0
  0
VERTEX
  5
88B
  8
0
 10
223.8227532626
 20
152.45313931189989
 30
0.0
  0
VERTEX
  5
88C
  8
0
 10
222.4428817372
 20
153.20511099009991
 30
0.0
  0
VERTEX
  5
88D
  8
0
 10
220.99895109100001
 20
153.86831470999991
 30
0.0
  0
VERTEX
  5
88E
  8
0
 10
219.50561962009999
 20
154.44019669339991
 30
0.0
  0
VERTEX
  5
88F
  8
0
 10
217.97875473229999
 20
154.91953657399989
 30
0.0
  0
VERTEX
  5
890
  8
0
 10
216.44091164349999
 20
155.30534621579989
 30
0.0
  0
VERTEX
  5
891
  8
0
 10
214.93505536090001
 20
155.59628775979991
 30
0.0
  0
VERTEX
  5
892
  8
0
 10
213.5126525541001
 20
155.79687980959989
 30
0.0
  0
VERTEX
  5
893
  8
0
 10
212.49208584540011
 20
155.89811792829991
 30
0.0
  0
VERTEX
  5
894
  8
0
 10
211.3976894244
 20
155.9680293125999
 30
0.0
  0
VERTEX
  5
895
  8
0
 10
210.0
 20
155.99999999999989
 30
0.0
  0
SEQEND
  5
896
  8
0
  0
POLYLINE
  5
546
  8
0
 66
     1
 10
0.0
 20
0.0
 30
0.0
 70
   128
  0
VERTEX
  5
897
  8
0
 10
210.0
 20
143.99999999999989
 30
0.0
  0
VERTEX
  5
898
  8
0
 10
211.22000714059999
 20
143.9598358465999
 30
0.0
  0
VERTEX
  5
899
  8
0
 10
211.7172358822001
 20
143.92018593189991
 30
0.0
  0
VERTEX
  5
89A
  8
0
 10
212.5285832598
 20
143.8256956896999
 30
0.0
  0
VERTEX
  5
89B
  8
0
 10
213.3486190827
 20
143.6911089864999
 30
0.0
  0
VERTEX
  5
89C
  8
0
 10
214.19496896850001
 20
143.5082048498999
 30
0.0
  0
VERTEX
  5
89D
  8
0
 10
215.03286728980001
 20
143.2789168436999
 30
0.0
  0
VERTEX
  5
89E
  8
0
 10
215.84119306610009
 20
143.00644865799981
 30
0.0
  0
VERTEX
  5
89F
  8
0
 10
216.60172024840011
 20
142.69650295589989
 30
0.0
  0
VERTEX
  5
8A0
  8
0
 10
217.2998080709001
 20
142.3566730776999
 30
0.0
  0
VERTEX
  5
8A1
  8
0
 10
217.92406435059999
 20
141.9961517993998
 30
0.0
  0
VERTEX
  5
8A2
  8
0
 10
218.46632785400001
 20
141.62539062249991
 30
0.0
  0
VERTEX
  5
8A3
  8
0
 10
218.92174207750011
 20
141.2557164994999
 30
0.0
  0
VERTEX
  5
8A4
  8
0
 10
219.28835824839999
 20
140.89941958439991
 30
0.0
  0
VERTEX
  5
8A5
  8
0
 10
219.56828196550001
 20
140.56844490979989
 30
0.0
  0
VERTEX
  5
8A6
  8
0
 10
219.7676644207001
 20
140.27340752569989
 30
0.0
  0
VERTEX
  5
8A7
  8
0
 10
219.89645226190001
 20
140.0223107329999
 30
0.0
  0
VERTEX
  5
8A8
  8
0
 10
219.9680698714001
 20
139.81760989409989
 30
0.0
  0
VERTEX
  5
8A9
  8
0
 10
219.99765043439999
 20
139.64792372989979
 30
0.0
  0
VERTEX
  5
8AA
  8
0
 10
219.994606968
 20
139.58547284319991
 30
0.0
  0
SEQEND
  5
8AB
  8
0
  0
POLYLINE
  5
547
  8
0
 66
     1
 10
0.0
 20
0.0
 30
0.0
 70
   128
  0
VERTEX
  5
8AC
  8
0
 10
122.0
 20
155.99999999999989
 30
0.0
  0
VERTEX
  5
8AD
  8
0
 10
120.1790314216
 20
155.94569147759989
 30
0.0
  0
VERTEX
  5
8AE
  8
0
 10
119.43384945530001
 20
155.89194919969981
 30
0.0
  0
VERTEX
  5
8AF
  8
0
 10
118.20592025169999
 20
155.76275020069991
 30
0.0
  0
VERTEX
  5
8B0
  8
0
 10
116.94381183180001
 20
155.5759274193999
 30
0.0
  0
VERTEX
  5
8B1
  8
0
 10
115.6091785335
 20
155.3163712727999
 30
0.0
  0
VERTEX
  5
8B2
  8
0
 10
114.2430841516
 20
154.98098680279989
 30
0.0
  0
VERTEX
  5
8B3
  8
0
 10
112.8666179084
 20
154.5664164822999
 30
0.0
  0
VERTEX
  5
8B4
  8
0
 10
111.4981955503
 20
154.07079639019989
 30
0.0
  0
VERTEX
  5
8B5
  8
0
 10
110.1531906905
 20
153.4930645811998
 30
0.0
  0
VERTEX
  5
8B6
  8
0
 10
108.8451732115
 20
152.83285006429989
 30
0.0
  0
VERTEX
  5
8B7
  8
0
 10
107.5869341508
 20
152.09065431879989
 30
0.0
  0
VERTEX
  5
8B8
  8
0
 10
106.3907643082
 20
151.26796985109991
 30
0.0
  0
VERTEX
  5
8B9
  8
0
 10
105.2682304833
 20
150.36717404029989
 30
0.0
  0
VERTEX
  5
8BA
  8
0
 10
104.2304231027
 20
149.39179504489991
 30
0.0
  0
VERTEX
  5
8BB
  8
0
 10
103.2877063846
 20
148.34649641829989
 30
0.0
  0
VERTEX
  5
8BC
  8
0
 10
102.44942925629999
 20
147.23690334989979
 30
0.0
  0
VERTEX
  5
8BD
  8
0
 10
101.7237397447
 20
146.0693116623998
 30
0.0
  0
VERTEX
  5
8BE
  8
0
 10
101.117606576
 20
144.85040323519991
 30
0.0
  0
VERTEX
  5
8BF
  8
0
 10
100.6370291062
 20
143.58707472249989
 30
0.0
  0
VERTEX
  5
8C0
  8
0
 10
100.28732938829999
 20
142.28640231779991
 30
0.0
  0
VERTEX
  5
8C1
  8
0
 10
100.07342082060001
 20
140.95568668219991
 30
0.0
  0
VERTEX
  5
8C2
  8
0
 10
100.0000089958
 20
139.60249943469989
 30
0.0
  0
VERTEX
  5
8C3
  8
0
 10
100.0008000277
 20
139.5874161477999
 30
0.0
  0
SEQEND
  5
8C4
  8
0
  0
POLYLINE
  5
548
  8
0
 66
     1
 10
0.0
 20
0.0
 30
0.0
 70
   128
  0
VERTEX
  5
8C5
  8
0
 10
112.0053930321
 20
139.58920320619981
 30
0.0
  0
VERTEX
  5
8C6
  8
0
 10
112.0120703624
 20
139.7262197330999
 30
0.0
  0
VERTEX
  5
8C7
  8
0
 10
112.06359696059999
 20
139.92024944339991
 30
0.0
  0
VERTEX
  5
8C8
  8
0
 10
112.1729955478
 20
140.16732092809991
 30
0.0
  0
VERTEX
  5
8C9
  8
0
 10
112.3579572105
 20
140.46739808259991
 30
0.0
  0
VERTEX
  5
8CA
  8
0
 10
112.6319149122
 20
140.81183887349991
 30
0.0
  0
VERTEX
  5
8CB
  8
0
 10
113.00424908559999
 20
141.18888854469989
 30
0.0
  0
VERTEX
  5
8CC
  8
0
 10
113.4800491113
 20
141.5850542625999
 30
0.0
  0
VERTEX
  5
8CD
  8
0
 10
114.0594802641
 20
141.98577908419981
 30
0.0
  0
VERTEX
  5
8CE
  8
0
 10
114.73811019430001
 20
142.37670266959989
 30
0.0
  0
VERTEX
  5
8CF
  8
0
 10
115.5088783568
 20
142.7451830654999
 30
0.0
  0
VERTEX
  5
8D0
  8
0
 10
116.36039917639999
 20
143.0795203148999
 30
0.0
  0
VERTEX
  5
8D1
  8
0
 10
117.27595414149999
 20
143.36934678979989
 30
0.0
  0
VERTEX
  5
8D2
  8
0
 10
118.22918766940001
 20
143.60568068959989
 30
0.0
  0
VERTEX
  5
8D3
  8
0
 10
119.1660659305
 20
143.78028960299989
 30
0.0
  0
VERTEX
  5
8D4
  8
0
 10
119.9755209875
 20
143.88880547929989
 30
0.0
  0
VERTEX
  5
8D5
  8
0
 10
120.658706138
 20
143.9514221435999
 30
0.0
  0
VERTEX
  5
8D6
  8
0
 10
121.492089045
 20
143.99305616599989
 30
0.0
  0
VERTEX
  5
8D7
  8
0
 10
122.0
 20
143.99999999999989
 30
0.0
  0
SEQEND
  5
8D8
  8
0
  0
LINE
  5
549
  8
0
 10
122.0
 20
143.99999999999989
 30
0.0
 11
210.0
 21
143.99999999999989
 31
0.0
  0
LINE
  5
54A
  8
0
 10
210.0
 20
155.99999999999989
 30
0.0
 11
122.0
 21
155.99999999999989
 31
0.0
  0
LINE
  5
551
  8
0
 10
100.0
 20
80.0
 30
0.0
 11
112.0
 21
79.999999999999773
 31
0.0
  0
POLYLINE
  5
559
  8
0
 66
     1
 10
0.0
 20
0.0
 30
0.0
 70
   128
  0
VERTEX
  5
8D9
  8
0
 10
122.0
 20
252.99999999999989
 30
0.0
  0
VERTEX
  5
8DA
  8
0
 10
120.1700538581
 20
252.93804333479989
 30
0.0
  0
VERTEX
  5
8DB
  8
0
 10
119.4205482083
 20
252.87667767859989
 30
0.0
  0
VERTEX
  5
8DC
  8
0
 10
118.185045027
 20
252.7290834193
 30
0.0
  0
VERTEX
  5
8DD
  8
0
 10
116.9138797669
 20
252.51543853949991
 30
0.0
  0
VERTEX
  5
8DE
  8
0
 10
115.56896600429999
 20
252.21847914799989
 30
0.0
  0
VERTEX
  5
8DF
  8
0
 10
114.1919010913
 20
251.83472933699991
 30
0.0
  0
VERTEX
  5
8E0
  8
0
 10
112.8046216292
 20
251.36066948819979
 30
0.0
  0
VERTEX
  5
8E1
  8
0
 10
111.42657414839999
 20
250.79479585919989
 30
0.0
  0
VERTEX
  5
8E2
  8
0
 10
110.0741302773
 20
250.13682764529989
 30
0.0
  0
VERTEX
  5
8E3
  8
0
 10
108.76173573379999
 20
249.38757373009989
 30
0.0
  0
VERTEX
  5
8E4
  8
0
 10
107.50245422010001
 20
248.54881992879999
 30
0.0
  0
VERTEX
  5
8E5
  8
0
 10
106.3083072484
 20
247.62328218579989
 30
0.0
  0
VERTEX
  5
8E6
  8
0
 10
105.19044903459999
 20
246.61458167399999
 30
0.0
  0
VERTEX
  5
8E7
  8
0
 10
104.1592273199
 20
245.52721198410001
 30
0.0
  0
VERTEX
  5
8E8
  8
0
 10
103.2241756231
 20
244.3664767816999
 30
0.0
  0
VERTEX
  5
8E9
  8
0
 10
102.3939827336
 20
243.138391496
 30
0.0
  0
VERTEX
  5
8EA
  8
0
 10
101.6764795408
 20
241.84955988719989
 30
0.0
  0
VERTEX
  5
8EB
  8
0
 10
101.0786679646
 20
240.50704827379991
 30
0.0
  0
VERTEX
  5
8EC
  8
0
 10
100.6067959966
 20
239.11828107339991
 30
0.0
  0
VERTEX
  5
8ED
  8
0
 10
100.26646556759999
 20
237.69097200009989
 30
0.0
  0
VERTEX
  5
8EE
  8
0
 10
100.0627527079
 20
236.2330926336999
 30
0.0
  0
VERTEX
  5
8EF
  8
0
 10
100.0044717248
 20
234.8512598861999
 30
0.0
  0
SEQEND
  5
8F0
  8
0
  0
POLYLINE
  5
55A
  8
0
 66
     1
 10
0.0
 20
0.0
 30
0.0
 70
   128
  0
VERTEX
  5
8F1
  8
0
 10
112.00864195050001
 20
234.85118585559999
 30
0.0
  0
VERTEX
  5
8F2
  8
0
 10
112.0466347153
 20
235.4006096297999
 30
0.0
  0
VERTEX
  5
8F3
  8
0
 10
112.19346343789999
 20
235.9714115315
 30
0.0
  0
VERTEX
  5
8F4
  8
0
 10
112.4293104277
 20
236.52186953689991
 30
0.0
  0
VERTEX
  5
8F5
  8
0
 10
112.7557927293
 20
237.0675012641
 30
0.0
  0
VERTEX
  5
8F6
  8
0
 10
113.17633589330001
 20
237.60933260999991
 30
0.0
  0
VERTEX
  5
8F7
  8
0
 10
113.6929738237
 20
238.1418144397999
 30
0.0
  0
VERTEX
  5
8F8
  8
0
 10
114.30507201490001
 20
238.6560202812
 30
0.0
  0
VERTEX
  5
8F9
  8
0
 10
115.0087723825
 20
239.14145365409991
 30
0.0
  0
VERTEX
  5
8FA
  8
0
 10
115.7966577407
 20
239.58721263129999
 30
0.0
  0
VERTEX
  5
8FB
  8
0
 10
116.65688084289999
 20
239.98264083389989
 30
0.0
  0
VERTEX
  5
8FC
  8
0
 10
117.571936298
 20
240.31809565489991
 30
0.0
  0
VERTEX
  5
8FD
  8
0
 10
118.5136210421
 20
240.5851883467999
 30
0.0
  0
VERTEX
  5
8FE
  8
0
 10
119.4168120667
 20
240.77524784879989
 30
0.0
  0
VERTEX
  5
8FF
  8
0
 10
120.15834548719999
 20
240.88662772410001
 30
0.0
  0
VERTEX
  5
900
  8
0
 10
120.8429510289
 20
240.95545796629989
 30
0.0
  0
VERTEX
  5
901
  8
0
 10
122.0
 20
240.99999999999989
 30
0.0
  0
SEQEND
  5
902
  8
0
  0
POLYLINE
  5
55B
  8
0
 66
     1
 10
0.0
 20
0.0
 30
0.0
 70
   128
  0
VERTEX
  5
903
  8
0
 10
231.99552827529999
 20
234.8525288381999
 30
0.0
  0
VERTEX
  5
904
  8
0
 10
231.9996779478
 20
234.9509169083
 30
0.0
  0
VERTEX
  5
905
  8
0
 10
231.9164755523
 20
236.44496976489989
 30
0.0
  0
VERTEX
  5
906
  8
0
 10
231.68367125430001
 20
237.94333115889989
 30
0.0
  0
VERTEX
  5
907
  8
0
 10
231.29772981390011
 20
239.43625830789989
 30
0.0
  0
VERTEX
  5
908
  8
0
 10
230.75531293820001
 20
240.9141260255999
 30
0.0
  0
VERTEX
  5
909
  8
0
 10
230.05331965720009
 20
242.36678087649989
 30
0.0
  0
VERTEX
  5
90A
  8
0
 10
229.2885374519
 20
243.6350454791
 30
0.0
  0
VERTEX
  5
90B
  8
0
 10
228.40511353130009
 20
244.85031100349991
 30
0.0
  0
VERTEX
  5
90C
  8
0
 10
227.4083935747
 20
246.00431412430001
 30
0.0
  0
VERTEX
  5
90D
  8
0
 10
226.30494231340001
 20
247.0891427613
 30
0.0
  0
VERTEX
  5
90E
  8
0
 10
225.10261863890011
 20
248.0973590614999
 30
0.0
  0
VERTEX
  5
90F
  8
0
 10
223.81052214880009
 20
249.0222134121999
 30
0.0
  0
VERTEX
  5
910
  8
0
 10
222.43893053740001
 20
249.85780165039989
 30
0.0
  0
VERTEX
  5
911
  8
0
 10
220.9993600958
 20
250.59913423559991
 30
0.0
  0
VERTEX
  5
912
  8
0
 10
219.5049962570001
 20
251.24211126809999
 30
0.0
  0
VERTEX
  5
913
  8
0
 10
217.97206715460001
 20
251.78340866869991
 30
0.0
  0
VERTEX
  5
914
  8
0
 10
216.42394810410011
 20
252.22024106959989
 30
0.0
  0
VERTEX
  5
915
  8
0
 10
214.9054656270001
 20
252.54970298309991
 30
0.0
  0
VERTEX
  5
916
  8
0
 10
213.4870862624
 20
252.7739455576999
 30
0.0
  0
VERTEX
  5
917
  8
0
 10
212.4723099238
 20
252.8867429057
 30
0.0
  0
VERTEX
  5
918
  8
0
 10
211.3665481946
 20
252.9654764817999
 30
0.0
  0
VERTEX
  5
919
  8
0
 10
210.0
 20
252.99999999999989
 30
0.0
  0
SEQEND
  5
91A
  8
0
  0
POLYLINE
  5
55C
  8
0
 66
     1
 10
0.0
 20
0.0
 30
0.0
 70
   128
  0
VERTEX
  5
91B
  8
0
 10
210.0
 20
240.99999999999989
 30
0.0
  0
VERTEX
  5
91C
  8
0
 10
211.19149742720001
 20
240.95275759980001
 30
0.0
  0
VERTEX
  5
91D
  8
0
 10
211.6780340812
 20
240.9060014472
 30
0.0
  0
VERTEX
  5
91E
  8
0
 10
212.47252248300009
 20
240.79436194669981
 30
0.0
  0
VERTEX
  5
91F
  8
0
 10
213.27702364230009
 20
240.63477394119991
 30
0.0
  0
VERTEX
  5
920
  8
0
 10
214.10919423510001
 20
240.4168843617999
 30
0.0
  0
VERTEX
  5
921
  8
0
 10
214.93554406800001
 20
240.14201178629989
 30
0.0
  0
VERTEX
  5
922
  8
0
 10
215.73587677859999
 20
239.81263401209989
 30
0.0
  0
VERTEX
  5
923
  8
0
 10
216.49283345809999
 20
239.43375737049999
 30
0.0
  0
VERTEX
  5
924
  8
0
 10
217.19247193059999
 20
239.01214631449989
 30
0.0
  0
VERTEX
  5
925
  8
0
 10
217.82366494600001
 20
238.55607030889999
 30
0.0
  0
VERTEX
  5
926
  8
0
 10
218.3786196046
 20
238.0743794066999
 30
0.0
  0
VERTEX
  5
927
  8
0
 10
218.85254215320001
 20
237.57590973669991
 30
0.0
  0
VERTEX
  5
928
  8
0
 10
219.2435395283
 20
237.06847536349991
 30
0.0
  0
VERTEX
  5
929
  8
0
 10
219.55226828160011
 20
236.55740637699989
 30
0.0
  0
VERTEX
  5
92A
  8
0
 10
219.7810308599
 20
236.04318771279989
 30
0.0
  0
VERTEX
  5
92B
  8
0
 10
219.93147472019999
 20
235.51724433339999
 30
0.0
  0
VERTEX
  5
92C
  8
0
 10
219.99837880220011
 20
234.95413189509989
 30
0.0
  0
VERTEX
  5
92D
  8
0
 10
219.9913580496
 20
234.85260286880001
 30
0.0
  0
SEQEND
  5
92E
  8
0
  0
LINE
  5
55D
  8
0
 10
122.0
 20
240.99999999999989
 30
0.0
 11
210.0
 21
240.99999999999989
 31
0.0
  0
LINE
  5
55E
  8
0
 10
210.0
 20
252.99999999999989
 30
0.0
 11
122.0
 21
252.99999999999989
 31
0.0
  0
LINE
  5
55F
  8
0
 10
112.0
 20
211.99999999999989
 30
0.0
 11
112.0
 21
234.85189436219989
 31
0.0
  0
LINE
  5
560
  8
0
 10
100.0
 20
234.85189436219989
 30
0.0
 11
100.0
 21
211.99999999999989
 31
0.0
  0
LINE
  5
561
  8
0
 10
232.00000000000011
 20
211.99999999999989
 30
0.0
 11
232.00000000000011
 21
234.85189436219989
 31
0.0
  0
LINE
  5
562
  8
0
 10
220.00000000000011
 20
234.85189436219989
 30
0.0
 11
220.00000000000011
 21
211.99999999999989
 31
0.0
  0
ARC
  5
567
  8
0
 10
226.00000000000011
 20
211.99999999999989
 30
0.0
 40
6.0
 50
180.0
 51
0.0
  0
ARC
  5
569
  8
0
 10
106.0
 20
211.99999999999989
 30
0.0
 40
6.0
 50
270.0
 51
0.0
  0
ARC
  5
56A
  8
0
 10
106.0
 20
211.99999999999989
 30
0.0
 40
6.0000000000000133
 50
180.0
 51
270.0
  0
LINE
  5
584
  8
0
 10
232.00000000000011
 20
80.0
 30
0.0
 11
220.00000000000011
 21
79.999999999999773
 31
0.0
  0
ARC
  5
5A3
  8
2
 10
333.0
 20
149.99999999999989
 30
0.0
 40
6.0
 50
130.6012946449502
 51
310.60129464492269
  0
ARC
  5
5A4
  8
2
 10
106.0
 20
211.99999999999989
 30
0.0
 40
6.0
 50
0.0
 51
180.0
  0
ARC
  5
5A5
  8
2
 10
226.00000000000011
 20
212.0
 30
0.0
 40
6.0
 50
0.0
 51
180.0
  0
LINE
  5
5AF
  8
1
 10
322.00000000000011
 20
149.99999999999989
 30
0.0
 11
344.00000000000011
 21
149.99999999999989
 31
0.0
  0
LINE
  5
5B0
  8
1
 10
333.0
 20
138.99999999999989
 30
0.0
 11
333.0
 21
160.99999999999989
 31
0.0
  0
ARC
  5
5B5
  8
1
 10
314.00000000000011
 20
112.6410412404999
 30
0.0
 40
16.0
 50
130.60129464500559
 51
180.0
  0
LINE
  5
676
  8
1
 10
95.000000000000028
 20
211.99999999999989
 30
0.0
 11
117.0
 21
211.99999999999989
 31
0.0
  0
LINE
  5
677
  8
1
 10
106.0
 20
200.99999999999989
 30
0.0
 11
106.0
 21
222.99999999999989
 31
0.0
  0
LINE
  5
678
  8
1
 10
215.00000000000011
 20
212.0
 30
0.0
 11
237.0
 21
212.0
 31
0.0
  0
LINE
  5
679
  8
1
 10
226.00000000000011
 20
201.0
 30
0.0
 11
226.00000000000011
 21
223.0
 31
0.0
  0
LINE
  5
700
  8
2
 10
103.0
 20
80.458499999999987
 30
0.0
 11
103.0
 21
91.999999999999886
 31
0.0
  0
LINE
  5
701
  8
2
 10
103.5414999999999
 20
80.999999999999886
 30
0.0
 11
103.5414999999999
 21
96.999999999999886
 31
0.0
  0
LINE
  5
702
  8
2
 10
108.4585000000001
 20
80.999999999999886
 30
0.0
 11
108.4585000000001
 21
96.999999999999886
 31
0.0
  0
LINE
  5
703
  8
2
 10
109.0
 20
80.458499999999987
 30
0.0
 11
109.0
 21
91.999999999999886
 31
0.0
  0
LINE
  5
704
  8
2
 10
103.0
 20
91.999999999999886
 30
0.0
 11
109.0
 21
91.999999999999886
 31
0.0
  0
LINE
  5
705
  8
2
 10
103.5414999999999
 20
96.999999999999886
 30
0.0
 11
108.4585000000001
 21
96.999999999999886
 31
0.0
  0
LINE
  5
706
  8
2
 10
103.5414999999999
 20
96.999999999999858
 30
0.0
 11
106.0
 21
98.477215831879192
 31
0.0
  0
LINE
  5
707
  8
2
 10
108.4585000000001
 20
96.999999999999915
 30
0.0
 11
106.0
 21
98.477215831879192
 31
0.0
  0
LINE
  5
708
  8
2
 10
109.0
 20
91.999999999999886
 30
0.0
 11
108.4585
 21
92.937905512298272
 31
0.0
  0
LINE
  5
709
  8
2
 10
103.0000000000001
 20
91.999999999999886
 30
0.0
 11
103.5415
 21
92.937905512298272
 31
0.0
  0
LINE
  5
70A
  8
2
 10
102.5414999999999
 20
79.999999999999886
 30
0.0
 11
103.5414999999999
 21
80.999999999999915
 31
0.0
  0
LINE
  5
70B
  8
2
 10
108.4585000000001
 20
80.999999999999886
 30
0.0
 11
109.4585000000001
 21
79.999999999999886
 31
0.0
  0
LINE
  5
70C
  8
2
 10
103.5414999999999
 20
80.999999999999886
 30
0.0
 11
108.4585
 21
80.999999999999886
 31
0.0
  0
LINE
  5
720
  8
2
 10
223.0
 20
80.458499999999987
 30
0.0
 11
223.0
 21
91.999999999999886
 31
0.0
  0
LINE
  5
721
  8
2
 10
223.54150000000001
 20
80.999999999999886
 30
0.0
 11
223.54150000000001
 21
96.999999999999886
 31
0.0
  0
LINE
  5
722
  8
2
 10
228.45850000000021
 20
80.999999999999886
 30
0.0
 11
228.45850000000021
 21
96.999999999999886
 31
0.0
  0
LINE
  5
723
  8
2
 10
229.0
 20
80.458499999999987
 30
0.0
 11
229.0
 21
91.999999999999886
 31
0.0
  0
LINE
  5
724
  8
2
 10
223.0
 20
91.999999999999886
 30
0.0
 11
229.0
 21
91.999999999999886
 31
0.0
  0
LINE
  5
725
  8
2
 10
223.54150000000001
 20
96.999999999999886
 30
0.0
 11
228.45850000000021
 21
96.999999999999886
 31
0.0
  0
LINE
  5
726
  8
2
 10
223.54150000000001
 20
96.999999999999858
 30
0.0
 11
226.00000000000011
 21
98.477215831879192
 31
0.0
  0
LINE
  5
727
  8
2
 10
228.45850000000021
 20
96.999999999999915
 30
0.0
 11
226.00000000000011
 21
98.477215831879192
 31
0.0
  0
LINE
  5
728
  8
2
 10
229.0
 20
91.999999999999886
 30
0.0
 11
228.4585000000001
 21
92.937905512298272
 31
0.0
  0
LINE
  5
729
  8
2
 10
223.00000000000011
 20
91.999999999999886
 30
0.0
 11
223.5415000000001
 21
92.937905512298272
 31
0.0
  0
LINE
  5
72A
  8
2
 10
222.5414999999999
 20
79.999999999999886
 30
0.0
 11
223.54150000000001
 21
80.999999999999915
 31
0.0
  0
LINE
  5
72B
  8
2
 10
228.45850000000021
 20
80.999999999999886
 30
0.0
 11
229.4585000000001
 21
79.999999999999886
 31
0.0
  0
LINE
  5
72C
  8
2
 10
223.54150000000001
 20
80.999999999999886
 30
0.0
 11
228.4585000000001
 21
80.999999999999886
 31
0.0
  0
LINE
  5
740
  8
2
 10
295.00000000000011
 20
80.4585000000001
 30
0.0
 11
295.00000000000011
 21
92.0
 31
0.0
  0
LINE
  5
741
  8
2
 10
295.54149999999998
 20
81.0
 30
0.0
 11
295.54149999999998
 21
97.0
 31
0.0
  0
LINE
  5
742
  8
2
 10
300.45850000000019
 20
81.0
 30
0.0
 11
300.45850000000019
 21
97.0
 31
0.0
  0
LINE
  5
743
  8
2
 10
301.00000000000011
 20
80.4585000000001
 30
0.0
 11
301.00000000000011
 21
92.0
 31
0.0
  0
LINE
  5
744
  8
2
 10
295.00000000000011
 20
92.0
 30
0.0
 11
301.00000000000011
 21
92.0
 31
0.0
  0
LINE
  5
745
  8
2
 10
295.54149999999998
 20
97.0
 30
0.0
 11
300.45850000000019
 21
97.0
 31
0.0
  0
LINE
  5
746
  8
2
 10
295.54149999999998
 20
96.999999999999972
 30
0.0
 11
298.00000000000011
 21
98.477215831879306
 31
0.0
  0
LINE
  5
747
  8
2
 10
300.45850000000019
 20
97.000000000000014
 30
0.0
 11
298.00000000000011
 21
98.477215831879306
 31
0.0
  0
LINE
  5
748
  8
2
 10
301.00000000000011
 20
92.0
 30
0.0
 11
300.45850000000019
 21
92.937905512298386
 31
0.0
  0
LINE
  5
749
  8
2
 10
295.00000000000023
 20
92.0
 30
0.0
 11
295.54150000000021
 21
92.937905512298386
 31
0.0
  0
LINE
  5
74A
  8
2
 10
294.54149999999998
 20
80.0
 30
0.0
 11
295.54149999999998
 21
81.000000000000028
 31
0.0
  0
LINE
  5
74B
  8
2
 10
300.45850000000019
 20
81.0
 30
0.0
 11
301.45850000000019
 21
80.0
 31
0.0
  0
LINE
  5
74C
  8
2
 10
295.54149999999998
 20
81.0
 30
0.0
 11
300.45850000000019
 21
81.0
 31
0.0
  0
LINE
  5
7A0
  8
1
 10
106.0
 20
103.47721583187921
 30
0.0
 11
106.0
 21
75.0
 31
0.0
  0
LINE
  5
7A1
  8
1
 10
225.99999999999989
 20
103.47721583187921
 30
0.0
 11
225.99999999999989
 21
75.0
 31
0.0
  0
ENDSEC
  0
EOF
