  0
SECTION
  2
HEADER
  9
$ACADVER
  1
AC1009
  9
$INSBASE
 10
82.638099999999994
 20
103.82319099999999
 30
0.0
  9
$EXTMIN
 10
0.0
 20
-1.4802182810368341
 30
0.0
  9
$EXTMAX
 10
47.742155525238744
 20
31.615570829726121
 30
0.0
  9
$LIMMIN
 10
0.0
 20
0.0
  9
$LIMMAX
 10
187.5
 20
135.0
  9
$ORTHOMODE
 70
     1
  9
$REGENMODE
 70
     1
  9
$FILLMODE
 70
     1
  9
$QTEXTMODE
 70
     0
  9
$MIRRTEXT
 70
     0
  9
$DRAGMODE
 70
     2
  9
$LTSCALE
 40
5.0
  9
$OSMODE
 70
    37
  9
$ATTMODE
 70
     1
  9
$TEXTSIZE
 40
0.06
  9
$TRACEWID
 40
0.05
  9
$TEXTSTYLE
  7
STANDARD
  9
$CLAYER
  8
0
  9
$CELTYPE
  6
BYLAYER
  9
$CECOLOR
 62
   256
  9
$DIMSCALE
 40
0.5
  9
$DIMASZ
 40
3.0
  9
$DIMEXO
 40
2.0
  9
$DIMDLI
 40
10.0
  9
$DIMRND
 40
0.0
  9
$DIMDLE
 40
0.0
  9
$DIMEXE
 40
2.0
  9
$DIMTP
 40
0.0
  9
$DIMTM
 40
0.0
  9
$DIMTXT
 40
3.0
  9
$DIMCEN
 40
0.0
  9
$DIMTSZ
 40
0.0
  9
$DIMTOL
 70
     0
  9
$DIMLIM
 70
     0
  9
$DIMTIH
 70
     0
  9
$DIMTOH
 70
     0
  9
$DIMSE1
 70
     0
  9
$DIMSE2
 70
     0
  9
$DIMTAD
 70
     1
  9
$DIMZIN
 70
     0
  9
$DIMBLK
  1

  9
$DIMASO
 70
     1
  9
$DIMSHO
 70
     0
  9
$DIMPOST
  1

  9
$DIMAPOST
  1

  9
$DIMALT
 70
     0
  9
$DIMALTD
 70
     2
  9
$DIMALTF
 40
25.399999999999999
  9
$DIMLFAC
 40
1.0
  9
$DIMTOFL
 70
     1
  9
$DIMTVP
 40
1.6000000000000001
  9
$DIMTIX
 70
     1
  9
$DIMSOXD
 70
     0
  9
$DIMSAH
 70
     0
  9
$DIMBLK1
  1

  9
$DIMBLK2
  1

  9
$DIMSTYLE
  2
STANDARD
  9
$DIMCLRD
 70
     0
  9
$DIMCLRE
 70
     0
  9
$DIMCLRT
 70
     0
  9
$DIMTFAC
 40
1.0
  9
$DIMGAP
 40
0.09
  9
$LUNITS
 70
     2
  9
$LUPREC
 70
     4
  9
$SKETCHINC
 40
0.1
  9
$FILLETRAD
 40
0.0
  9
$AUNITS
 70
     0
  9
$AUPREC
 70
     4
  9
$MENU
  1
E:\r13\win\SUPPORT\ACAD
  9
$ELEVATION
 40
0.0
  9
$PELEVATION
 40
0.0
  9
$THICKNESS
 40
0.0
  9
$LIMCHECK
 70
     0
  9
$BLIPMODE
 70
     0
  9
$CHAMFERA
 40
0.0
  9
$CHAMFERB
 40
0.0
  9
$SKPOLY
 70
     0
  9
$TDCREATE
 40
2449840.5918518519
  9
$TDUPDATE
 40
2456598.7283992711
  9
$TDINDWG
 40
0.026086169
  9
$TDUSRTIMER
 40
2456598.3158686338
  9
$USRTIMER
 70
     1
  9
$ANGBASE
 50
0.0
  9
$ANGDIR
 70
     0
  9
$PDMODE
 70
     1
  9
$PDSIZE
 40
0.0
  9
$PLINEWID
 40
0.0
  9
$COORDS
 70
     1
  9
$SPLFRAME
 70
     0
  9
$SPLINETYPE
 70
     6
  9
$SPLINESEGS
 70
     8
  9
$ATTDIA
 70
     0
  9
$ATTREQ
 70
     1
  9
$HANDLING
 70
     1
  9
$HANDSEED
  5
624
  9
$SURFTAB1
 70
     6
  9
$SURFTAB2
 70
     6
  9
$SURFTYPE
 70
     6
  9
$SURFU
 70
     6
  9
$SURFV
 70
     6
  9
$UCSNAME
  2

  9
$UCSORG
 10
0.0
 20
0.0
 30
0.0
  9
$UCSXDIR
 10
1.0
 20
0.0
 30
0.0
  9
$UCSYDIR
 10
0.0
 20
1.0
 30
0.0
  9
$PUCSNAME
  2

  9
$PUCSORG
 10
0.0
 20
0.0
 30
0.0
  9
$PUCSXDIR
 10
1.0
 20
0.0
 30
0.0
  9
$PUCSYDIR
 10
0.0
 20
1.0
 30
0.0
  9
$USERI1
 70
     3
  9
$USERI2
 70
     1
  9
$USERI3
 70
     1
  9
$USERI4
 70
     0
  9
$USERI5
 70
     0
  9
$USERR1
 40
0.5
  9
$USERR2
 40
3.0
  9
$USERR3
 40
3.0
  9
$USERR4
 40
3.0
  9
$USERR5
 40
10.0
  9
$WORLDVIEW
 70
     1
  9
$SHADEDGE
 70
     3
  9
$SHADEDIF
 70
    70
  9
$TILEMODE
 70
     1
  9
$MAXACTVP
 70
    16
  9
$PLIMCHECK
 70
     0
  9
$PEXTMIN
 10
1.0000000000000000E+020
 20
1.0000000000000000E+020
 30
1.0000000000000000E+020
  9
$PEXTMAX
 10
-1.0000000000000000E+020
 20
-1.0000000000000000E+020
 30
-1.0000000000000000E+020
  9
$PLIMMIN
 10
0.0
 20
0.0
  9
$PLIMMAX
 10
12.0
 20
9.0
  9
$UNITMODE
 70
     0
  9
$VISRETAIN
 70
     0
  9
$PLINEGEN
 70
     0
  9
$PSLTSCALE
 70
     0
  0
ENDSEC
  0
SECTION
  2
TABLES
  0
TABLE
  2
VPORT
 70
     1
  0
VPORT
  2
*ACTIVE
 70
     0
 10
0.0
 20
0.0
 11
1.0
 21
1.0
 12
143.27242925042859
 22
25.765124320411651
 13
0.0
 23
0.0
 14
5.0
 24
5.0
 15
10.0
 25
10.0
 16
0.0
 26
0.0
 36
1.0
 17
0.0
 27
0.0
 37
0.0
 40
194.55638688962409
 41
1.7552447552447541
 42
50.0
 43
0.0
 44
0.0
 50
0.0
 51
0.0
 71
    16
 72
   100
 73
     1
 74
     0
 75
     0
 76
     0
 77
     0
 78
     2
  0
ENDTAB
  0
TABLE
  2
LTYPE
 70
     4
  0
LTYPE
  2
CONTINUOUS
 70
     0
  3
Solid Line
 72
    65
 73
     0
 40
0.0
  0
LTYPE
  2
CENTER
 70
     0
  3
____ _ ____ _ ____ _ ____ _ ____ _ ____ _ ____
 72
    65
 73
     4
 40
2.0
 49
1.25
 49
-0.25
 49
0.25
 49
-0.25
  0
LTYPE
  2
HIDDEN
 70
     0
  3
__ __ __ __ __ __ __ __ __ __ __ __ __ __ __ __
 72
    65
 73
     2
 40
0.375
 49
0.25
 49
-0.125
  0
LTYPE
  2
PHANTOM2
 70
     0
  3
___ _ _ ___ _ _ ___ _ _ ___ _ _
 72
    65
 73
     6
 40
1.25
 49
0.625
 49
-0.125
 49
0.125
 49
-0.125
 49
0.125
 49
-0.125
  0
ENDTAB
  0
TABLE
  2
LAYER
 70
     3
  0
LAYER
  2
0
 70
     0
 62
     7
  6
CONTINUOUS
  0
LAYER
  2
1
 70
     0
 62
     1
  6
CENTER
  0
LAYER
  2
2
 70
     0
 62
     2
  6
HIDDEN
  0
ENDTAB
  0
TABLE
  2
STYLE
 70
     2
  0
STYLE
  2
STANDARD
 70
     0
 40
0.0
 41
1.0
 50
0.0
 71
     0
 42
0.06
  3
TXT
  4
BIGFONT
  0
STYLE
  2
STANDARD1
 70
     0
 40
0.0
 41
1.0
 50
0.0
 71
     0
 42
3.0
  3
txt
  4

  0
ENDTAB
  0
TABLE
  2
VIEW
 70
     0
  0
ENDTAB
  0
TABLE
  2
UCS
 70
     0
  0
ENDTAB
  0
TABLE
  2
APPID
 70
     3
  0
APPID
  2
ACAD
 70
     0
  0
APPID
  2
ACAD_MLEADERVER
 70
     0
  0
APPID
  2
ACAD_NAV_VCDISPLAY
 70
     0
  0
ENDTAB
  0
TABLE
  2
DIMSTYLE
 70
     1
  0
DIMSTYLE
  2
STANDARD
 70
     0
  3

  4

  5

  6

  7

 40
1.0
 41
0.18
 42
0.0625
 43
0.38
 44
0.18
 45
0.0
 46
0.0
 47
0.0
 48
0.0
140
0.18
141
0.09
142
0.0
143
25.399999999999999
144
1.0
145
0.0
146
1.0
147
0.09
 71
     0
 72
     0
 73
     1
 74
     1
 75
     0
 76
     0
 77
     0
 78
     0
170
     0
171
     2
172
     0
173
     0
174
     0
175
     0
176
     0
177
     0
178
     0
  0
ENDTAB
  0
ENDSEC
  0
SECTION
  2
BLOCKS
  0
BLOCK
  8
0
  2
$MODEL_SPACE
 70
     0
 10
0.0
 20
0.0
 30
0.0
  3
$MODEL_SPACE
  1

  0
ENDBLK
  5
BD
  8
0
  0
BLOCK
 67
     1
  8
0
  2
$PAPER_SPACE
 70
     0
 10
0.0
 20
0.0
 30
0.0
  3
$PAPER_SPACE
  1

  0
ENDBLK
  5
BB
 67
     1
  8
0
  0
ENDSEC
  0
SECTION
  2
ENTITIES
  0
CIRCLE
  5
46A
  8
0
 10
12.231903356849161
 20
22.615570829726121
 30
0.0
 40
5.7460000000000058
  0
CIRCLE
  5
46B
  8
0
 10
12.231903356849161
 20
22.615570829726121
 30
0.0
 40
6.0000000000000027
  0
CIRCLE
  5
46D
  8
0
 10
12.231903356849161
 20
22.615570829726121
 30
0.0
 40
4.0000000000000018
  0
CIRCLE
  5
46E
  8
0
 10
12.231903356849161
 20
22.615570829726121
 30
0.0
 40
2.2499999999999938
  0
LINE
  5
470
  8
0
 10
40.936687887235891
 20
16.615570829726121
 30
0.0
 11
41.698687887235891
 21
17.377570829726121
 31
0.0
  0
LINE
  5
471
  8
0
 10
41.698687887235891
 20
27.85357082972612
 30
0.0
 11
40.936687887235891
 21
28.615570829726121
 31
0.0
  0
LINE
  5
472
  8
0
 10
31.952687887235879
 20
16.615570829726121
 30
0.0
 11
40.936687887235891
 21
16.615570829726121
 31
0.0
  0
LINE
  5
473
  8
0
 10
40.936687887235891
 20
28.615570829726121
 30
0.0
 11
31.952687887235879
 21
28.615570829726121
 31
0.0
  0
LINE
  5
474
  8
0
 10
31.952687887235879
 20
28.615570829726121
 30
0.0
 11
31.698687887235891
 21
28.36157082972613
 31
0.0
  0
LINE
  5
475
  8
0
 10
31.698687887235891
 20
16.869570829726111
 30
0.0
 11
31.952687887235879
 21
16.615570829726121
 31
0.0
  0
LINE
  5
477
  8
0
 10
40.936687887235891
 20
16.615570829726121
 30
0.0
 11
40.936687887235799
 21
28.615570829726181
 31
0.0
  0
LINE
  5
478
  8
0
 10
41.698687887235849
 20
27.85357082972617
 30
0.0
 11
41.698687887235891
 21
17.377570829726121
 31
0.0
  0
LINE
  5
47A
  8
0
 10
31.952687887235911
 20
28.615570829726121
 30
0.0
 11
31.952687887235879
 21
16.615570829726121
 31
0.0
  0
LINE
  5
47D
  8
0
 10
31.698687887235891
 20
16.869570829726111
 30
0.0
 11
31.69868788723587
 21
28.361570829726102
 31
0.0
  0
LINE
  5
47F
  8
2
 10
37.298687887235872
 20
18.615570829726121
 30
0.0
 11
37.29868788723585
 21
26.615570829726121
 31
0.0
  0
LINE
  5
481
  8
2
 10
41.446787887235878
 20
20.365570829726121
 30
0.0
 11
41.446787887235871
 21
24.865570829726121
 31
0.0
  0
LINE
  5
482
  8
2
 10
31.698687887235891
 20
18.361570829726109
 30
0.0
 11
31.952687887235879
 21
18.615570829726099
 31
0.0
  0
LINE
  5
483
  8
2
 10
31.952687887235879
 20
26.615570829726121
 30
0.0
 11
31.698687887235891
 21
26.869570829726111
 31
0.0
  0
LINE
  5
484
  8
2
 10
31.952687887235879
 20
18.615570829726099
 30
0.0
 11
37.298687887235872
 21
18.615570829726099
 31
0.0
  0
LINE
  5
485
  8
2
 10
37.298687887235872
 20
26.615570829726121
 30
0.0
 11
31.952687887235879
 21
26.615570829726121
 31
0.0
  0
LINE
  5
486
  8
2
 10
41.698687887235891
 20
25.11747082972612
 30
0.0
 11
41.446787887235878
 21
24.865570829726121
 31
0.0
  0
LINE
  5
487
  8
2
 10
41.446787887235878
 20
20.365570829726121
 30
0.0
 11
41.698687887235891
 21
20.113670829726111
 31
0.0
  0
LINE
  5
488
  8
2
 10
37.298687887235872
 20
20.365570829726121
 30
0.0
 11
41.446787887235878
 21
20.365570829726121
 31
0.0
  0
LINE
  5
489
  8
2
 10
41.446787887235878
 20
24.865570829726089
 30
0.0
 11
37.298687887235872
 21
24.865570829726089
 31
0.0
  0
LINE
  5
48E
  8
1
 10
21.231903356849159
 20
22.615570829726121
 30
0.0
 11
3.2319033568491551
 21
22.615570829726121
 31
0.0
  0
LINE
  5
48F
  8
1
 10
12.231903356849161
 20
31.615570829726121
 30
0.0
 11
12.231903356849161
 21
13.61557082972611
 31
0.0
  0
LINE
  5
493
  8
1
 10
28.698687887235881
 20
22.615570829726121
 30
0.0
 11
44.698687887235863
 21
22.615570829726121
 31
0.0
  0
TEXT
  5
533
  8
0
 62
     3
 10
0.0
 20
0.0
 30
0.0
 40
5.0
  1
SRP-120-C-DS
  7
STANDARD1
  0
ENDSEC
  0
EOF
