  0
SECTION
  2
HEADER
  9
$ACADVER
  1
AC1009
  9
$INSBASE
 10
82.638099999999994
 20
103.82319099999999
 30
0.0
  9
$EXTMIN
 10
0.0
 20
-1.4802182810368341
 30
0.0
  9
$EXTMAX
 10
81.971545167803768
 20
40.522299908316171
 30
0.0
  9
$LIMMIN
 10
0.0
 20
0.0
  9
$LIMMAX
 10
187.5
 20
135.0
  9
$ORTHOMODE
 70
     1
  9
$REGENMODE
 70
     1
  9
$FILLMODE
 70
     1
  9
$QTEXTMODE
 70
     0
  9
$MIRRTEXT
 70
     0
  9
$DRAGMODE
 70
     2
  9
$LTSCALE
 40
5.0
  9
$OSMODE
 70
    55
  9
$ATTMODE
 70
     1
  9
$TEXTSIZE
 40
0.06
  9
$TRACEWID
 40
0.05
  9
$TEXTSTYLE
  7
STANDARD
  9
$CLAYER
  8
0
  9
$CELTYPE
  6
BYLAYER
  9
$CECOLOR
 62
   256
  9
$DIMSCALE
 40
0.5
  9
$DIMASZ
 40
3.0
  9
$DIMEXO
 40
2.0
  9
$DIMDLI
 40
10.0
  9
$DIMRND
 40
0.0
  9
$DIMDLE
 40
0.0
  9
$DIMEXE
 40
2.0
  9
$DIMTP
 40
0.0
  9
$DIMTM
 40
0.0
  9
$DIMTXT
 40
3.0
  9
$DIMCEN
 40
0.0
  9
$DIMTSZ
 40
0.0
  9
$DIMTOL
 70
     0
  9
$DIMLIM
 70
     0
  9
$DIMTIH
 70
     0
  9
$DIMTOH
 70
     0
  9
$DIMSE1
 70
     0
  9
$DIMSE2
 70
     0
  9
$DIMTAD
 70
     1
  9
$DIMZIN
 70
     0
  9
$DIMBLK
  1

  9
$DIMASO
 70
     1
  9
$DIMSHO
 70
     0
  9
$DIMPOST
  1

  9
$DIMAPOST
  1

  9
$DIMALT
 70
     0
  9
$DIMALTD
 70
     2
  9
$DIMALTF
 40
25.399999999999999
  9
$DIMLFAC
 40
1.0
  9
$DIMTOFL
 70
     1
  9
$DIMTVP
 40
1.6000000000000001
  9
$DIMTIX
 70
     1
  9
$DIMSOXD
 70
     0
  9
$DIMSAH
 70
     0
  9
$DIMBLK1
  1

  9
$DIMBLK2
  1

  9
$DIMSTYLE
  2
STANDARD
  9
$DIMCLRD
 70
     0
  9
$DIMCLRE
 70
     0
  9
$DIMCLRT
 70
     0
  9
$DIMTFAC
 40
1.0
  9
$DIMGAP
 40
0.09
  9
$LUNITS
 70
     2
  9
$LUPREC
 70
     4
  9
$SKETCHINC
 40
0.1
  9
$FILLETRAD
 40
0.0
  9
$AUNITS
 70
     0
  9
$AUPREC
 70
     4
  9
$MENU
  1
E:\r13\win\SUPPORT\ACAD
  9
$ELEVATION
 40
0.0
  9
$PELEVATION
 40
0.0
  9
$THICKNESS
 40
0.0
  9
$LIMCHECK
 70
     0
  9
$BLIPMODE
 70
     0
  9
$CHAMFERA
 40
0.0
  9
$CHAMFERB
 40
0.0
  9
$SKPOLY
 70
     0
  9
$TDCREATE
 40
2449840.5918518519
  9
$TDUPDATE
 40
2456598.5599075002
  9
$TDINDWG
 40
0.0480938773
  9
$TDUSRTIMER
 40
0.0480938773
  9
$USRTIMER
 70
     1
  9
$ANGBASE
 50
0.0
  9
$ANGDIR
 70
     0
  9
$PDMODE
 70
     1
  9
$PDSIZE
 40
0.0
  9
$PLINEWID
 40
0.0
  9
$COORDS
 70
     1
  9
$SPLFRAME
 70
     0
  9
$SPLINETYPE
 70
     6
  9
$SPLINESEGS
 70
     8
  9
$ATTDIA
 70
     0
  9
$ATTREQ
 70
     1
  9
$HANDLING
 70
     1
  9
$HANDSEED
  5
834
  9
$SURFTAB1
 70
     6
  9
$SURFTAB2
 70
     6
  9
$SURFTYPE
 70
     6
  9
$SURFU
 70
     6
  9
$SURFV
 70
     6
  9
$UCSNAME
  2

  9
$UCSORG
 10
0.0
 20
0.0
 30
0.0
  9
$UCSXDIR
 10
1.0
 20
0.0
 30
0.0
  9
$UCSYDIR
 10
0.0
 20
1.0
 30
0.0
  9
$PUCSNAME
  2

  9
$PUCSORG
 10
0.0
 20
0.0
 30
0.0
  9
$PUCSXDIR
 10
1.0
 20
0.0
 30
0.0
  9
$PUCSYDIR
 10
0.0
 20
1.0
 30
0.0
  9
$USERI1
 70
     3
  9
$USERI2
 70
     1
  9
$USERI3
 70
     1
  9
$USERI4
 70
     0
  9
$USERI5
 70
     0
  9
$USERR1
 40
0.5
  9
$USERR2
 40
3.0
  9
$USERR3
 40
3.0
  9
$USERR4
 40
3.0
  9
$USERR5
 40
10.0
  9
$WORLDVIEW
 70
     1
  9
$SHADEDGE
 70
     3
  9
$SHADEDIF
 70
    70
  9
$TILEMODE
 70
     1
  9
$MAXACTVP
 70
    16
  9
$PLIMCHECK
 70
     0
  9
$PEXTMIN
 10
1.0000000000000000E+020
 20
1.0000000000000000E+020
 30
1.0000000000000000E+020
  9
$PEXTMAX
 10
-1.0000000000000000E+020
 20
-1.0000000000000000E+020
 30
-1.0000000000000000E+020
  9
$PLIMMIN
 10
0.0
 20
0.0
  9
$PLIMMAX
 10
12.0
 20
9.0
  9
$UNITMODE
 70
     0
  9
$VISRETAIN
 70
     0
  9
$PLINEGEN
 70
     0
  9
$PSLTSCALE
 70
     0
  0
ENDSEC
  0
SECTION
  2
TABLES
  0
TABLE
  2
VPORT
 70
     1
  0
VPORT
  2
*ACTIVE
 70
     0
 10
0.0
 20
0.0
 11
1.0
 21
1.0
 12
93.747139195326184
 22
98.525452793007162
 13
0.0
 23
0.0
 14
5.0
 24
5.0
 15
10.0
 25
10.0
 16
0.0
 26
0.0
 36
1.0
 17
0.0
 27
0.0
 37
0.0
 40
201.7865794149663
 41
1.7807262569832401
 42
50.0
 43
0.0
 44
0.0
 50
0.0
 51
0.0
 71
     0
 72
   100
 73
     1
 74
     0
 75
     0
 76
     0
 77
     0
 78
     2
  0
ENDTAB
  0
TABLE
  2
LTYPE
 70
     4
  0
LTYPE
  2
CONTINUOUS
 70
     0
  3
Solid Line
 72
    65
 73
     0
 40
0.0
  0
LTYPE
  2
CENTER
 70
     0
  3
____ _ ____ _ ____ _ ____ _ ____ _ ____ _ ____
 72
    65
 73
     4
 40
2.0
 49
1.25
 49
-0.25
 49
0.25
 49
-0.25
  0
LTYPE
  2
HIDDEN
 70
     0
  3
__ __ __ __ __ __ __ __ __ __ __ __ __ __ __ __
 72
    65
 73
     2
 40
0.375
 49
0.25
 49
-0.125
  0
LTYPE
  2
PHANTOM2
 70
     0
  3
___ _ _ ___ _ _ ___ _ _ ___ _ _
 72
    65
 73
     6
 40
1.25
 49
0.625
 49
-0.125
 49
0.125
 49
-0.125
 49
0.125
 49
-0.125
  0
ENDTAB
  0
TABLE
  2
LAYER
 70
     3
  0
LAYER
  2
0
 70
     0
 62
     7
  6
CONTINUOUS
  0
LAYER
  2
1
 70
     0
 62
     1
  6
CENTER
  0
LAYER
  2
2
 70
     0
 62
     2
  6
HIDDEN
  0
ENDTAB
  0
TABLE
  2
STYLE
 70
     2
  0
STYLE
  2
STANDARD
 70
     0
 40
0.0
 41
1.0
 50
0.0
 71
     0
 42
0.06
  3
TXT
  4
BIGFONT
  0
STYLE
  2
STANDARD1
 70
     0
 40
0.0
 41
1.0
 50
0.0
 71
     0
 42
3.0
  3
txt
  4

  0
ENDTAB
  0
TABLE
  2
VIEW
 70
     0
  0
ENDTAB
  0
TABLE
  2
UCS
 70
     0
  0
ENDTAB
  0
TABLE
  2
APPID
 70
     3
  0
APPID
  2
ACAD
 70
     0
  0
APPID
  2
ACAD_MLEADERVER
 70
     0
  0
APPID
  2
ACAD_NAV_VCDISPLAY
 70
     0
  0
ENDTAB
  0
TABLE
  2
DIMSTYLE
 70
     1
  0
DIMSTYLE
  2
STANDARD
 70
     0
  3

  4

  5

  6

  7

 40
1.0
 41
0.18
 42
0.0625
 43
0.38
 44
0.18
 45
0.0
 46
0.0
 47
0.0
 48
0.0
140
0.18
141
0.09
142
0.0
143
25.399999999999999
144
1.0
145
0.0
146
1.0
147
0.09
 71
     0
 72
     0
 73
     1
 74
     1
 75
     0
 76
     0
 77
     0
 78
     0
170
     0
171
     2
172
     0
173
     0
174
     0
175
     0
176
     0
177
     0
178
     0
  0
ENDTAB
  0
ENDSEC
  0
SECTION
  2
BLOCKS
  0
BLOCK
  8
0
  2
$MODEL_SPACE
 70
     0
 10
0.0
 20
0.0
 30
0.0
  3
$MODEL_SPACE
  1

  0
ENDBLK
  5
BD
  8
0
  0
BLOCK
 67
     1
  8
0
  2
$PAPER_SPACE
 70
     0
 10
0.0
 20
0.0
 30
0.0
  3
$PAPER_SPACE
  1

  0
ENDBLK
  5
BB
 67
     1
  8
0
  0
ENDSEC
  0
SECTION
  2
ENTITIES
  0
LINE
  5
4CF
  8
2
 10
78.971545167803797
 20
22.022299908316239
 30
0.0
 11
72.571545167803777
 21
22.022299908316299
 31
0.0
  0
LINE
  5
4D0
  8
2
 10
78.971545167803797
 20
22.56379990831617
 30
0.0
 11
70.824670167803845
 21
22.563799908316209
 31
0.0
  0
LINE
  5
4D1
  8
2
 10
78.971545167803782
 20
27.480799908316339
 30
0.0
 11
70.824670167803845
 21
27.480799908316389
 31
0.0
  0
LINE
  5
4D2
  8
2
 10
78.971545167803782
 20
28.022299908316239
 30
0.0
 11
72.571545167803777
 21
28.022299908316299
 31
0.0
  0
LINE
  5
4D3
  8
2
 10
72.571545167803777
 20
22.022299908316299
 30
0.0
 11
72.571545167803777
 21
28.022299908316299
 31
0.0
  0
LINE
  5
4D4
  8
2
 10
70.824670167803845
 20
22.563799908316209
 30
0.0
 11
70.824670167803845
 21
27.480799908316389
 31
0.0
  0
LINE
  5
4D5
  8
2
 10
70.824670167803873
 20
22.563799908316241
 30
0.0
 11
69.347454335924525
 21
25.02229990831632
 31
0.0
  0
LINE
  5
4D6
  8
2
 10
70.824670167803816
 20
27.480799908316389
 30
0.0
 11
69.347454335924525
 21
25.02229990831632
 31
0.0
  0
LINE
  5
4D7
  8
2
 10
72.571545167803777
 20
28.022299908316299
 30
0.0
 11
71.633639655505391
 21
27.480799908316371
 31
0.0
  0
LINE
  5
4D8
  8
2
 10
72.571545167803777
 20
22.022299908316409
 30
0.0
 11
71.633639655505391
 21
22.563799908316341
 31
0.0
  0
LINE
  5
6D5
  8
0
 10
66.971545167803811
 20
12.776299908316229
 30
0.0
 11
66.971545167803725
 21
37.268299908316131
 31
0.0
  0
LINE
  5
6D8
  8
0
 10
67.225545167803745
 20
37.522299908316143
 30
0.0
 11
67.22554516780383
 21
12.522299908316249
 31
0.0
  0
LINE
  5
6DA
  8
0
 10
78.971545167803754
 20
36.760299908316277
 30
0.0
 11
78.971545167803825
 21
13.28429990831623
 31
0.0
  0
LINE
  5
6DB
  8
0
 10
78.20954516780381
 20
12.52229990831631
 30
0.0
 11
78.209545167803725
 21
37.522299908316199
 31
0.0
  0
LINE
  5
6DD
  8
0
 10
66.971545167803811
 20
12.776299908316229
 30
0.0
 11
67.22554516780383
 21
12.52229990831623
 31
0.0
  0
LINE
  5
6DE
  8
0
 10
67.22554516780383
 20
37.522299908316199
 30
0.0
 11
66.971545167803811
 21
37.268299908316209
 31
0.0
  0
LINE
  5
6DF
  8
0
 10
67.22554516780383
 20
12.52229990831623
 30
0.0
 11
78.20954516780381
 21
12.52229990831623
 31
0.0
  0
LINE
  5
6E0
  8
0
 10
78.20954516780381
 20
37.522299908316199
 30
0.0
 11
67.22554516780383
 21
37.522299908316199
 31
0.0
  0
LINE
  5
6E1
  8
0
 10
78.971545167803825
 20
36.760299908316199
 30
0.0
 11
78.20954516780381
 21
37.522299908316199
 31
0.0
  0
LINE
  5
6E2
  8
0
 10
78.20954516780381
 20
12.52229990831623
 30
0.0
 11
78.971545167803825
 21
13.28429990831623
 31
0.0
  0
CIRCLE
  5
6E8
  8
0
 10
25.02103688051108
 20
25.022299908316171
 30
0.0
 40
12.500000000000011
  0
CIRCLE
  5
6E9
  8
0
 10
25.02103688051108
 20
25.022299908316171
 30
0.0
 40
12.24599999999999
  0
LINE
  5
6EA
  8
1
 10
25.02103688051108
 20
40.522299908316171
 30
0.0
 11
25.02103688051108
 21
9.522299908316171
 31
0.0
  0
LINE
  5
6EB
  8
1
 10
40.521036880511083
 20
25.022299908316171
 30
0.0
 11
9.5210368805110672
 21
25.022299908316171
 31
0.0
  0
LINE
  5
6EF
  8
1
 10
63.971545167803789
 20
25.022299908316171
 30
0.0
 11
81.971545167803768
 21
25.022299908316171
 31
0.0
  0
TEXT
  5
7A1
  8
0
 62
     3
 10
0.0
 20
0.0
 30
0.0
 40
5.0
  1
SRP-252-DS
  7
STANDARD1
  0
ENDSEC
  0
EOF
