  0
SECTION
  2
HEADER
  9
$ACADVER
  1
AC1009
  9
$INSBASE
 10
0.0
 20
0.0
 30
0.0
  9
$EXTMIN
 10
0.0
 20
-2.960436562073669
 30
0.0
  9
$EXTMAX
 10
136.9049229269487
 20
133.02500000000001
 30
0.0
  9
$LIMMIN
 10
0.0
 20
0.0
  9
$LIMMAX
 10
12.0
 20
9.0
  9
$ORTHOMODE
 70
     1
  9
$REGENMODE
 70
     1
  9
$FILLMODE
 70
     1
  9
$QTEXTMODE
 70
     0
  9
$MIRRTEXT
 70
     0
  9
$DRAGMODE
 70
     2
  9
$LTSCALE
 40
5.0
  9
$OSMODE
 70
    37
  9
$ATTMODE
 70
     1
  9
$TEXTSIZE
 40
0.2
  9
$TRACEWID
 40
0.05
  9
$TEXTSTYLE
  7
STANDARD
  9
$CLAYER
  8
0
  9
$CELTYPE
  6
BYLAYER
  9
$CECOLOR
 62
   256
  9
$DIMSCALE
 40
1.0
  9
$DIMASZ
 40
0.18
  9
$DIMEXO
 40
0.0625
  9
$DIMDLI
 40
0.38
  9
$DIMRND
 40
0.0
  9
$DIMDLE
 40
0.0
  9
$DIMEXE
 40
0.18
  9
$DIMTP
 40
0.0
  9
$DIMTM
 40
0.0
  9
$DIMTXT
 40
0.18
  9
$DIMCEN
 40
0.09
  9
$DIMTSZ
 40
0.0
  9
$DIMTOL
 70
     0
  9
$DIMLIM
 70
     0
  9
$DIMTIH
 70
     1
  9
$DIMTOH
 70
     1
  9
$DIMSE1
 70
     0
  9
$DIMSE2
 70
     0
  9
$DIMTAD
 70
     0
  9
$DIMZIN
 70
     0
  9
$DIMBLK
  1

  9
$DIMASO
 70
     1
  9
$DIMSHO
 70
     1
  9
$DIMPOST
  1

  9
$DIMAPOST
  1

  9
$DIMALT
 70
     0
  9
$DIMALTD
 70
     2
  9
$DIMALTF
 40
25.399999999999999
  9
$DIMLFAC
 40
1.0
  9
$DIMTOFL
 70
     0
  9
$DIMTVP
 40
0.0
  9
$DIMTIX
 70
     0
  9
$DIMSOXD
 70
     0
  9
$DIMSAH
 70
     0
  9
$DIMBLK1
  1

  9
$DIMBLK2
  1

  9
$DIMSTYLE
  2
STANDARD
  9
$DIMCLRD
 70
     0
  9
$DIMCLRE
 70
     0
  9
$DIMCLRT
 70
     0
  9
$DIMTFAC
 40
1.0
  9
$DIMGAP
 40
0.09
  9
$LUNITS
 70
     2
  9
$LUPREC
 70
     4
  9
$SKETCHINC
 40
0.1
  9
$FILLETRAD
 40
2.5
  9
$AUNITS
 70
     0
  9
$AUPREC
 70
     0
  9
$MENU
  1
.
  9
$ELEVATION
 40
0.0
  9
$PELEVATION
 40
0.0
  9
$THICKNESS
 40
0.0
  9
$LIMCHECK
 70
     0
  9
$BLIPMODE
 70
     0
  9
$CHAMFERA
 40
0.25
  9
$CHAMFERB
 40
0.25
  9
$SKPOLY
 70
     0
  9
$TDCREATE
 40
2453083.4120647679
  9
$TDUPDATE
 40
2456980.596987477
  9
$TDINDWG
 40
0.4290319907
  9
$TDUSRTIMER
 40
0.429031875
  9
$USRTIMER
 70
     1
  9
$ANGBASE
 50
0.0
  9
$ANGDIR
 70
     0
  9
$PDMODE
 70
     0
  9
$PDSIZE
 40
0.0
  9
$PLINEWID
 40
0.0
  9
$COORDS
 70
     1
  9
$SPLFRAME
 70
     0
  9
$SPLINETYPE
 70
     6
  9
$SPLINESEGS
 70
     8
  9
$ATTDIA
 70
     0
  9
$ATTREQ
 70
     1
  9
$HANDLING
 70
     1
  9
$HANDSEED
  5
2DB9
  9
$SURFTAB1
 70
     6
  9
$SURFTAB2
 70
     6
  9
$SURFTYPE
 70
     6
  9
$SURFU
 70
     6
  9
$SURFV
 70
     6
  9
$UCSNAME
  2

  9
$UCSORG
 10
0.0
 20
0.0
 30
0.0
  9
$UCSXDIR
 10
1.0
 20
0.0
 30
0.0
  9
$UCSYDIR
 10
0.0
 20
1.0
 30
0.0
  9
$PUCSNAME
  2

  9
$PUCSORG
 10
0.0
 20
0.0
 30
0.0
  9
$PUCSXDIR
 10
1.0
 20
0.0
 30
0.0
  9
$PUCSYDIR
 10
0.0
 20
1.0
 30
0.0
  9
$USERI1
 70
     0
  9
$USERI2
 70
     1
  9
$USERI3
 70
     0
  9
$USERI4
 70
     0
  9
$USERI5
 70
     0
  9
$USERR1
 40
0.0
  9
$USERR2
 40
0.0
  9
$USERR3
 40
0.0
  9
$USERR4
 40
0.0
  9
$USERR5
 40
0.0
  9
$WORLDVIEW
 70
     1
  9
$SHADEDGE
 70
     3
  9
$SHADEDIF
 70
    70
  9
$TILEMODE
 70
     1
  9
$MAXACTVP
 70
    64
  9
$PLIMCHECK
 70
     0
  9
$PEXTMIN
 10
0.0
 20
0.0
 30
0.0
  9
$PEXTMAX
 10
0.0
 20
0.0
 30
0.0
  9
$PLIMMIN
 10
0.0
 20
0.0
  9
$PLIMMAX
 10
12.0
 20
9.0
  9
$UNITMODE
 70
     0
  9
$VISRETAIN
 70
     1
  9
$PLINEGEN
 70
     0
  9
$PSLTSCALE
 70
     1
  0
ENDSEC
  0
SECTION
  2
TABLES
  0
TABLE
  2
VPORT
 70
     1
  0
VPORT
  2
*ACTIVE
 70
     0
 10
0.0
 20
0.0
 11
1.0
 21
1.0
 12
165.8205841446453
 22
95.0
 13
0.0
 23
0.0
 14
0.5
 24
0.5
 15
0.5
 25
0.5
 16
0.0
 26
0.0
 36
1.0
 17
0.0
 27
0.0
 37
0.0
 40
190.0
 41
1.7454798331015291
 42
50.0
 43
0.0
 44
0.0
 50
0.0
 51
0.0
 71
     0
 72
  1000
 73
     1
 74
     2
 75
     0
 76
     0
 77
     0
 78
     0
  0
ENDTAB
  0
TABLE
  2
LTYPE
 70
     4
  0
LTYPE
  2
CONTINUOUS
 70
     0
  3
Solid Line
 72
    65
 73
     0
 40
0.0
  0
LTYPE
  2
CENTER
 70
     0
  3
____ _ ____ _ ____ _ ____ _ ____ _ ____ _ ____
 72
    65
 73
     4
 40
2.0
 49
1.25
 49
-0.25
 49
0.25
 49
-0.25
  0
LTYPE
  2
HIDDEN
 70
     0
  3
Hidden __ __ __ __ __ __ __ __ __ __ __ __ __ _
 72
    65
 73
     2
 40
0.375
 49
0.25
 49
-0.125
  0
LTYPE
  2
PHANTOM2
 70
     0
  3
___ _ _ ___ _ _ ___ _ _ ___ _ _
 72
    65
 73
     6
 40
1.25
 49
0.625
 49
-0.125
 49
0.125
 49
-0.125
 49
0.125
 49
-0.125
  0
ENDTAB
  0
TABLE
  2
LAYER
 70
     3
  0
LAYER
  2
0
 70
     0
 62
     7
  6
CONTINUOUS
  0
LAYER
  2
1
 70
     0
 62
     1
  6
CENTER
  0
LAYER
  2
2
 70
     0
 62
     2
  6
HIDDEN
  0
ENDTAB
  0
TABLE
  2
STYLE
 70
     2
  0
STYLE
  2
STANDARD
 70
     0
 40
0.0
 41
1.0
 50
0.0
 71
     0
 42
0.2
  3
simplex.shx
  4
bigfont.shx
  0
STYLE
  2
STANDARD1
 70
     0
 40
0.0
 41
1.0
 50
0.0
 71
     0
 42
3.0
  3
txt
  4

  0
ENDTAB
  0
TABLE
  2
VIEW
 70
     0
  0
ENDTAB
  0
TABLE
  2
UCS
 70
     0
  0
ENDTAB
  0
TABLE
  2
APPID
 70
     5
  0
APPID
  2
ACAD
 70
     0
  0
APPID
  2
DCO15
 70
     0
  0
APPID
  2
ACAD_MLEADERVER
 70
     0
  0
APPID
  2
ACAD_EXEMPT_FROM_CAD_STANDARDS
 70
     0
  0
APPID
  2
ACAD_NAV_VCDISPLAY
 70
     0
  0
ENDTAB
  0
TABLE
  2
DIMSTYLE
 70
     1
  0
DIMSTYLE
  2
STANDARD
 70
     0
  3

  4

  5

  6

  7

 40
1.0
 41
0.18
 42
0.0625
 43
0.38
 44
0.18
 45
0.0
 46
0.0
 47
0.0
 48
0.0
140
0.18
141
0.09
142
0.0
143
25.399999999999999
144
1.0
145
0.0
146
1.0
147
0.09
 71
     0
 72
     0
 73
     1
 74
     1
 75
     0
 76
     0
 77
     0
 78
     0
170
     0
171
     2
172
     0
173
     0
174
     0
175
     0
176
     0
177
     0
178
     0
  0
ENDTAB
  0
ENDSEC
  0
SECTION
  2
BLOCKS
  0
BLOCK
  8
0
  2
$MODEL_SPACE
 70
     0
 10
0.0
 20
0.0
 30
0.0
  3
$MODEL_SPACE
  1

  0
ENDBLK
  5
21
  8
0
  0
BLOCK
 67
     1
  8
0
  2
$PAPER_SPACE
 70
     0
 10
0.0
 20
0.0
 30
0.0
  3
$PAPER_SPACE
  1

  0
ENDBLK
  5
5B
 67
     1
  8
0
  0
ENDSEC
  0
SECTION
  2
ENTITIES
  0
TEXT
  5
1F96
  8
0
 62
     3
 10
0.0
 20
0.0
 30
0.0
 40
10.0
  1
SSB-M6
  7
STANDARD1
  0
LINE
  5
24DD
  8
0
 10
133.17740000000001
 20
37.137400000000007
 30
0.0
 11
129.87540000000001
 21
37.137400000000007
 31
0.0
  0
LINE
  5
24DE
  8
0
 10
129.87540000000001
 20
45.087600000000002
 30
0.0
 11
133.17740000000001
 21
45.087600000000002
 31
0.0
  0
ARC
  5
24DF
  8
0
 10
127.5913685
 20
41.11249999999999
 30
0.0
 40
6.8560315000000251
 50
6.3812094595999946
 51
35.436199342500217
  0
ARC
  5
24E0
  8
0
 10
127.5913685
 20
41.11249999999999
 30
0.0
 40
6.8560315000000323
 50
324.56380065749971
 51
353.61879054040003
  0
ARC
  5
24E1
  8
0
 10
94.925000000000011
 20
41.11249999999999
 30
0.0
 40
12.70000000000001
 50
125.6590876961006
 51
234.34091230389939
  0
LINE
  5
24E2
  8
0
 10
87.521392876840025
 20
51.431250000000013
 30
0.0
 11
88.600399999999965
 21
51.431250000000013
 31
0.0
  0
LINE
  5
24E3
  8
0
 10
88.600399999999965
 20
30.79375000000001
 30
0.0
 11
87.521392876840025
 21
30.79375000000001
 31
0.0
  0
LINE
  5
24E4
  8
0
 10
88.600399999999965
 20
49.005549999999999
 30
0.0
 11
94.950400000000016
 21
49.005549999999999
 31
0.0
  0
LINE
  5
24E5
  8
0
 10
94.950400000000016
 20
33.219450000000009
 30
0.0
 11
88.600399999999965
 21
33.219450000000009
 31
0.0
  0
LINE
  5
24E6
  8
0
 10
94.950399999999945
 20
52.22500000000003
 30
0.0
 11
129.87540000000001
 21
52.225000000000009
 31
0.0
  0
LINE
  5
24FD
  8
0
 10
133.17740000000001
 20
41.874500000000012
 30
0.0
 11
133.17740000000001
 21
45.087600000000002
 31
0.0
  0
LINE
  5
24FE
  8
0
 10
133.17740000000001
 20
37.137400000000007
 30
0.0
 11
133.17740000000001
 21
40.350499999999997
 31
0.0
  0
LINE
  5
2500
  8
0
 10
132.33920000000001
 20
41.874500000000012
 30
0.0
 11
132.33920000000001
 21
40.350499999999997
 31
0.0
  0
LINE
  5
2501
  8
0
 10
134.4049229272199
 20
41.874500000000012
 30
0.0
 11
132.33920000000001
 21
41.874500000000012
 31
0.0
  0
LINE
  5
2502
  8
0
 10
132.33920000000001
 20
40.35049999999999
 30
0.0
 11
134.4049229272199
 21
40.350499999999997
 31
0.0
  0
LINE
  5
2503
  8
0
 10
87.521392876840025
 20
51.431250000000013
 30
0.0
 11
87.521392876840025
 21
30.79375000000001
 31
0.0
  0
LINE
  5
2504
  8
0
 10
88.600399999999965
 20
51.431250000000013
 30
0.0
 11
88.600399999999965
 21
30.79375000000001
 31
0.0
  0
LINE
  5
2512
  8
0
 10
94.950400000000016
 20
30.0
 30
0.0
 11
129.8754000000001
 21
30.0
 31
0.0
  0
LINE
  5
2513
  8
0
 10
129.87540000000001
 20
36.960393391532968
 30
0.0
 11
94.950400000000016
 21
37.937499999038671
 31
0.0
  0
LINE
  5
2523
  8
0
 10
94.950400000000016
 20
52.225000000000009
 30
0.0
 11
94.950400000000016
 21
30.0
 31
0.0
  0
LINE
  5
2531
  8
0
 10
129.87540000000001
 20
52.225000000000009
 30
0.0
 11
129.87540000000001
 21
30.000000000000011
 31
0.0
  0
CIRCLE
  5
2624
  8
0
 10
41.112499999999997
 20
107.625
 30
0.0
 40
10.318749999999991
  0
POLYLINE
  5
2628
  8
0
 10
38.700286784412754
 20
118.73750000001711
 30
0.0
 66
     1
 70
     8
  0
VERTEX
  8
0
  5
2BB1
 10
38.7003
 20
118.738
 30
0.000000
  70
    32
  0
VERTEX
  8
0
  5
2BB2
 10
38.6909
 20
118.738
 30
0.000000
  70
    32
  0
VERTEX
  8
0
  5
2BB3
 10
38.6816
 20
118.738
 30
0.000000
  70
    32
  0
VERTEX
  8
0
  5
2BB4
 10
38.6722
 20
118.738
 30
0.000000
  70
    32
  0
VERTEX
  8
0
  5
2BB5
 10
38.6628
 20
118.738
 30
0.000000
  70
    32
  0
VERTEX
  8
0
  5
2BB6
 10
38.6534
 20
118.739
 30
0.000000
  70
    32
  0
VERTEX
  8
0
  5
2BB7
 10
38.6441
 20
118.740
 30
0.000000
  70
    32
  0
VERTEX
  8
0
  5
2BB8
 10
38.6347
 20
118.740
 30
0.000000
  70
    32
  0
VERTEX
  8
0
  5
2BB9
 10
38.6254
 20
118.741
 30
0.000000
  70
    32
  0
VERTEX
  8
0
  5
2BBA
 10
38.6160
 20
118.742
 30
0.000000
  70
    32
  0
VERTEX
  8
0
  5
2BBB
 10
38.6067
 20
118.743
 30
0.000000
  70
    32
  0
VERTEX
  8
0
  5
2BBC
 10
38.5973
 20
118.744
 30
0.000000
  70
    32
  0
VERTEX
  8
0
  5
2BBD
 10
38.5880
 20
118.746
 30
0.000000
  70
    32
  0
VERTEX
  8
0
  5
2BBE
 10
38.5787
 20
118.747
 30
0.000000
  70
    32
  0
VERTEX
  8
0
  5
2BBF
 10
38.5694
 20
118.749
 30
0.000000
  70
    32
  0
VERTEX
  8
0
  5
2BC0
 10
38.5601
 20
118.750
 30
0.000000
  70
    32
  0
VERTEX
  8
0
  5
2BC1
 10
38.5508
 20
118.752
 30
0.000000
  70
    32
  0
VERTEX
  8
0
  5
2BC2
 10
38.5416
 20
118.754
 30
0.000000
  70
    32
  0
VERTEX
  8
0
  5
2BC3
 10
38.5323
 20
118.756
 30
0.000000
  70
    32
  0
VERTEX
  8
0
  5
2BC4
 10
38.5231
 20
118.758
 30
0.000000
  70
    32
  0
VERTEX
  8
0
  5
2BC5
 10
38.5139
 20
118.760
 30
0.000000
  70
    32
  0
VERTEX
  8
0
  5
2BC6
 10
38.5047
 20
118.763
 30
0.000000
  70
    32
  0
VERTEX
  8
0
  5
2BC7
 10
38.4956
 20
118.765
 30
0.000000
  70
    32
  0
VERTEX
  8
0
  5
2BC8
 10
38.4865
 20
118.768
 30
0.000000
  70
    32
  0
VERTEX
  8
0
  5
2BC9
 10
38.4774
 20
118.770
 30
0.000000
  70
    32
  0
VERTEX
  8
0
  5
2BCA
 10
38.4683
 20
118.773
 30
0.000000
  70
    32
  0
VERTEX
  8
0
  5
2BCB
 10
38.4593
 20
118.776
 30
0.000000
  70
    32
  0
VERTEX
  8
0
  5
2BCC
 10
38.4503
 20
118.779
 30
0.000000
  70
    32
  0
VERTEX
  8
0
  5
2BCD
 10
38.4413
 20
118.782
 30
0.000000
  70
    32
  0
VERTEX
  8
0
  5
2BCE
 10
38.4323
 20
118.785
 30
0.000000
  70
    32
  0
VERTEX
  8
0
  5
2BCF
 10
38.4234
 20
118.789
 30
0.000000
  70
    32
  0
VERTEX
  8
0
  5
2BD0
 10
38.4146
 20
118.792
 30
0.000000
  70
    32
  0
VERTEX
  8
0
  5
2BD1
 10
38.4057
 20
118.796
 30
0.000000
  70
    32
  0
VERTEX
  8
0
  5
2BD2
 10
38.3970
 20
118.799
 30
0.000000
  70
    32
  0
VERTEX
  8
0
  5
2BD3
 10
38.3882
 20
118.803
 30
0.000000
  70
    32
  0
VERTEX
  8
0
  5
2BD4
 10
38.3795
 20
118.807
 30
0.000000
  70
    32
  0
VERTEX
  8
0
  5
2BD5
 10
38.3708
 20
118.811
 30
0.000000
  70
    32
  0
VERTEX
  8
0
  5
2BD6
 10
38.3622
 20
118.815
 30
0.000000
  70
    32
  0
VERTEX
  8
0
  5
2BD7
 10
38.3536
 20
118.819
 30
0.000000
  70
    32
  0
VERTEX
  8
0
  5
2BD8
 10
38.3451
 20
118.823
 30
0.000000
  70
    32
  0
VERTEX
  8
0
  5
2BD9
 10
38.3366
 20
118.827
 30
0.000000
  70
    32
  0
VERTEX
  8
0
  5
2BDA
 10
38.3282
 20
118.832
 30
0.000000
  70
    32
  0
VERTEX
  8
0
  5
2BDB
 10
38.3198
 20
118.836
 30
0.000000
  70
    32
  0
VERTEX
  8
0
  5
2BDC
 10
38.3115
 20
118.841
 30
0.000000
  70
    32
  0
VERTEX
  8
0
  5
2BDD
 10
38.3032
 20
118.846
 30
0.000000
  70
    32
  0
VERTEX
  8
0
  5
2BDE
 10
38.2950
 20
118.851
 30
0.000000
  70
    32
  0
VERTEX
  8
0
  5
2BDF
 10
38.2868
 20
118.856
 30
0.000000
  70
    32
  0
VERTEX
  8
0
  5
2BE0
 10
38.2787
 20
118.861
 30
0.000000
  70
    32
  0
VERTEX
  8
0
  5
2BE1
 10
38.2707
 20
118.866
 30
0.000000
  70
    32
  0
VERTEX
  8
0
  5
2BE2
 10
38.2627
 20
118.871
 30
0.000000
  70
    32
  0
VERTEX
  8
0
  5
2BE3
 10
38.2547
 20
118.877
 30
0.000000
  70
    32
  0
VERTEX
  8
0
  5
2BE4
 10
38.2469
 20
118.882
 30
0.000000
  70
    32
  0
VERTEX
  8
0
  5
2BE5
 10
38.2391
 20
118.887
 30
0.000000
  70
    32
  0
VERTEX
  8
0
  5
2BE6
 10
38.2313
 20
118.893
 30
0.000000
  70
    32
  0
VERTEX
  8
0
  5
2BE7
 10
38.2237
 20
118.899
 30
0.000000
  70
    32
  0
VERTEX
  8
0
  5
2BE8
 10
38.2161
 20
118.905
 30
0.000000
  70
    32
  0
VERTEX
  8
0
  5
2BE9
 10
38.2085
 20
118.910
 30
0.000000
  70
    32
  0
VERTEX
  8
0
  5
2BEA
 10
38.2010
 20
118.916
 30
0.000000
  70
    32
  0
VERTEX
  8
0
  5
2BEB
 10
38.1936
 20
118.923
 30
0.000000
  70
    32
  0
VERTEX
  8
0
  5
2BEC
 10
38.1863
 20
118.929
 30
0.000000
  70
    32
  0
VERTEX
  8
0
  5
2BED
 10
38.1791
 20
118.935
 30
0.000000
  70
    32
  0
VERTEX
  8
0
  5
2BEE
 10
38.1719
 20
118.941
 30
0.000000
  70
    32
  0
VERTEX
  8
0
  5
2BEF
 10
38.1648
 20
118.948
 30
0.000000
  70
    32
  0
VERTEX
  8
0
  5
2BF0
 10
38.1577
 20
118.954
 30
0.000000
  70
    32
  0
VERTEX
  8
0
  5
2BF1
 10
38.1508
 20
118.961
 30
0.000000
  70
    32
  0
VERTEX
  8
0
  5
2BF2
 10
38.1439
 20
118.967
 30
0.000000
  70
    32
  0
VERTEX
  8
0
  5
2BF3
 10
38.1371
 20
118.974
 30
0.000000
  70
    32
  0
VERTEX
  8
0
  5
2BF4
 10
38.1304
 20
118.981
 30
0.000000
  70
    32
  0
VERTEX
  8
0
  5
2BF5
 10
38.1237
 20
118.988
 30
0.000000
  70
    32
  0
VERTEX
  8
0
  5
2BF6
 10
38.1172
 20
118.995
 30
0.000000
  70
    32
  0
VERTEX
  8
0
  5
2BF7
 10
38.1107
 20
119.002
 30
0.000000
  70
    32
  0
VERTEX
  8
0
  5
2BF8
 10
38.1043
 20
119.009
 30
0.000000
  70
    32
  0
VERTEX
  8
0
  5
2BF9
 10
38.0980
 20
119.016
 30
0.000000
  70
    32
  0
VERTEX
  8
0
  5
2BFA
 10
38.0918
 20
119.023
 30
0.000000
  70
    32
  0
VERTEX
  8
0
  5
2BFB
 10
38.0856
 20
119.031
 30
0.000000
  70
    32
  0
VERTEX
  8
0
  5
2BFC
 10
38.0796
 20
119.038
 30
0.000000
  70
    32
  0
VERTEX
  8
0
  5
2BFD
 10
38.0736
 20
119.046
 30
0.000000
  70
    32
  0
VERTEX
  8
0
  5
2BFE
 10
38.0677
 20
119.053
 30
0.000000
  70
    32
  0
VERTEX
  8
0
  5
2BFF
 10
38.0620
 20
119.061
 30
0.000000
  70
    32
  0
VERTEX
  8
0
  5
2C00
 10
38.0563
 20
119.068
 30
0.000000
  70
    32
  0
VERTEX
  8
0
  5
2C01
 10
38.0507
 20
119.076
 30
0.000000
  70
    32
  0
VERTEX
  8
0
  5
2C02
 10
38.0452
 20
119.084
 30
0.000000
  70
    32
  0
VERTEX
  8
0
  5
2C03
 10
38.0397
 20
119.092
 30
0.000000
  70
    32
  0
VERTEX
  8
0
  5
2C04
 10
38.0344
 20
119.100
 30
0.000000
  70
    32
  0
VERTEX
  8
0
  5
2C05
 10
38.0292
 20
119.108
 30
0.000000
  70
    32
  0
VERTEX
  8
0
  5
2C06
 10
38.0241
 20
119.116
 30
0.000000
  70
    32
  0
VERTEX
  8
0
  5
2C07
 10
38.0190
 20
119.124
 30
0.000000
  70
    32
  0
VERTEX
  8
0
  5
2C08
 10
38.0141
 20
119.132
 30
0.000000
  70
    32
  0
VERTEX
  8
0
  5
2C09
 10
38.0093
 20
119.140
 30
0.000000
  70
    32
  0
VERTEX
  8
0
  5
2C0A
 10
38.0045
 20
119.149
 30
0.000000
  70
    32
  0
VERTEX
  8
0
  5
2C0B
 10
37.9999
 20
119.157
 30
0.000000
  70
    32
  0
VERTEX
  8
0
  5
2C0C
 10
37.9953
 20
119.165
 30
0.000000
  70
    32
  0
VERTEX
  8
0
  5
2C0D
 10
37.9909
 20
119.174
 30
0.000000
  70
    32
  0
VERTEX
  8
0
  5
2C0E
 10
37.9866
 20
119.182
 30
0.000000
  70
    32
  0
VERTEX
  8
0
  5
2C0F
 10
37.9823
 20
119.191
 30
0.000000
  70
    32
  0
VERTEX
  8
0
  5
2C10
 10
37.9782
 20
119.199
 30
0.000000
  70
    32
  0
VERTEX
  8
0
  5
2C11
 10
37.9742
 20
119.208
 30
0.000000
  70
    32
  0
VERTEX
  8
0
  5
2C12
 10
37.9703
 20
119.217
 30
0.000000
  70
    32
  0
VERTEX
  8
0
  5
2C13
 10
37.9664
 20
119.225
 30
0.000000
  70
    32
  0
VERTEX
  8
0
  5
2C14
 10
37.9627
 20
119.234
 30
0.000000
  70
    32
  0
VERTEX
  8
0
  5
2C15
 10
37.9591
 20
119.243
 30
0.000000
  70
    32
  0
VERTEX
  8
0
  5
2C16
 10
37.9556
 20
119.252
 30
0.000000
  70
    32
  0
VERTEX
  8
0
  5
2C17
 10
37.9522
 20
119.260
 30
0.000000
  70
    32
  0
VERTEX
  8
0
  5
2C18
 10
37.9489
 20
119.269
 30
0.000000
  70
    32
  0
VERTEX
  8
0
  5
2C19
 10
37.9458
 20
119.278
 30
0.000000
  70
    32
  0
VERTEX
  8
0
  5
2C1A
 10
37.9427
 20
119.287
 30
0.000000
  70
    32
  0
VERTEX
  8
0
  5
2C1B
 10
37.9397
 20
119.296
 30
0.000000
  70
    32
  0
VERTEX
  8
0
  5
2C1C
 10
37.9369
 20
119.305
 30
0.000000
  70
    32
  0
VERTEX
  8
0
  5
2C1D
 10
37.9341
 20
119.314
 30
0.000000
  70
    32
  0
VERTEX
  8
0
  5
2C1E
 10
37.9315
 20
119.323
 30
0.000000
  70
    32
  0
VERTEX
  8
0
  5
2C1F
 10
37.9290
 20
119.333
 30
0.000000
  70
    32
  0
VERTEX
  8
0
  5
2C20
 10
37.9266
 20
119.342
 30
0.000000
  70
    32
  0
VERTEX
  8
0
  5
2C21
 10
37.9243
 20
119.351
 30
0.000000
  70
    32
  0
VERTEX
  8
0
  5
2C22
 10
37.9221
 20
119.360
 30
0.000000
  70
    32
  0
VERTEX
  8
0
  5
2C23
 10
37.9200
 20
119.369
 30
0.000000
  70
    32
  0
VERTEX
  8
0
  5
2C24
 10
37.9181
 20
119.378
 30
0.000000
  70
    32
  0
VERTEX
  8
0
  5
2C25
 10
37.9162
 20
119.388
 30
0.000000
  70
    32
  0
VERTEX
  8
0
  5
2C26
 10
37.9145
 20
119.397
 30
0.000000
  70
    32
  0
VERTEX
  8
0
  5
2C27
 10
37.9128
 20
119.406
 30
0.000000
  70
    32
  0
VERTEX
  8
0
  5
2C28
 10
37.9113
 20
119.416
 30
0.000000
  70
    32
  0
VERTEX
  8
0
  5
2C29
 10
37.9099
 20
119.425
 30
0.000000
  70
    32
  0
VERTEX
  8
0
  5
2C2A
 10
37.9086
 20
119.434
 30
0.000000
  70
    32
  0
VERTEX
  8
0
  5
2C2B
 10
37.9075
 20
119.443
 30
0.000000
  70
    32
  0
VERTEX
  8
0
  5
2C2C
 10
37.9064
 20
119.453
 30
0.000000
  70
    32
  0
VERTEX
  8
0
  5
2C2D
 10
37.9055
 20
119.462
 30
0.000000
  70
    32
  0
VERTEX
  8
0
  5
2C2E
 10
37.9047
 20
119.471
 30
0.000000
  70
    32
  0
VERTEX
  8
0
  5
2C2F
 10
37.9039
 20
119.481
 30
0.000000
  70
    32
  0
VERTEX
  8
0
  5
2C30
 10
37.9033
 20
119.490
 30
0.000000
  70
    32
  0
VERTEX
  8
0
  5
2C31
 10
37.9029
 20
119.500
 30
0.000000
  70
    32
  0
SEQEND
  8
0
  5
2C32
  0
LINE
  5
2629
  8
0
 10
37.902863635440042
 20
119.4995
 30
0.0
 11
37.372607815080023
 21
131.16512806061999
 31
0.0
  0
LINE
  5
262A
  8
0
 10
30.0
 20
133.02499999999989
 30
0.0
 11
30.0
 21
118.7374999999999
 31
0.0
  0
ARC
  5
262B
  8
0
 10
30.397510000000011
 20
118.34126000000001
 30
0.0
 40
0.3962400000000025
 50
0.0
 51
90.0
  0
LINE
  5
262C
  8
0
 10
30.793749999999989
 20
96.908739999999966
 30
0.0
 11
30.793750000000049
 21
118.34126000000001
 31
0.0
  0
ARC
  5
262D
  8
0
 10
30.397510000000011
 20
96.908739999999966
 30
0.0
 40
0.3962400000000228
 50
270.0
 51
0.0
  0
LINE
  5
262F
  8
0
 10
41.112499999999997
 20
96.512499999999989
 30
0.0
 11
30.00000000000006
 21
96.512499999999989
 31
0.0
  0
LINE
  5
2630
  8
0
 10
30.0
 20
118.7374999999999
 30
0.0
 11
41.112499999999997
 21
118.7374999999999
 31
0.0
  0
ARC
  5
2631
  8
0
 10
41.112499999999997
 20
107.625
 30
0.0
 40
11.112500000000001
 50
270.0
 51
90.0
  0
POLYLINE
  5
2632
  8
0
 10
37.90286363688071
 20
95.750499999982821
 30
0.0
 66
     1
 70
     8
  0
VERTEX
  8
0
  5
2C33
 10
37.9029
 20
95.7505
 30
0.000000
  70
    32
  0
VERTEX
  8
0
  5
2C34
 10
37.9033
 20
95.7599
 30
0.000000
  70
    32
  0
VERTEX
  8
0
  5
2C35
 10
37.9039
 20
95.7692
 30
0.000000
  70
    32
  0
VERTEX
  8
0
  5
2C36
 10
37.9047
 20
95.7785
 30
0.000000
  70
    32
  0
VERTEX
  8
0
  5
2C37
 10
37.9055
 20
95.7879
 30
0.000000
  70
    32
  0
VERTEX
  8
0
  5
2C38
 10
37.9064
 20
95.7972
 30
0.000000
  70
    32
  0
VERTEX
  8
0
  5
2C39
 10
37.9075
 20
95.8066
 30
0.000000
  70
    32
  0
VERTEX
  8
0
  5
2C3A
 10
37.9086
 20
95.8159
 30
0.000000
  70
    32
  0
VERTEX
  8
0
  5
2C3B
 10
37.9099
 20
95.8252
 30
0.000000
  70
    32
  0
VERTEX
  8
0
  5
2C3C
 10
37.9113
 20
95.8345
 30
0.000000
  70
    32
  0
VERTEX
  8
0
  5
2C3D
 10
37.9128
 20
95.8438
 30
0.000000
  70
    32
  0
VERTEX
  8
0
  5
2C3E
 10
37.9145
 20
95.8531
 30
0.000000
  70
    32
  0
VERTEX
  8
0
  5
2C3F
 10
37.9162
 20
95.8623
 30
0.000000
  70
    32
  0
VERTEX
  8
0
  5
2C40
 10
37.9181
 20
95.8715
 30
0.000000
  70
    32
  0
VERTEX
  8
0
  5
2C41
 10
37.9200
 20
95.8808
 30
0.000000
  70
    32
  0
VERTEX
  8
0
  5
2C42
 10
37.9221
 20
95.8900
 30
0.000000
  70
    32
  0
VERTEX
  8
0
  5
2C43
 10
37.9243
 20
95.8992
 30
0.000000
  70
    32
  0
VERTEX
  8
0
  5
2C44
 10
37.9266
 20
95.9083
 30
0.000000
  70
    32
  0
VERTEX
  8
0
  5
2C45
 10
37.9290
 20
95.9175
 30
0.000000
  70
    32
  0
VERTEX
  8
0
  5
2C46
 10
37.9315
 20
95.9266
 30
0.000000
  70
    32
  0
VERTEX
  8
0
  5
2C47
 10
37.9341
 20
95.9357
 30
0.000000
  70
    32
  0
VERTEX
  8
0
  5
2C48
 10
37.9369
 20
95.9447
 30
0.000000
  70
    32
  0
VERTEX
  8
0
  5
2C49
 10
37.9397
 20
95.9537
 30
0.000000
  70
    32
  0
VERTEX
  8
0
  5
2C4A
 10
37.9427
 20
95.9627
 30
0.000000
  70
    32
  0
VERTEX
  8
0
  5
2C4B
 10
37.9458
 20
95.9717
 30
0.000000
  70
    32
  0
VERTEX
  8
0
  5
2C4C
 10
37.9489
 20
95.9806
 30
0.000000
  70
    32
  0
VERTEX
  8
0
  5
2C4D
 10
37.9522
 20
95.9895
 30
0.000000
  70
    32
  0
VERTEX
  8
0
  5
2C4E
 10
37.9556
 20
95.9984
 30
0.000000
  70
    32
  0
VERTEX
  8
0
  5
2C4F
 10
37.9591
 20
96.0072
 30
0.000000
  70
    32
  0
VERTEX
  8
0
  5
2C50
 10
37.9627
 20
96.0160
 30
0.000000
  70
    32
  0
VERTEX
  8
0
  5
2C51
 10
37.9664
 20
96.0247
 30
0.000000
  70
    32
  0
VERTEX
  8
0
  5
2C52
 10
37.9703
 20
96.0334
 30
0.000000
  70
    32
  0
VERTEX
  8
0
  5
2C53
 10
37.9742
 20
96.0421
 30
0.000000
  70
    32
  0
VERTEX
  8
0
  5
2C54
 10
37.9782
 20
96.0507
 30
0.000000
  70
    32
  0
VERTEX
  8
0
  5
2C55
 10
37.9823
 20
96.0593
 30
0.000000
  70
    32
  0
VERTEX
  8
0
  5
2C56
 10
37.9866
 20
96.0678
 30
0.000000
  70
    32
  0
VERTEX
  8
0
  5
2C57
 10
37.9909
 20
96.0763
 30
0.000000
  70
    32
  0
VERTEX
  8
0
  5
2C58
 10
37.9953
 20
96.0847
 30
0.000000
  70
    32
  0
VERTEX
  8
0
  5
2C59
 10
37.9999
 20
96.0931
 30
0.000000
  70
    32
  0
VERTEX
  8
0
  5
2C5A
 10
38.0045
 20
96.1014
 30
0.000000
  70
    32
  0
VERTEX
  8
0
  5
2C5B
 10
38.0093
 20
96.1097
 30
0.000000
  70
    32
  0
VERTEX
  8
0
  5
2C5C
 10
38.0141
 20
96.1179
 30
0.000000
  70
    32
  0
VERTEX
  8
0
  5
2C5D
 10
38.0190
 20
96.1261
 30
0.000000
  70
    32
  0
VERTEX
  8
0
  5
2C5E
 10
38.0241
 20
96.1342
 30
0.000000
  70
    32
  0
VERTEX
  8
0
  5
2C5F
 10
38.0292
 20
96.1422
 30
0.000000
  70
    32
  0
VERTEX
  8
0
  5
2C60
 10
38.0344
 20
96.1502
 30
0.000000
  70
    32
  0
VERTEX
  8
0
  5
2C61
 10
38.0397
 20
96.1582
 30
0.000000
  70
    32
  0
VERTEX
  8
0
  5
2C62
 10
38.0452
 20
96.1660
 30
0.000000
  70
    32
  0
VERTEX
  8
0
  5
2C63
 10
38.0507
 20
96.1738
 30
0.000000
  70
    32
  0
VERTEX
  8
0
  5
2C64
 10
38.0563
 20
96.1816
 30
0.000000
  70
    32
  0
VERTEX
  8
0
  5
2C65
 10
38.0620
 20
96.1893
 30
0.000000
  70
    32
  0
VERTEX
  8
0
  5
2C66
 10
38.0677
 20
96.1969
 30
0.000000
  70
    32
  0
VERTEX
  8
0
  5
2C67
 10
38.0736
 20
96.2044
 30
0.000000
  70
    32
  0
VERTEX
  8
0
  5
2C68
 10
38.0796
 20
96.2119
 30
0.000000
  70
    32
  0
VERTEX
  8
0
  5
2C69
 10
38.0856
 20
96.2193
 30
0.000000
  70
    32
  0
VERTEX
  8
0
  5
2C6A
 10
38.0918
 20
96.2266
 30
0.000000
  70
    32
  0
VERTEX
  8
0
  5
2C6B
 10
38.0980
 20
96.2339
 30
0.000000
  70
    32
  0
VERTEX
  8
0
  5
2C6C
 10
38.1043
 20
96.2411
 30
0.000000
  70
    32
  0
VERTEX
  8
0
  5
2C6D
 10
38.1107
 20
96.2482
 30
0.000000
  70
    32
  0
VERTEX
  8
0
  5
2C6E
 10
38.1172
 20
96.2553
 30
0.000000
  70
    32
  0
VERTEX
  8
0
  5
2C6F
 10
38.1237
 20
96.2622
 30
0.000000
  70
    32
  0
VERTEX
  8
0
  5
2C70
 10
38.1304
 20
96.2691
 30
0.000000
  70
    32
  0
VERTEX
  8
0
  5
2C71
 10
38.1371
 20
96.2759
 30
0.000000
  70
    32
  0
VERTEX
  8
0
  5
2C72
 10
38.1439
 20
96.2827
 30
0.000000
  70
    32
  0
VERTEX
  8
0
  5
2C73
 10
38.1508
 20
96.2893
 30
0.000000
  70
    32
  0
VERTEX
  8
0
  5
2C74
 10
38.1577
 20
96.2959
 30
0.000000
  70
    32
  0
VERTEX
  8
0
  5
2C75
 10
38.1648
 20
96.3024
 30
0.000000
  70
    32
  0
VERTEX
  8
0
  5
2C76
 10
38.1719
 20
96.3088
 30
0.000000
  70
    32
  0
VERTEX
  8
0
  5
2C77
 10
38.1791
 20
96.3151
 30
0.000000
  70
    32
  0
VERTEX
  8
0
  5
2C78
 10
38.1863
 20
96.3213
 30
0.000000
  70
    32
  0
VERTEX
  8
0
  5
2C79
 10
38.1936
 20
96.3275
 30
0.000000
  70
    32
  0
VERTEX
  8
0
  5
2C7A
 10
38.2010
 20
96.3336
 30
0.000000
  70
    32
  0
VERTEX
  8
0
  5
2C7B
 10
38.2085
 20
96.3395
 30
0.000000
  70
    32
  0
VERTEX
  8
0
  5
2C7C
 10
38.2161
 20
96.3454
 30
0.000000
  70
    32
  0
VERTEX
  8
0
  5
2C7D
 10
38.2237
 20
96.3512
 30
0.000000
  70
    32
  0
VERTEX
  8
0
  5
2C7E
 10
38.2313
 20
96.3569
 30
0.000000
  70
    32
  0
VERTEX
  8
0
  5
2C7F
 10
38.2391
 20
96.3625
 30
0.000000
  70
    32
  0
VERTEX
  8
0
  5
2C80
 10
38.2469
 20
96.3681
 30
0.000000
  70
    32
  0
VERTEX
  8
0
  5
2C81
 10
38.2547
 20
96.3735
 30
0.000000
  70
    32
  0
VERTEX
  8
0
  5
2C82
 10
38.2627
 20
96.3788
 30
0.000000
  70
    32
  0
VERTEX
  8
0
  5
2C83
 10
38.2707
 20
96.3841
 30
0.000000
  70
    32
  0
VERTEX
  8
0
  5
2C84
 10
38.2787
 20
96.3892
 30
0.000000
  70
    32
  0
VERTEX
  8
0
  5
2C85
 10
38.2868
 20
96.3943
 30
0.000000
  70
    32
  0
VERTEX
  8
0
  5
2C86
 10
38.2950
 20
96.3992
 30
0.000000
  70
    32
  0
VERTEX
  8
0
  5
2C87
 10
38.3032
 20
96.4041
 30
0.000000
  70
    32
  0
VERTEX
  8
0
  5
2C88
 10
38.3115
 20
96.4088
 30
0.000000
  70
    32
  0
VERTEX
  8
0
  5
2C89
 10
38.3198
 20
96.4135
 30
0.000000
  70
    32
  0
VERTEX
  8
0
  5
2C8A
 10
38.3282
 20
96.4181
 30
0.000000
  70
    32
  0
VERTEX
  8
0
  5
2C8B
 10
38.3366
 20
96.4225
 30
0.000000
  70
    32
  0
VERTEX
  8
0
  5
2C8C
 10
38.3451
 20
96.4269
 30
0.000000
  70
    32
  0
VERTEX
  8
0
  5
2C8D
 10
38.3536
 20
96.4311
 30
0.000000
  70
    32
  0
VERTEX
  8
0
  5
2C8E
 10
38.3622
 20
96.4353
 30
0.000000
  70
    32
  0
VERTEX
  8
0
  5
2C8F
 10
38.3708
 20
96.4393
 30
0.000000
  70
    32
  0
VERTEX
  8
0
  5
2C90
 10
38.3795
 20
96.4433
 30
0.000000
  70
    32
  0
VERTEX
  8
0
  5
2C91
 10
38.3882
 20
96.4471
 30
0.000000
  70
    32
  0
VERTEX
  8
0
  5
2C92
 10
38.3970
 20
96.4509
 30
0.000000
  70
    32
  0
VERTEX
  8
0
  5
2C93
 10
38.4057
 20
96.4545
 30
0.000000
  70
    32
  0
VERTEX
  8
0
  5
2C94
 10
38.4146
 20
96.4580
 30
0.000000
  70
    32
  0
VERTEX
  8
0
  5
2C95
 10
38.4234
 20
96.4614
 30
0.000000
  70
    32
  0
VERTEX
  8
0
  5
2C96
 10
38.4323
 20
96.4648
 30
0.000000
  70
    32
  0
VERTEX
  8
0
  5
2C97
 10
38.4413
 20
96.4680
 30
0.000000
  70
    32
  0
VERTEX
  8
0
  5
2C98
 10
38.4503
 20
96.4711
 30
0.000000
  70
    32
  0
VERTEX
  8
0
  5
2C99
 10
38.4593
 20
96.4740
 30
0.000000
  70
    32
  0
VERTEX
  8
0
  5
2C9A
 10
38.4683
 20
96.4769
 30
0.000000
  70
    32
  0
VERTEX
  8
0
  5
2C9B
 10
38.4774
 20
96.4797
 30
0.000000
  70
    32
  0
VERTEX
  8
0
  5
2C9C
 10
38.4865
 20
96.4823
 30
0.000000
  70
    32
  0
VERTEX
  8
0
  5
2C9D
 10
38.4956
 20
96.4849
 30
0.000000
  70
    32
  0
VERTEX
  8
0
  5
2C9E
 10
38.5047
 20
96.4873
 30
0.000000
  70
    32
  0
VERTEX
  8
0
  5
2C9F
 10
38.5139
 20
96.4897
 30
0.000000
  70
    32
  0
VERTEX
  8
0
  5
2CA0
 10
38.5231
 20
96.4919
 30
0.000000
  70
    32
  0
VERTEX
  8
0
  5
2CA1
 10
38.5323
 20
96.4940
 30
0.000000
  70
    32
  0
VERTEX
  8
0
  5
2CA2
 10
38.5416
 20
96.4960
 30
0.000000
  70
    32
  0
VERTEX
  8
0
  5
2CA3
 10
38.5508
 20
96.4979
 30
0.000000
  70
    32
  0
VERTEX
  8
0
  5
2CA4
 10
38.5601
 20
96.4996
 30
0.000000
  70
    32
  0
VERTEX
  8
0
  5
2CA5
 10
38.5694
 20
96.5013
 30
0.000000
  70
    32
  0
VERTEX
  8
0
  5
2CA6
 10
38.5787
 20
96.5028
 30
0.000000
  70
    32
  0
VERTEX
  8
0
  5
2CA7
 10
38.5880
 20
96.5043
 30
0.000000
  70
    32
  0
VERTEX
  8
0
  5
2CA8
 10
38.5973
 20
96.5056
 30
0.000000
  70
    32
  0
VERTEX
  8
0
  5
2CA9
 10
38.6067
 20
96.5068
 30
0.000000
  70
    32
  0
VERTEX
  8
0
  5
2CAA
 10
38.6160
 20
96.5079
 30
0.000000
  70
    32
  0
VERTEX
  8
0
  5
2CAB
 10
38.6254
 20
96.5088
 30
0.000000
  70
    32
  0
VERTEX
  8
0
  5
2CAC
 10
38.6347
 20
96.5097
 30
0.000000
  70
    32
  0
VERTEX
  8
0
  5
2CAD
 10
38.6441
 20
96.5104
 30
0.000000
  70
    32
  0
VERTEX
  8
0
  5
2CAE
 10
38.6534
 20
96.5111
 30
0.000000
  70
    32
  0
VERTEX
  8
0
  5
2CAF
 10
38.6628
 20
96.5116
 30
0.000000
  70
    32
  0
VERTEX
  8
0
  5
2CB0
 10
38.6722
 20
96.5120
 30
0.000000
  70
    32
  0
VERTEX
  8
0
  5
2CB1
 10
38.6816
 20
96.5123
 30
0.000000
  70
    32
  0
VERTEX
  8
0
  5
2CB2
 10
38.6909
 20
96.5124
 30
0.000000
  70
    32
  0
VERTEX
  8
0
  5
2CB3
 10
38.7003
 20
96.5125
 30
0.000000
  70
    32
  0
SEQEND
  8
0
  5
2CB4
  0
LINE
  5
2634
  8
0
 10
30.0
 20
96.512499999999989
 30
0.0
 11
30.0
 21
82.225000000000009
 31
0.0
  0
LINE
  5
2636
  8
0
 10
37.372607815080023
 20
84.084871939380037
 30
0.0
 11
37.902863635440042
 21
95.750499999999988
 31
0.0
  0
LINE
  5
2644
  8
0
 10
37.168511085860018
 20
133.02499999999989
 30
0.0
 11
30.0
 21
133.02499999999989
 31
0.0
  0
POLYLINE
  5
2645
  8
0
 10
37.168511085860032
 20
133.02499999999992
 30
0.0
 66
     1
 70
     8
  0
VERTEX
  8
0
  5
2CB5
 10
37.1685
 20
133.025
 30
0.000000
  70
    32
  0
VERTEX
  8
0
  5
2CB6
 10
37.1703
 20
133.025
 30
0.000000
  70
    32
  0
VERTEX
  8
0
  5
2CB7
 10
37.1721
 20
133.025
 30
0.000000
  70
    32
  0
VERTEX
  8
0
  5
2CB8
 10
37.1738
 20
133.024
 30
0.000000
  70
    32
  0
VERTEX
  8
0
  5
2CB9
 10
37.1756
 20
133.023
 30
0.000000
  70
    32
  0
VERTEX
  8
0
  5
2CBA
 10
37.1774
 20
133.022
 30
0.000000
  70
    32
  0
VERTEX
  8
0
  5
2CBB
 10
37.1791
 20
133.021
 30
0.000000
  70
    32
  0
VERTEX
  8
0
  5
2CBC
 10
37.1809
 20
133.019
 30
0.000000
  70
    32
  0
VERTEX
  8
0
  5
2CBD
 10
37.1827
 20
133.017
 30
0.000000
  70
    32
  0
VERTEX
  8
0
  5
2CBE
 10
37.1844
 20
133.015
 30
0.000000
  70
    32
  0
VERTEX
  8
0
  5
2CBF
 10
37.1862
 20
133.013
 30
0.000000
  70
    32
  0
VERTEX
  8
0
  5
2CC0
 10
37.1880
 20
133.011
 30
0.000000
  70
    32
  0
VERTEX
  8
0
  5
2CC1
 10
37.1897
 20
133.008
 30
0.000000
  70
    32
  0
VERTEX
  8
0
  5
2CC2
 10
37.1915
 20
133.005
 30
0.000000
  70
    32
  0
VERTEX
  8
0
  5
2CC3
 10
37.1933
 20
133.002
 30
0.000000
  70
    32
  0
VERTEX
  8
0
  5
2CC4
 10
37.1950
 20
132.998
 30
0.000000
  70
    32
  0
VERTEX
  8
0
  5
2CC5
 10
37.1968
 20
132.994
 30
0.000000
  70
    32
  0
VERTEX
  8
0
  5
2CC6
 10
37.1986
 20
132.990
 30
0.000000
  70
    32
  0
VERTEX
  8
0
  5
2CC7
 10
37.2003
 20
132.986
 30
0.000000
  70
    32
  0
VERTEX
  8
0
  5
2CC8
 10
37.2021
 20
132.982
 30
0.000000
  70
    32
  0
VERTEX
  8
0
  5
2CC9
 10
37.2038
 20
132.977
 30
0.000000
  70
    32
  0
VERTEX
  8
0
  5
2CCA
 10
37.2056
 20
132.972
 30
0.000000
  70
    32
  0
VERTEX
  8
0
  5
2CCB
 10
37.2074
 20
132.967
 30
0.000000
  70
    32
  0
VERTEX
  8
0
  5
2CCC
 10
37.2091
 20
132.962
 30
0.000000
  70
    32
  0
VERTEX
  8
0
  5
2CCD
 10
37.2109
 20
132.956
 30
0.000000
  70
    32
  0
VERTEX
  8
0
  5
2CCE
 10
37.2126
 20
132.950
 30
0.000000
  70
    32
  0
VERTEX
  8
0
  5
2CCF
 10
37.2144
 20
132.944
 30
0.000000
  70
    32
  0
VERTEX
  8
0
  5
2CD0
 10
37.2161
 20
132.938
 30
0.000000
  70
    32
  0
VERTEX
  8
0
  5
2CD1
 10
37.2179
 20
132.932
 30
0.000000
  70
    32
  0
VERTEX
  8
0
  5
2CD2
 10
37.2196
 20
132.925
 30
0.000000
  70
    32
  0
VERTEX
  8
0
  5
2CD3
 10
37.2213
 20
132.918
 30
0.000000
  70
    32
  0
VERTEX
  8
0
  5
2CD4
 10
37.2231
 20
132.910
 30
0.000000
  70
    32
  0
VERTEX
  8
0
  5
2CD5
 10
37.2248
 20
132.903
 30
0.000000
  70
    32
  0
VERTEX
  8
0
  5
2CD6
 10
37.2266
 20
132.895
 30
0.000000
  70
    32
  0
VERTEX
  8
0
  5
2CD7
 10
37.2283
 20
132.887
 30
0.000000
  70
    32
  0
VERTEX
  8
0
  5
2CD8
 10
37.2300
 20
132.879
 30
0.000000
  70
    32
  0
VERTEX
  8
0
  5
2CD9
 10
37.2318
 20
132.871
 30
0.000000
  70
    32
  0
VERTEX
  8
0
  5
2CDA
 10
37.2335
 20
132.862
 30
0.000000
  70
    32
  0
VERTEX
  8
0
  5
2CDB
 10
37.2352
 20
132.853
 30
0.000000
  70
    32
  0
VERTEX
  8
0
  5
2CDC
 10
37.2369
 20
132.844
 30
0.000000
  70
    32
  0
VERTEX
  8
0
  5
2CDD
 10
37.2386
 20
132.835
 30
0.000000
  70
    32
  0
VERTEX
  8
0
  5
2CDE
 10
37.2404
 20
132.825
 30
0.000000
  70
    32
  0
VERTEX
  8
0
  5
2CDF
 10
37.2421
 20
132.815
 30
0.000000
  70
    32
  0
VERTEX
  8
0
  5
2CE0
 10
37.2438
 20
132.805
 30
0.000000
  70
    32
  0
VERTEX
  8
0
  5
2CE1
 10
37.2455
 20
132.795
 30
0.000000
  70
    32
  0
VERTEX
  8
0
  5
2CE2
 10
37.2472
 20
132.784
 30
0.000000
  70
    32
  0
VERTEX
  8
0
  5
2CE3
 10
37.2489
 20
132.774
 30
0.000000
  70
    32
  0
VERTEX
  8
0
  5
2CE4
 10
37.2506
 20
132.763
 30
0.000000
  70
    32
  0
VERTEX
  8
0
  5
2CE5
 10
37.2523
 20
132.752
 30
0.000000
  70
    32
  0
VERTEX
  8
0
  5
2CE6
 10
37.2540
 20
132.740
 30
0.000000
  70
    32
  0
VERTEX
  8
0
  5
2CE7
 10
37.2557
 20
132.728
 30
0.000000
  70
    32
  0
VERTEX
  8
0
  5
2CE8
 10
37.2574
 20
132.717
 30
0.000000
  70
    32
  0
VERTEX
  8
0
  5
2CE9
 10
37.2591
 20
132.705
 30
0.000000
  70
    32
  0
VERTEX
  8
0
  5
2CEA
 10
37.2607
 20
132.692
 30
0.000000
  70
    32
  0
VERTEX
  8
0
  5
2CEB
 10
37.2624
 20
132.680
 30
0.000000
  70
    32
  0
VERTEX
  8
0
  5
2CEC
 10
37.2641
 20
132.667
 30
0.000000
  70
    32
  0
VERTEX
  8
0
  5
2CED
 10
37.2657
 20
132.654
 30
0.000000
  70
    32
  0
VERTEX
  8
0
  5
2CEE
 10
37.2674
 20
132.641
 30
0.000000
  70
    32
  0
VERTEX
  8
0
  5
2CEF
 10
37.2691
 20
132.627
 30
0.000000
  70
    32
  0
VERTEX
  8
0
  5
2CF0
 10
37.2707
 20
132.613
 30
0.000000
  70
    32
  0
VERTEX
  8
0
  5
2CF1
 10
37.2724
 20
132.600
 30
0.000000
  70
    32
  0
VERTEX
  8
0
  5
2CF2
 10
37.2740
 20
132.585
 30
0.000000
  70
    32
  0
VERTEX
  8
0
  5
2CF3
 10
37.2757
 20
132.571
 30
0.000000
  70
    32
  0
VERTEX
  8
0
  5
2CF4
 10
37.2773
 20
132.556
 30
0.000000
  70
    32
  0
VERTEX
  8
0
  5
2CF5
 10
37.2790
 20
132.542
 30
0.000000
  70
    32
  0
VERTEX
  8
0
  5
2CF6
 10
37.2806
 20
132.527
 30
0.000000
  70
    32
  0
VERTEX
  8
0
  5
2CF7
 10
37.2822
 20
132.511
 30
0.000000
  70
    32
  0
VERTEX
  8
0
  5
2CF8
 10
37.2839
 20
132.496
 30
0.000000
  70
    32
  0
VERTEX
  8
0
  5
2CF9
 10
37.2855
 20
132.480
 30
0.000000
  70
    32
  0
VERTEX
  8
0
  5
2CFA
 10
37.2871
 20
132.464
 30
0.000000
  70
    32
  0
VERTEX
  8
0
  5
2CFB
 10
37.2887
 20
132.448
 30
0.000000
  70
    32
  0
VERTEX
  8
0
  5
2CFC
 10
37.2903
 20
132.432
 30
0.000000
  70
    32
  0
VERTEX
  8
0
  5
2CFD
 10
37.2919
 20
132.415
 30
0.000000
  70
    32
  0
VERTEX
  8
0
  5
2CFE
 10
37.2935
 20
132.399
 30
0.000000
  70
    32
  0
VERTEX
  8
0
  5
2CFF
 10
37.2951
 20
132.382
 30
0.000000
  70
    32
  0
VERTEX
  8
0
  5
2D00
 10
37.2967
 20
132.364
 30
0.000000
  70
    32
  0
VERTEX
  8
0
  5
2D01
 10
37.2983
 20
132.347
 30
0.000000
  70
    32
  0
VERTEX
  8
0
  5
2D02
 10
37.2999
 20
132.329
 30
0.000000
  70
    32
  0
VERTEX
  8
0
  5
2D03
 10
37.3014
 20
132.312
 30
0.000000
  70
    32
  0
VERTEX
  8
0
  5
2D04
 10
37.3030
 20
132.293
 30
0.000000
  70
    32
  0
VERTEX
  8
0
  5
2D05
 10
37.3046
 20
132.275
 30
0.000000
  70
    32
  0
VERTEX
  8
0
  5
2D06
 10
37.3061
 20
132.257
 30
0.000000
  70
    32
  0
VERTEX
  8
0
  5
2D07
 10
37.3077
 20
132.238
 30
0.000000
  70
    32
  0
VERTEX
  8
0
  5
2D08
 10
37.3092
 20
132.219
 30
0.000000
  70
    32
  0
VERTEX
  8
0
  5
2D09
 10
37.3108
 20
132.200
 30
0.000000
  70
    32
  0
VERTEX
  8
0
  5
2D0A
 10
37.3123
 20
132.181
 30
0.000000
  70
    32
  0
VERTEX
  8
0
  5
2D0B
 10
37.3139
 20
132.161
 30
0.000000
  70
    32
  0
VERTEX
  8
0
  5
2D0C
 10
37.3154
 20
132.142
 30
0.000000
  70
    32
  0
VERTEX
  8
0
  5
2D0D
 10
37.3169
 20
132.122
 30
0.000000
  70
    32
  0
VERTEX
  8
0
  5
2D0E
 10
37.3184
 20
132.101
 30
0.000000
  70
    32
  0
VERTEX
  8
0
  5
2D0F
 10
37.3199
 20
132.081
 30
0.000000
  70
    32
  0
VERTEX
  8
0
  5
2D10
 10
37.3214
 20
132.061
 30
0.000000
  70
    32
  0
VERTEX
  8
0
  5
2D11
 10
37.3229
 20
132.040
 30
0.000000
  70
    32
  0
VERTEX
  8
0
  5
2D12
 10
37.3244
 20
132.019
 30
0.000000
  70
    32
  0
VERTEX
  8
0
  5
2D13
 10
37.3259
 20
131.998
 30
0.000000
  70
    32
  0
VERTEX
  8
0
  5
2D14
 10
37.3274
 20
131.976
 30
0.000000
  70
    32
  0
VERTEX
  8
0
  5
2D15
 10
37.3289
 20
131.955
 30
0.000000
  70
    32
  0
VERTEX
  8
0
  5
2D16
 10
37.3303
 20
131.933
 30
0.000000
  70
    32
  0
VERTEX
  8
0
  5
2D17
 10
37.3318
 20
131.911
 30
0.000000
  70
    32
  0
VERTEX
  8
0
  5
2D18
 10
37.3333
 20
131.889
 30
0.000000
  70
    32
  0
VERTEX
  8
0
  5
2D19
 10
37.3347
 20
131.867
 30
0.000000
  70
    32
  0
VERTEX
  8
0
  5
2D1A
 10
37.3362
 20
131.844
 30
0.000000
  70
    32
  0
VERTEX
  8
0
  5
2D1B
 10
37.3376
 20
131.821
 30
0.000000
  70
    32
  0
VERTEX
  8
0
  5
2D1C
 10
37.3390
 20
131.798
 30
0.000000
  70
    32
  0
VERTEX
  8
0
  5
2D1D
 10
37.3405
 20
131.775
 30
0.000000
  70
    32
  0
VERTEX
  8
0
  5
2D1E
 10
37.3419
 20
131.752
 30
0.000000
  70
    32
  0
VERTEX
  8
0
  5
2D1F
 10
37.3433
 20
131.729
 30
0.000000
  70
    32
  0
VERTEX
  8
0
  5
2D20
 10
37.3447
 20
131.705
 30
0.000000
  70
    32
  0
VERTEX
  8
0
  5
2D21
 10
37.3461
 20
131.681
 30
0.000000
  70
    32
  0
VERTEX
  8
0
  5
2D22
 10
37.3475
 20
131.657
 30
0.000000
  70
    32
  0
VERTEX
  8
0
  5
2D23
 10
37.3489
 20
131.633
 30
0.000000
  70
    32
  0
VERTEX
  8
0
  5
2D24
 10
37.3502
 20
131.608
 30
0.000000
  70
    32
  0
VERTEX
  8
0
  5
2D25
 10
37.3516
 20
131.584
 30
0.000000
  70
    32
  0
VERTEX
  8
0
  5
2D26
 10
37.3530
 20
131.559
 30
0.000000
  70
    32
  0
VERTEX
  8
0
  5
2D27
 10
37.3543
 20
131.534
 30
0.000000
  70
    32
  0
VERTEX
  8
0
  5
2D28
 10
37.3557
 20
131.509
 30
0.000000
  70
    32
  0
VERTEX
  8
0
  5
2D29
 10
37.3570
 20
131.483
 30
0.000000
  70
    32
  0
VERTEX
  8
0
  5
2D2A
 10
37.3584
 20
131.458
 30
0.000000
  70
    32
  0
VERTEX
  8
0
  5
2D2B
 10
37.3597
 20
131.432
 30
0.000000
  70
    32
  0
VERTEX
  8
0
  5
2D2C
 10
37.3610
 20
131.406
 30
0.000000
  70
    32
  0
VERTEX
  8
0
  5
2D2D
 10
37.3623
 20
131.380
 30
0.000000
  70
    32
  0
VERTEX
  8
0
  5
2D2E
 10
37.3637
 20
131.354
 30
0.000000
  70
    32
  0
VERTEX
  8
0
  5
2D2F
 10
37.3650
 20
131.327
 30
0.000000
  70
    32
  0
VERTEX
  8
0
  5
2D30
 10
37.3663
 20
131.301
 30
0.000000
  70
    32
  0
VERTEX
  8
0
  5
2D31
 10
37.3675
 20
131.274
 30
0.000000
  70
    32
  0
VERTEX
  8
0
  5
2D32
 10
37.3688
 20
131.247
 30
0.000000
  70
    32
  0
VERTEX
  8
0
  5
2D33
 10
37.3701
 20
131.220
 30
0.000000
  70
    32
  0
VERTEX
  8
0
  5
2D34
 10
37.3714
 20
131.193
 30
0.000000
  70
    32
  0
VERTEX
  8
0
  5
2D35
 10
37.3726
 20
131.165
 30
0.000000
  70
    32
  0
SEQEND
  8
0
  5
2D36
  0
LINE
  5
2647
  8
0
 10
37.168511085860018
 20
82.225000000000009
 30
0.0
 11
30.0
 21
82.225000000000009
 31
0.0
  0
POLYLINE
  5
2648
  8
0
 10
37.372607816088419
 20
84.084871939465543
 30
0.0
 66
     1
 70
     8
  0
VERTEX
  8
0
  5
2D37
 10
37.3726
 20
84.0849
 30
0.000000
  70
    32
  0
VERTEX
  8
0
  5
2D38
 10
37.3714
 20
84.0574
 30
0.000000
  70
    32
  0
VERTEX
  8
0
  5
2D39
 10
37.3701
 20
84.0301
 30
0.000000
  70
    32
  0
VERTEX
  8
0
  5
2D3A
 10
37.3688
 20
84.0030
 30
0.000000
  70
    32
  0
VERTEX
  8
0
  5
2D3B
 10
37.3675
 20
83.9760
 30
0.000000
  70
    32
  0
VERTEX
  8
0
  5
2D3C
 10
37.3663
 20
83.9493
 30
0.000000
  70
    32
  0
VERTEX
  8
0
  5
2D3D
 10
37.3650
 20
83.9226
 30
0.000000
  70
    32
  0
VERTEX
  8
0
  5
2D3E
 10
37.3637
 20
83.8962
 30
0.000000
  70
    32
  0
VERTEX
  8
0
  5
2D3F
 10
37.3623
 20
83.8700
 30
0.000000
  70
    32
  0
VERTEX
  8
0
  5
2D40
 10
37.3610
 20
83.8439
 30
0.000000
  70
    32
  0
VERTEX
  8
0
  5
2D41
 10
37.3597
 20
83.8180
 30
0.000000
  70
    32
  0
VERTEX
  8
0
  5
2D42
 10
37.3584
 20
83.7923
 30
0.000000
  70
    32
  0
VERTEX
  8
0
  5
2D43
 10
37.3570
 20
83.7667
 30
0.000000
  70
    32
  0
VERTEX
  8
0
  5
2D44
 10
37.3557
 20
83.7414
 30
0.000000
  70
    32
  0
VERTEX
  8
0
  5
2D45
 10
37.3543
 20
83.7162
 30
0.000000
  70
    32
  0
VERTEX
  8
0
  5
2D46
 10
37.3530
 20
83.6912
 30
0.000000
  70
    32
  0
VERTEX
  8
0
  5
2D47
 10
37.3516
 20
83.6664
 30
0.000000
  70
    32
  0
VERTEX
  8
0
  5
2D48
 10
37.3502
 20
83.6418
 30
0.000000
  70
    32
  0
VERTEX
  8
0
  5
2D49
 10
37.3489
 20
83.6173
 30
0.000000
  70
    32
  0
VERTEX
  8
0
  5
2D4A
 10
37.3475
 20
83.5931
 30
0.000000
  70
    32
  0
VERTEX
  8
0
  5
2D4B
 10
37.3461
 20
83.5690
 30
0.000000
  70
    32
  0
VERTEX
  8
0
  5
2D4C
 10
37.3447
 20
83.5451
 30
0.000000
  70
    32
  0
VERTEX
  8
0
  5
2D4D
 10
37.3433
 20
83.5214
 30
0.000000
  70
    32
  0
VERTEX
  8
0
  5
2D4E
 10
37.3419
 20
83.4979
 30
0.000000
  70
    32
  0
VERTEX
  8
0
  5
2D4F
 10
37.3405
 20
83.4746
 30
0.000000
  70
    32
  0
VERTEX
  8
0
  5
2D50
 10
37.3390
 20
83.4515
 30
0.000000
  70
    32
  0
VERTEX
  8
0
  5
2D51
 10
37.3376
 20
83.4286
 30
0.000000
  70
    32
  0
VERTEX
  8
0
  5
2D52
 10
37.3362
 20
83.4059
 30
0.000000
  70
    32
  0
VERTEX
  8
0
  5
2D53
 10
37.3347
 20
83.3833
 30
0.000000
  70
    32
  0
VERTEX
  8
0
  5
2D54
 10
37.3333
 20
83.3610
 30
0.000000
  70
    32
  0
VERTEX
  8
0
  5
2D55
 10
37.3318
 20
83.3389
 30
0.000000
  70
    32
  0
VERTEX
  8
0
  5
2D56
 10
37.3303
 20
83.3169
 30
0.000000
  70
    32
  0
VERTEX
  8
0
  5
2D57
 10
37.3289
 20
83.2952
 30
0.000000
  70
    32
  0
VERTEX
  8
0
  5
2D58
 10
37.3274
 20
83.2736
 30
0.000000
  70
    32
  0
VERTEX
  8
0
  5
2D59
 10
37.3259
 20
83.2523
 30
0.000000
  70
    32
  0
VERTEX
  8
0
  5
2D5A
 10
37.3244
 20
83.2311
 30
0.000000
  70
    32
  0
VERTEX
  8
0
  5
2D5B
 10
37.3229
 20
83.2102
 30
0.000000
  70
    32
  0
VERTEX
  8
0
  5
2D5C
 10
37.3214
 20
83.1894
 30
0.000000
  70
    32
  0
VERTEX
  8
0
  5
2D5D
 10
37.3199
 20
83.1689
 30
0.000000
  70
    32
  0
VERTEX
  8
0
  5
2D5E
 10
37.3184
 20
83.1486
 30
0.000000
  70
    32
  0
VERTEX
  8
0
  5
2D5F
 10
37.3169
 20
83.1284
 30
0.000000
  70
    32
  0
VERTEX
  8
0
  5
2D60
 10
37.3154
 20
83.1085
 30
0.000000
  70
    32
  0
VERTEX
  8
0
  5
2D61
 10
37.3139
 20
83.0888
 30
0.000000
  70
    32
  0
VERTEX
  8
0
  5
2D62
 10
37.3123
 20
83.0693
 30
0.000000
  70
    32
  0
VERTEX
  8
0
  5
2D63
 10
37.3108
 20
83.0499
 30
0.000000
  70
    32
  0
VERTEX
  8
0
  5
2D64
 10
37.3092
 20
83.0308
 30
0.000000
  70
    32
  0
VERTEX
  8
0
  5
2D65
 10
37.3077
 20
83.0120
 30
0.000000
  70
    32
  0
VERTEX
  8
0
  5
2D66
 10
37.3061
 20
82.9933
 30
0.000000
  70
    32
  0
VERTEX
  8
0
  5
2D67
 10
37.3046
 20
82.9748
 30
0.000000
  70
    32
  0
VERTEX
  8
0
  5
2D68
 10
37.3030
 20
82.9565
 30
0.000000
  70
    32
  0
VERTEX
  8
0
  5
2D69
 10
37.3014
 20
82.9385
 30
0.000000
  70
    32
  0
VERTEX
  8
0
  5
2D6A
 10
37.2999
 20
82.9207
 30
0.000000
  70
    32
  0
VERTEX
  8
0
  5
2D6B
 10
37.2983
 20
82.9030
 30
0.000000
  70
    32
  0
VERTEX
  8
0
  5
2D6C
 10
37.2967
 20
82.8856
 30
0.000000
  70
    32
  0
VERTEX
  8
0
  5
2D6D
 10
37.2951
 20
82.8684
 30
0.000000
  70
    32
  0
VERTEX
  8
0
  5
2D6E
 10
37.2935
 20
82.8514
 30
0.000000
  70
    32
  0
VERTEX
  8
0
  5
2D6F
 10
37.2919
 20
82.8347
 30
0.000000
  70
    32
  0
VERTEX
  8
0
  5
2D70
 10
37.2903
 20
82.8181
 30
0.000000
  70
    32
  0
VERTEX
  8
0
  5
2D71
 10
37.2887
 20
82.8018
 30
0.000000
  70
    32
  0
VERTEX
  8
0
  5
2D72
 10
37.2871
 20
82.7857
 30
0.000000
  70
    32
  0
VERTEX
  8
0
  5
2D73
 10
37.2855
 20
82.7698
 30
0.000000
  70
    32
  0
VERTEX
  8
0
  5
2D74
 10
37.2839
 20
82.7541
 30
0.000000
  70
    32
  0
VERTEX
  8
0
  5
2D75
 10
37.2822
 20
82.7386
 30
0.000000
  70
    32
  0
VERTEX
  8
0
  5
2D76
 10
37.2806
 20
82.7234
 30
0.000000
  70
    32
  0
VERTEX
  8
0
  5
2D77
 10
37.2790
 20
82.7084
 30
0.000000
  70
    32
  0
VERTEX
  8
0
  5
2D78
 10
37.2773
 20
82.6936
 30
0.000000
  70
    32
  0
VERTEX
  8
0
  5
2D79
 10
37.2757
 20
82.6790
 30
0.000000
  70
    32
  0
VERTEX
  8
0
  5
2D7A
 10
37.2740
 20
82.6646
 30
0.000000
  70
    32
  0
VERTEX
  8
0
  5
2D7B
 10
37.2724
 20
82.6505
 30
0.000000
  70
    32
  0
VERTEX
  8
0
  5
2D7C
 10
37.2707
 20
82.6366
 30
0.000000
  70
    32
  0
VERTEX
  8
0
  5
2D7D
 10
37.2691
 20
82.6229
 30
0.000000
  70
    32
  0
VERTEX
  8
0
  5
2D7E
 10
37.2674
 20
82.6094
 30
0.000000
  70
    32
  0
VERTEX
  8
0
  5
2D7F
 10
37.2657
 20
82.5962
 30
0.000000
  70
    32
  0
VERTEX
  8
0
  5
2D80
 10
37.2641
 20
82.5832
 30
0.000000
  70
    32
  0
VERTEX
  8
0
  5
2D81
 10
37.2624
 20
82.5704
 30
0.000000
  70
    32
  0
VERTEX
  8
0
  5
2D82
 10
37.2607
 20
82.5578
 30
0.000000
  70
    32
  0
VERTEX
  8
0
  5
2D83
 10
37.2591
 20
82.5455
 30
0.000000
  70
    32
  0
VERTEX
  8
0
  5
2D84
 10
37.2574
 20
82.5334
 30
0.000000
  70
    32
  0
VERTEX
  8
0
  5
2D85
 10
37.2557
 20
82.5215
 30
0.000000
  70
    32
  0
VERTEX
  8
0
  5
2D86
 10
37.2540
 20
82.5099
 30
0.000000
  70
    32
  0
VERTEX
  8
0
  5
2D87
 10
37.2523
 20
82.4984
 30
0.000000
  70
    32
  0
VERTEX
  8
0
  5
2D88
 10
37.2506
 20
82.4872
 30
0.000000
  70
    32
  0
VERTEX
  8
0
  5
2D89
 10
37.2489
 20
82.4763
 30
0.000000
  70
    32
  0
VERTEX
  8
0
  5
2D8A
 10
37.2472
 20
82.4655
 30
0.000000
  70
    32
  0
VERTEX
  8
0
  5
2D8B
 10
37.2455
 20
82.4550
 30
0.000000
  70
    32
  0
VERTEX
  8
0
  5
2D8C
 10
37.2438
 20
82.4447
 30
0.000000
  70
    32
  0
VERTEX
  8
0
  5
2D8D
 10
37.2421
 20
82.4347
 30
0.000000
  70
    32
  0
VERTEX
  8
0
  5
2D8E
 10
37.2404
 20
82.4249
 30
0.000000
  70
    32
  0
VERTEX
  8
0
  5
2D8F
 10
37.2386
 20
82.4153
 30
0.000000
  70
    32
  0
VERTEX
  8
0
  5
2D90
 10
37.2369
 20
82.4060
 30
0.000000
  70
    32
  0
VERTEX
  8
0
  5
2D91
 10
37.2352
 20
82.3968
 30
0.000000
  70
    32
  0
VERTEX
  8
0
  5
2D92
 10
37.2335
 20
82.3879
 30
0.000000
  70
    32
  0
VERTEX
  8
0
  5
2D93
 10
37.2318
 20
82.3793
 30
0.000000
  70
    32
  0
VERTEX
  8
0
  5
2D94
 10
37.2300
 20
82.3709
 30
0.000000
  70
    32
  0
VERTEX
  8
0
  5
2D95
 10
37.2283
 20
82.3627
 30
0.000000
  70
    32
  0
VERTEX
  8
0
  5
2D96
 10
37.2266
 20
82.3547
 30
0.000000
  70
    32
  0
VERTEX
  8
0
  5
2D97
 10
37.2248
 20
82.3470
 30
0.000000
  70
    32
  0
VERTEX
  8
0
  5
2D98
 10
37.2231
 20
82.3395
 30
0.000000
  70
    32
  0
VERTEX
  8
0
  5
2D99
 10
37.2213
 20
82.3323
 30
0.000000
  70
    32
  0
VERTEX
  8
0
  5
2D9A
 10
37.2196
 20
82.3253
 30
0.000000
  70
    32
  0
VERTEX
  8
0
  5
2D9B
 10
37.2179
 20
82.3185
 30
0.000000
  70
    32
  0
VERTEX
  8
0
  5
2D9C
 10
37.2161
 20
82.3119
 30
0.000000
  70
    32
  0
VERTEX
  8
0
  5
2D9D
 10
37.2144
 20
82.3056
 30
0.000000
  70
    32
  0
VERTEX
  8
0
  5
2D9E
 10
37.2126
 20
82.2996
 30
0.000000
  70
    32
  0
VERTEX
  8
0
  5
2D9F
 10
37.2109
 20
82.2937
 30
0.000000
  70
    32
  0
VERTEX
  8
0
  5
2DA0
 10
37.2091
 20
82.2881
 30
0.000000
  70
    32
  0
VERTEX
  8
0
  5
2DA1
 10
37.2074
 20
82.2828
 30
0.000000
  70
    32
  0
VERTEX
  8
0
  5
2DA2
 10
37.2056
 20
82.2776
 30
0.000000
  70
    32
  0
VERTEX
  8
0
  5
2DA3
 10
37.2038
 20
82.2728
 30
0.000000
  70
    32
  0
VERTEX
  8
0
  5
2DA4
 10
37.2021
 20
82.2681
 30
0.000000
  70
    32
  0
VERTEX
  8
0
  5
2DA5
 10
37.2003
 20
82.2637
 30
0.000000
  70
    32
  0
VERTEX
  8
0
  5
2DA6
 10
37.1986
 20
82.2595
 30
0.000000
  70
    32
  0
VERTEX
  8
0
  5
2DA7
 10
37.1968
 20
82.2556
 30
0.000000
  70
    32
  0
VERTEX
  8
0
  5
2DA8
 10
37.1950
 20
82.2519
 30
0.000000
  70
    32
  0
VERTEX
  8
0
  5
2DA9
 10
37.1933
 20
82.2484
 30
0.000000
  70
    32
  0
VERTEX
  8
0
  5
2DAA
 10
37.1915
 20
82.2452
 30
0.000000
  70
    32
  0
VERTEX
  8
0
  5
2DAB
 10
37.1897
 20
82.2422
 30
0.000000
  70
    32
  0
VERTEX
  8
0
  5
2DAC
 10
37.1880
 20
82.2395
 30
0.000000
  70
    32
  0
VERTEX
  8
0
  5
2DAD
 10
37.1862
 20
82.2369
 30
0.000000
  70
    32
  0
VERTEX
  8
0
  5
2DAE
 10
37.1844
 20
82.2347
 30
0.000000
  70
    32
  0
VERTEX
  8
0
  5
2DAF
 10
37.1827
 20
82.2326
 30
0.000000
  70
    32
  0
VERTEX
  8
0
  5
2DB0
 10
37.1809
 20
82.2309
 30
0.000000
  70
    32
  0
VERTEX
  8
0
  5
2DB1
 10
37.1791
 20
82.2293
 30
0.000000
  70
    32
  0
VERTEX
  8
0
  5
2DB2
 10
37.1774
 20
82.2280
 30
0.000000
  70
    32
  0
VERTEX
  8
0
  5
2DB3
 10
37.1756
 20
82.2269
 30
0.000000
  70
    32
  0
VERTEX
  8
0
  5
2DB4
 10
37.1738
 20
82.2261
 30
0.000000
  70
    32
  0
VERTEX
  8
0
  5
2DB5
 10
37.1721
 20
82.2255
 30
0.000000
  70
    32
  0
VERTEX
  8
0
  5
2DB6
 10
37.1703
 20
82.2251
 30
0.000000
  70
    32
  0
VERTEX
  8
0
  5
2DB7
 10
37.1685
 20
82.2250
 30
0.000000
  70
    32
  0
SEQEND
  8
0
  5
2DB8
  0
LINE
  5
264E
  8
0
 10
132.33920000000001
 20
103.6499
 30
0.0
 11
129.87540000000001
 21
103.6499
 31
0.0
  0
LINE
  5
264F
  8
0
 10
129.87540000000001
 20
111.6001
 30
0.0
 11
132.33920000000001
 21
111.6001
 31
0.0
  0
ARC
  5
2650
  8
0
 10
94.925000000000011
 20
107.625
 30
0.0
 40
12.70000000000001
 50
125.6590876961006
 51
234.34091230389939
  0
LINE
  5
2651
  8
0
 10
87.521392876840025
 20
117.94374999999999
 30
0.0
 11
88.600399999999965
 21
117.94374999999999
 31
0.0
  0
LINE
  5
2652
  8
0
 10
88.600399999999965
 20
97.306250000000006
 30
0.0
 11
87.521392876840025
 21
97.306250000000006
 31
0.0
  0
LINE
  5
2653
  8
0
 10
88.600399999999965
 20
115.51805
 30
0.0
 11
94.950400000000016
 21
115.51805
 31
0.0
  0
LINE
  5
2654
  8
0
 10
94.950400000000016
 20
99.731950000000026
 30
0.0
 11
88.600399999999965
 21
99.731950000000026
 31
0.0
  0
ARC
  5
2655
  8
0
 10
127.5913685
 20
107.625
 30
0.0
 40
6.8135544269487367
 50
325.0688837149001
 51
34.931116285099797
  0
LINE
  5
2656
  8
0
 10
133.17740000000001
 20
103.72361870448
 30
0.0
 11
133.17740000000001
 21
111.52638129552
 31
0.0
  0
LINE
  5
2657
  8
0
 10
132.33920000000001
 20
103.72361870448
 30
0.0
 11
132.33920000000001
 21
103.6499
 31
0.0
  0
LINE
  5
2658
  8
0
 10
132.33920000000001
 20
103.72361870448
 30
0.0
 11
133.17740000000001
 21
103.72361870448
 31
0.0
  0
LINE
  5
2659
  8
0
 10
133.17740000000001
 20
111.52638129552
 30
0.0
 11
132.33920000000001
 21
111.52638129552
 31
0.0
  0
LINE
  5
265A
  8
0
 10
132.33920000000001
 20
111.6001
 30
0.0
 11
132.33920000000001
 21
111.52638129552
 31
0.0
  0
LINE
  5
265B
  8
0
 10
87.521392876840025
 20
117.94374999999999
 30
0.0
 11
87.521392876840025
 21
97.306250000000006
 31
0.0
  0
LINE
  5
265C
  8
0
 10
88.600399999999965
 20
117.94374999999999
 30
0.0
 11
88.600399999999965
 21
97.306250000000006
 31
0.0
  0
LINE
  5
273C
  8
0
 10
129.87540000000001
 20
96.512500000000017
 30
0.0
 11
94.950400000000016
 21
96.512500000000017
 31
0.0
  0
LINE
  5
273D
  8
0
 10
129.87540000000001
 20
118.7375
 30
0.0
 11
94.950400000000016
 21
118.7375
 31
0.0
  0
LINE
  5
273E
  8
0
 10
94.950400000000016
 20
118.7375
 30
0.0
 11
94.950400000000016
 21
96.512500000000017
 31
0.0
  0
LINE
  5
2741
  8
0
 10
95.712400000000017
 20
119.4995
 30
0.0
 11
94.950400000000016
 21
118.7375
 31
0.0
  0
LINE
  5
2744
  8
0
 10
94.950400000000016
 20
96.512500000000017
 30
0.0
 11
95.712400000000017
 21
95.750499999999988
 31
0.0
  0
ARC
  5
2746
  8
0
 10
123.5254
 20
126.675
 30
0.0
 40
3.2638999999999951
 50
270.0
 51
90.0
  0
LINE
  5
2747
  8
0
 10
123.5254
 20
123.41109999999991
 30
0.0
 11
112.41289999999989
 21
123.41109999999991
 31
0.0
  0
ARC
  5
2748
  8
0
 10
112.41289999999989
 20
126.675
 30
0.0
 40
3.2638999999999951
 50
90.0
 51
270.0
  0
LINE
  5
2749
  8
0
 10
112.41289999999989
 20
129.93889999999999
 30
0.0
 11
123.5254
 21
129.93889999999999
 31
0.0
  0
ARC
  5
274A
  8
0
 10
123.5254
 20
126.675
 30
0.0
 40
6.3499999999999988
 50
0.0
 51
90.0
  0
LINE
  5
274B
  8
0
 10
111.86815612124001
 20
133.02500000000001
 30
0.0
 11
123.5254
 21
133.02500000000001
 31
0.0
  0
ARC
  5
274C
  8
0
 10
111.86815612124001
 20
126.675
 30
0.0
 40
6.3499999999999872
 50
90.0
 51
135.0000000000002
  0
LINE
  5
274D
  8
0
 10
95.712400000000017
 20
119.4995
 30
0.0
 11
107.37802806062
 21
131.16512806061999
 31
0.0
  0
LINE
  5
274E
  8
0
 10
129.87540000000001
 20
88.575000000000017
 30
0.0
 11
129.87540000000001
 21
126.675
 31
0.0
  0
ARC
  5
274F
  8
0
 10
123.5254
 20
88.575000000000017
 30
0.0
 40
3.2639000000000071
 50
270.0
 51
90.0
  0
LINE
  5
2750
  8
0
 10
123.5254
 20
85.31110000000001
 30
0.0
 11
112.41289999999989
 21
85.31110000000001
 31
0.0
  0
ARC
  5
2751
  8
0
 10
112.41289999999989
 20
88.575000000000017
 30
0.0
 40
3.2639000000000071
 50
90.0
 51
270.0
  0
LINE
  5
2752
  8
0
 10
112.41289999999989
 20
91.838899999999995
 30
0.0
 11
123.5254
 21
91.838899999999995
 31
0.0
  0
ARC
  5
2753
  8
0
 10
111.86815612124001
 20
88.575000000000017
 30
0.0
 40
6.3500000000000281
 50
224.9999999999998
 51
270.0
  0
LINE
  5
2754
  8
0
 10
123.5254
 20
82.225000000000009
 30
0.0
 11
111.86815612124001
 21
82.225000000000009
 31
0.0
  0
ARC
  5
2755
  8
0
 10
123.5254
 20
88.575000000000017
 30
0.0
 40
6.3499999999999988
 50
270.0
 51
0.0
  0
LINE
  5
2756
  8
0
 10
107.37802806062
 20
84.084871939379994
 30
0.0
 11
95.712400000000017
 21
95.750499999999988
 31
0.0
  0
LINE
  5
29E1
  8
1
 10
79.725000000000023
 20
107.625
 30
0.0
 11
136.9049229269487
 21
107.625
 31
0.0
  0
LINE
  5
29E2
  8
1
 10
127.7892999999999
 20
126.675
 30
0.0
 11
108.149
 21
126.675
 31
0.0
  0
LINE
  5
29E3
  8
1
 10
127.7893
 20
88.575000000000017
 30
0.0
 11
108.1489999999999
 21
88.575000000000017
 31
0.0
  0
LINE
  5
29E4
  8
1
 10
123.5254
 20
130.93889999999999
 30
0.0
 11
123.5254
 21
122.4111
 31
0.0
  0
LINE
  5
29E5
  8
1
 10
112.41289999999989
 20
130.93889999999999
 30
0.0
 11
112.41289999999989
 21
122.4111
 31
0.0
  0
LINE
  5
29F4
  8
1
 10
123.5254
 20
92.838900000000024
 30
0.0
 11
123.5254
 21
84.311100000000025
 31
0.0
  0
LINE
  5
29F5
  8
1
 10
112.41289999999989
 20
92.838900000000024
 30
0.0
 11
112.41289999999989
 21
84.311100000000025
 31
0.0
  0
LINE
  5
2AA7
  8
2
 10
37.428345454138423
 20
129.93889999999999
 30
0.0
 11
30.0
 21
129.93889999999999
 31
0.0
  0
LINE
  5
2AA8
  8
2
 10
37.72506363563361
 20
123.41109999999991
 30
0.0
 11
30.0
 21
123.41109999999991
 31
0.0
  0
LINE
  5
2AA9
  8
2
 10
37.72506363563361
 20
91.838899999999995
 30
0.0
 11
30.0
 21
91.838899999999995
 31
0.0
  0
LINE
  5
2AAA
  8
2
 10
37.428345454138423
 20
85.31110000000001
 30
0.0
 11
30.0
 21
85.31110000000001
 31
0.0
  0
LINE
  5
2AAB
  8
1
 10
29.0
 20
126.675
 30
0.0
 11
38.577737069681291
 21
126.675
 31
0.0
  0
LINE
  5
2AAC
  8
1
 10
29.0
 20
88.575000000000017
 30
0.0
 11
38.577737069681291
 21
88.575000000000017
 31
0.0
  0
LINE
  5
2AB1
  8
1
 10
28.293749999999989
 20
107.625
 30
0.0
 11
54.725000000000023
 21
107.625
 31
0.0
  0
LINE
  5
2AB2
  8
1
 10
41.112499999999997
 20
119.7375
 30
0.0
 11
41.112499999999997
 21
95.512500000000017
 31
0.0
  0
LINE
  5
2B18
  8
0
 10
109.2378999999999
 20
37.537774568695433
 30
0.0
 11
109.2378999999999
 21
30.0
 31
0.0
  0
LINE
  5
2B19
  8
1
 10
79.725000000000023
 20
41.112499999999997
 30
0.0
 11
136.9049229269487
 21
41.112499999999997
 31
0.0
  0
ENDSEC
  0
EOF
