  0
SECTION
  2
HEADER
  9
$ACADVER
  1
AC1009
  9
$INSBASE
 10
0.0
 20
0.0
 30
0.0
  9
$EXTMIN
 10
0.0
 20
-1.4802182810368341
 30
0.0
  9
$EXTMAX
 10
36.600000000000009
 20
23.300000000000001
 30
0.0
  9
$LIMMIN
 10
0.0
 20
0.0
  9
$LIMMAX
 10
187.5
 20
135.0
  9
$ORTHOMODE
 70
     1
  9
$REGENMODE
 70
     1
  9
$FILLMODE
 70
     1
  9
$QTEXTMODE
 70
     0
  9
$MIRRTEXT
 70
     0
  9
$DRAGMODE
 70
     2
  9
$LTSCALE
 40
2.0
  9
$OSMODE
 70
    37
  9
$ATTMODE
 70
     1
  9
$TEXTSIZE
 40
4.0
  9
$TRACEWID
 40
0.05
  9
$TEXTSTYLE
  7
STANDARD
  9
$CLAYER
  8
0
  9
$CELTYPE
  6
BYLAYER
  9
$CECOLOR
 62
   256
  9
$DIMSCALE
 40
0.5
  9
$DIMASZ
 40
3.0
  9
$DIMEXO
 40
2.0
  9
$DIMDLI
 40
0.38
  9
$DIMRND
 40
0.0
  9
$DIMDLE
 40
0.0
  9
$DIMEXE
 40
2.0
  9
$DIMTP
 40
0.0
  9
$DIMTM
 40
0.0
  9
$DIMTXT
 40
3.0
  9
$DIMCEN
 40
0.0
  9
$DIMTSZ
 40
0.0
  9
$DIMTOL
 70
     0
  9
$DIMLIM
 70
     0
  9
$DIMTIH
 70
     0
  9
$DIMTOH
 70
     0
  9
$DIMSE1
 70
     0
  9
$DIMSE2
 70
     0
  9
$DIMTAD
 70
     1
  9
$DIMZIN
 70
     0
  9
$DIMBLK
  1

  9
$DIMASO
 70
     0
  9
$DIMSHO
 70
     0
  9
$DIMPOST
  1

  9
$DIMAPOST
  1

  9
$DIMALT
 70
     0
  9
$DIMALTD
 70
     2
  9
$DIMALTF
 40
25.399999999999999
  9
$DIMLFAC
 40
1.0
  9
$DIMTOFL
 70
     0
  9
$DIMTVP
 40
1.6000000000000001
  9
$DIMTIX
 70
     1
  9
$DIMSOXD
 70
     0
  9
$DIMSAH
 70
     0
  9
$DIMBLK1
  1

  9
$DIMBLK2
  1

  9
$DIMSTYLE
  2
STANDARD
  9
$DIMCLRD
 70
     0
  9
$DIMCLRE
 70
     0
  9
$DIMCLRT
 70
     0
  9
$DIMTFAC
 40
1.0
  9
$DIMGAP
 40
0.09
  9
$LUNITS
 70
     2
  9
$LUPREC
 70
     4
  9
$SKETCHINC
 40
0.1
  9
$FILLETRAD
 40
1.0
  9
$AUNITS
 70
     0
  9
$AUPREC
 70
     0
  9
$MENU
  1
E:\r13\win\SUPPORT\ACAD
  9
$ELEVATION
 40
0.0
  9
$PELEVATION
 40
0.0
  9
$THICKNESS
 40
0.0
  9
$LIMCHECK
 70
     0
  9
$BLIPMODE
 70
     0
  9
$CHAMFERA
 40
0.0
  9
$CHAMFERB
 40
0.0
  9
$SKPOLY
 70
     0
  9
$TDCREATE
 40
2449840.6143865739
  9
$TDUPDATE
 40
2458249.592627639
  9
$TDINDWG
 40
0.2676923958
  9
$TDUSRTIMER
 40
0.2676923958
  9
$USRTIMER
 70
     1
  9
$ANGBASE
 50
0.0
  9
$ANGDIR
 70
     0
  9
$PDMODE
 70
     0
  9
$PDSIZE
 40
0.0
  9
$PLINEWID
 40
0.0
  9
$COORDS
 70
     1
  9
$SPLFRAME
 70
     0
  9
$SPLINETYPE
 70
     6
  9
$SPLINESEGS
 70
     8
  9
$ATTDIA
 70
     0
  9
$ATTREQ
 70
     1
  9
$HANDLING
 70
     1
  9
$HANDSEED
  5
19FD
  9
$SURFTAB1
 70
     6
  9
$SURFTAB2
 70
     6
  9
$SURFTYPE
 70
     6
  9
$SURFU
 70
     6
  9
$SURFV
 70
     6
  9
$UCSNAME
  2

  9
$UCSORG
 10
0.0
 20
0.0
 30
0.0
  9
$UCSXDIR
 10
1.0
 20
0.0
 30
0.0
  9
$UCSYDIR
 10
0.0
 20
1.0
 30
0.0
  9
$PUCSNAME
  2

  9
$PUCSORG
 10
0.0
 20
0.0
 30
0.0
  9
$PUCSXDIR
 10
1.0
 20
0.0
 30
0.0
  9
$PUCSYDIR
 10
0.0
 20
1.0
 30
0.0
  9
$USERI1
 70
     0
  9
$USERI2
 70
     1
  9
$USERI3
 70
     1
  9
$USERI4
 70
     0
  9
$USERI5
 70
     0
  9
$USERR1
 40
0.0
  9
$USERR2
 40
0.0
  9
$USERR3
 40
0.0
  9
$USERR4
 40
0.0
  9
$USERR5
 40
0.0
  9
$WORLDVIEW
 70
     1
  9
$SHADEDGE
 70
     3
  9
$SHADEDIF
 70
    70
  9
$TILEMODE
 70
     1
  9
$MAXACTVP
 70
    16
  9
$PLIMCHECK
 70
     0
  9
$PEXTMIN
 10
1.0000000000000000E+020
 20
1.0000000000000000E+020
 30
1.0000000000000000E+020
  9
$PEXTMAX
 10
-1.0000000000000000E+020
 20
-1.0000000000000000E+020
 30
-1.0000000000000000E+020
  9
$PLIMMIN
 10
0.0
 20
0.0
  9
$PLIMMAX
 10
12.0
 20
9.0
  9
$UNITMODE
 70
     0
  9
$VISRETAIN
 70
     0
  9
$PLINEGEN
 70
     0
  9
$PSLTSCALE
 70
     0
  0
ENDSEC
  0
SECTION
  2
TABLES
  0
TABLE
  2
VPORT
 70
     1
  0
VPORT
  2
*ACTIVE
 70
     0
 10
0.0
 20
0.0
 11
1.0
 21
1.0
 12
20.628528689113331
 22
10.909467608372291
 13
0.0
 23
0.0
 14
5.0
 24
5.0
 15
5.0
 25
5.0
 16
0.0
 26
0.0
 36
1.0
 17
0.0
 27
0.0
 37
0.0
 40
25.11398153494061
 41
2.0984455958549222
 42
50.0
 43
0.0
 44
0.0
 50
0.0
 51
0.0
 71
     0
 72
   100
 73
     1
 74
     0
 75
     0
 76
     0
 77
     0
 78
     0
  0
ENDTAB
  0
TABLE
  2
LTYPE
 70
     5
  0
LTYPE
  2
CONTINUOUS
 70
     0
  3
Solid Line
 72
    65
 73
     0
 40
0.0
  0
LTYPE
  2
CENTER
 70
     0
  3
____ _ ____ _ ____ _ ____ _ ____ _ ____ _ ____
 72
    65
 73
     4
 40
2.0
 49
1.25
 49
-0.25
 49
0.25
 49
-0.25
  0
LTYPE
  2
HIDDEN
 70
     0
  3
_ _ _ _ _ _ _ _ _ _ _ _ _ _ _ _ _ _ _ _ _ _ _
 72
    65
 73
     2
 40
0.375
 49
0.25
 49
-0.125
  0
LTYPE
  2
PHANTOM2
 70
     0
  3
___ _ _ ___ _ _ ___ _ _ ___ _ _
 72
    65
 73
     6
 40
1.25
 49
0.625
 49
-0.125
 49
0.125
 49
-0.125
 49
0.125
 49
-0.125
  0
LTYPE
  2
PHANTOM
 70
     0
  3
Phantom ______  __  __  ______  __  __  ______
 72
    65
 73
     6
 40
2.5
 49
1.25
 49
-0.25
 49
0.25
 49
-0.25
 49
0.25
 49
-0.25
  0
ENDTAB
  0
TABLE
  2
LAYER
 70
     2
  0
LAYER
  2
0
 70
     0
 62
     7
  6
CONTINUOUS
  0
LAYER
  2
1
 70
     0
 62
     1
  6
CENTER
  0
ENDTAB
  0
TABLE
  2
STYLE
 70
     2
  0
STYLE
  2
STANDARD
 70
     0
 40
0.0
 41
1.0
 50
0.0
 71
     0
 42
4.0
  3
TXT
  4
BIGFONT
  0
STYLE
  2
STANDARD1
 70
     0
 40
0.0
 41
1.0
 50
0.0
 71
     0
 42
3.0
  3
txt
  4

  0
ENDTAB
  0
TABLE
  2
VIEW
 70
     1
  0
VIEW
  2
ALL
 70
     0
 40
179.66152299999999
 10
141.903918
 20
89.830760999999995
 41
0.0
 11
0.0
 21
0.0
 31
1.0
 12
0.0
 22
0.0
 32
0.0
 42
0.0
 43
0.0
 44
0.0
 50
0.0
 71
     0
  0
ENDTAB
  0
TABLE
  2
UCS
 70
     0
  0
ENDTAB
  0
TABLE
  2
APPID
 70
     5
  0
APPID
  2
ACAD
 70
     0
  0
APPID
  2
DCO15
 70
     0
  0
APPID
  2
ACAD_MLEADERVER
 70
     0
  0
APPID
  2
ACAD_NAV_VCDISPLAY
 70
     0
  0
APPID
  2
ACAD_EXEMPT_FROM_CAD_STANDARDS
 70
     0
  0
ENDTAB
  0
TABLE
  2
DIMSTYLE
 70
     2
  0
DIMSTYLE
  2
STANDARD
 70
     0
  3

  4

  5

  6

  7

 40
1.0
 41
0.18
 42
0.0625
 43
0.38
 44
0.18
 45
0.0
 46
0.0
 47
0.0
 48
0.0
140
0.18
141
0.09
142
0.0
143
25.399999999999999
144
1.0
145
0.0
146
1.0
147
0.09
 71
     0
 72
     0
 73
     1
 74
     1
 75
     0
 76
     0
 77
     0
 78
     0
170
     0
171
     2
172
     0
173
     0
174
     0
175
     0
176
     0
177
     0
178
     0
  0
DIMSTYLE
  2
ISO-25
 70
     0
  3

  4

  5

  6

  7

 40
1.0
 41
2.5
 42
0.625
 43
3.75
 44
1.25
 45
0.0
 46
0.0
 47
0.0
 48
0.0
140
2.5
141
2.5
142
0.0
143
0.0393700787
144
1.0
145
0.0
146
1.0
147
0.625
 71
     0
 72
     0
 73
     0
 74
     0
 75
     0
 76
     0
 77
     1
 78
     8
170
     0
171
     3
172
     1
173
     0
174
     0
175
     0
176
     0
177
     0
178
     0
  0
ENDTAB
  0
ENDSEC
  0
SECTION
  2
BLOCKS
  0
BLOCK
  8
0
  2
$MODEL_SPACE
 70
     0
 10
0.0
 20
0.0
 30
0.0
  3
$MODEL_SPACE
  1

  0
ENDBLK
  5
1BD
  8
0
  0
BLOCK
 67
     1
  8
0
  2
$PAPER_SPACE
 70
     0
 10
0.0
 20
0.0
 30
0.0
  3
$PAPER_SPACE
  1

  0
ENDBLK
  5
1BB
 67
     1
  8
0
  0
ENDSEC
  0
SECTION
  2
ENTITIES
  0
ATTDEF
  5
1296
  8
0
 10
314.9088241206793
 20
164.23348131398001
 30
0.0
 40
1.0
  1
KIPP
  3

  2
Company
 70
     9
  0
ATTDEF
  5
1297
  8
0
 10
314.9088241206793
 20
164.23348131398001
 30
0.0
 40
1.0
  1
03072-204
  3

  2
NB
 70
     9
  0
ATTDEF
  5
1298
  8
0
 10
314.9088241206793
 20
164.23348131398001
 30
0.0
 40
1.0
  1
03072
  3

  2
NN
 70
     9
  0
ATTDEF
  5
1299
  8
0
 10
314.9088241206793
 20
164.23348131398001
 30
0.0
 40
1.0
  1
Federnde Druckst\U+00FCcke glatte Ausf\U+00FChrung, ohne Bund, Nirosta
  3

  2
NT
 70
     9
  0
ATTDEF
  5
129A
  8
0
 10
314.9088241206793
 20
164.23348131398001
 30
0.0
 40
1.0
  1
$BEST.
  3

  2
NBSYN
 70
     9
  0
ATTDEF
  5
129B
  8
0
 10
314.9088241206793
 20
164.23348131398001
 30
0.0
 40
1.0
  1
03072-204
  3

  2
LINA
 70
     9
  0
ATTDEF
  5
12A6
  8
0
 10
332.11819643339152
 20
146.54357743367109
 30
0.0
 40
1.0
  1
KIPP
  3

  2
Company
 70
     9
  0
ATTDEF
  5
12A7
  8
0
 10
332.11819643339152
 20
146.54357743367109
 30
0.0
 40
1.0
  1
03072-204
  3

  2
NB
 70
     9
  0
ATTDEF
  5
12A8
  8
0
 10
332.11819643339152
 20
146.54357743367109
 30
0.0
 40
1.0
  1
03072
  3

  2
NN
 70
     9
  0
ATTDEF
  5
12A9
  8
0
 10
332.11819643339152
 20
146.54357743367109
 30
0.0
 40
1.0
  1
Federnde Druckst\U+00FCcke glatte Ausf\U+00FChrung, ohne Bund, Nirosta
  3

  2
NT
 70
     9
  0
ATTDEF
  5
12AA
  8
0
 10
332.11819643339152
 20
146.54357743367109
 30
0.0
 40
1.0
  1
$BEST.
  3

  2
NBSYN
 70
     9
  0
ATTDEF
  5
12AB
  8
0
 10
332.11819643339152
 20
146.54357743367109
 30
0.0
 40
1.0
  1
03072-204
  3

  2
LINA
 70
     9
  0
ATTDEF
  5
12B1
  8
0
 10
315.4005203288126
 20
149.98328130031589
 30
0.0
 40
1.0
  1
KIPP
  3

  2
Company
 70
     9
  0
ATTDEF
  5
12B2
  8
0
 10
315.4005203288126
 20
149.98328130031589
 30
0.0
 40
1.0
  1
03072-204
  3

  2
NB
 70
     9
  0
ATTDEF
  5
12B3
  8
0
 10
315.4005203288126
 20
149.98328130031589
 30
0.0
 40
1.0
  1
03072
  3

  2
NN
 70
     9
  0
ATTDEF
  5
12B4
  8
0
 10
315.4005203288126
 20
149.98328130031589
 30
0.0
 40
1.0
  1
Federnde Druckst\U+00FCcke glatte Ausf\U+00FChrung, ohne Bund, Nirosta
  3

  2
NT
 70
     9
  0
ATTDEF
  5
12B5
  8
0
 10
315.4005203288126
 20
149.98328130031589
 30
0.0
 40
1.0
  1
$BEST.
  3

  2
NBSYN
 70
     9
  0
ATTDEF
  5
12B6
  8
0
 10
315.4005203288126
 20
149.98328130031589
 30
0.0
 40
1.0
  1
03072-204
  3

  2
LINA
 70
     9
  0
ATTDEF
  5
12BD
  8
0
 10
48.833196789946498
 20
56.78642736927668
 30
0.0
 40
1.0
  1
KIPP
  3

  2
Company
 70
     9
  0
ATTDEF
  5
12BE
  8
0
 10
48.833196789946498
 20
56.78642736927668
 30
0.0
 40
1.0
  1
03072-205
  3

  2
NB
 70
     9
  0
ATTDEF
  5
12BF
  8
0
 10
48.833196789946498
 20
56.78642736927668
 30
0.0
 40
1.0
  1
03072
  3

  2
NN
 70
     9
  0
ATTDEF
  5
12C0
  8
0
 10
48.833196789946498
 20
56.78642736927668
 30
0.0
 40
1.0
  1
Federnde Druckst\U+00FCcke glatte Ausf\U+00FChrung, ohne Bund, Nirosta
  3

  2
NT
 70
     9
  0
ATTDEF
  5
12C1
  8
0
 10
48.833196789946498
 20
56.78642736927668
 30
0.0
 40
1.0
  1
$BEST.
  3

  2
NBSYN
 70
     9
  0
ATTDEF
  5
12C2
  8
0
 10
48.833196789946498
 20
56.78642736927668
 30
0.0
 40
1.0
  1
03072-205
  3

  2
LINA
 70
     9
  0
ATTDEF
  5
12CE
  8
0
 10
71.002868582710335
 20
57.185628942003071
 30
0.0
 40
1.0
  1
KIPP
  3

  2
Company
 70
     9
  0
ATTDEF
  5
12CF
  8
0
 10
71.002868582710335
 20
57.185628942003071
 30
0.0
 40
1.0
  1
03072-205
  3

  2
NB
 70
     9
  0
ATTDEF
  5
12D0
  8
0
 10
71.002868582710335
 20
57.185628942003071
 30
0.0
 40
1.0
  1
03072
  3

  2
NN
 70
     9
  0
ATTDEF
  5
12D1
  8
0
 10
71.002868582710335
 20
57.185628942003071
 30
0.0
 40
1.0
  1
Federnde Druckst\U+00FCcke glatte Ausf\U+00FChrung, ohne Bund, Nirosta
  3

  2
NT
 70
     9
  0
ATTDEF
  5
12D2
  8
0
 10
71.002868582710335
 20
57.185628942003071
 30
0.0
 40
1.0
  1
$BEST.
  3

  2
NBSYN
 70
     9
  0
ATTDEF
  5
12D3
  8
0
 10
71.002868582710335
 20
57.185628942003071
 30
0.0
 40
1.0
  1
03072-205
  3

  2
LINA
 70
     9
  0
ATTDEF
  5
12D7
  8
0
 10
49.831830181389932
 20
41.816367220765073
 30
0.0
 40
1.0
  1
KIPP
  3

  2
Company
 70
     9
  0
ATTDEF
  5
12D8
  8
0
 10
49.831830181389932
 20
41.816367220765073
 30
0.0
 40
1.0
  1
03072-206
  3

  2
NB
 70
     9
  0
ATTDEF
  5
12D9
  8
0
 10
49.831830181389932
 20
41.816367220765073
 30
0.0
 40
1.0
  1
03072
  3

  2
NN
 70
     9
  0
ATTDEF
  5
12DA
  8
0
 10
49.831830181389932
 20
41.816367220765073
 30
0.0
 40
1.0
  1
Federnde Druckst\U+00FCcke glatte Ausf\U+00FChrung, ohne Bund, Nirosta
  3

  2
NT
 70
     9
  0
ATTDEF
  5
12DB
  8
0
 10
49.831830181389932
 20
41.816367220765073
 30
0.0
 40
1.0
  1
$BEST.
  3

  2
NBSYN
 70
     9
  0
ATTDEF
  5
12DC
  8
0
 10
49.831830181389932
 20
41.816367220765073
 30
0.0
 40
1.0
  1
03072-206
  3

  2
LINA
 70
     9
  0
ATTDEF
  5
12E7
  8
0
 10
69.804508284658255
 20
41.616766434401882
 30
0.0
 40
1.0
  1
KIPP
  3

  2
Company
 70
     9
  0
ATTDEF
  5
12E8
  8
0
 10
69.804508284658255
 20
41.616766434401882
 30
0.0
 40
1.0
  1
03072-206
  3

  2
NB
 70
     9
  0
ATTDEF
  5
12E9
  8
0
 10
69.804508284658255
 20
41.616766434401882
 30
0.0
 40
1.0
  1
03072
  3

  2
NN
 70
     9
  0
ATTDEF
  5
12EA
  8
0
 10
69.804508284658255
 20
41.616766434401882
 30
0.0
 40
1.0
  1
Federnde Druckst\U+00FCcke glatte Ausf\U+00FChrung, ohne Bund, Nirosta
  3

  2
NT
 70
     9
  0
ATTDEF
  5
12EB
  8
0
 10
69.804508284658255
 20
41.616766434401882
 30
0.0
 40
1.0
  1
$BEST.
  3

  2
NBSYN
 70
     9
  0
ATTDEF
  5
12EC
  8
0
 10
69.804508284658255
 20
41.616766434401882
 30
0.0
 40
1.0
  1
03072-206
  3

  2
LINA
 70
     9
  0
ATTDEF
  5
12F0
  8
0
 10
49.232650032363892
 20
25.24950078134799
 30
0.0
 40
1.0
  1
KIPP
  3

  2
Company
 70
     9
  0
ATTDEF
  5
12F1
  8
0
 10
49.232650032363892
 20
25.24950078134799
 30
0.0
 40
1.0
  1
03072-208
  3

  2
NB
 70
     9
  0
ATTDEF
  5
12F2
  8
0
 10
49.232650032363892
 20
25.24950078134799
 30
0.0
 40
1.0
  1
03072
  3

  2
NN
 70
     9
  0
ATTDEF
  5
12F3
  8
0
 10
49.232650032363892
 20
25.24950078134799
 30
0.0
 40
1.0
  1
Federnde Druckst\U+00FCcke glatte Ausf\U+00FChrung, ohne Bund, Nirosta
  3

  2
NT
 70
     9
  0
ATTDEF
  5
12F4
  8
0
 10
49.232650032363892
 20
25.24950078134799
 30
0.0
 40
1.0
  1
$BEST.
  3

  2
NBSYN
 70
     9
  0
ATTDEF
  5
12F5
  8
0
 10
49.232650032363892
 20
25.24950078134799
 30
0.0
 40
1.0
  1
03072-208
  3

  2
LINA
 70
     9
  0
ATTDEF
  5
1300
  8
0
 10
74.398224282657907
 20
27.045908249040728
 30
0.0
 40
1.0
  1
KIPP
  3

  2
Company
 70
     9
  0
ATTDEF
  5
1301
  8
0
 10
74.398224282657907
 20
27.045908249040728
 30
0.0
 40
1.0
  1
03072-208
  3

  2
NB
 70
     9
  0
ATTDEF
  5
1302
  8
0
 10
74.398224282657907
 20
27.045908249040728
 30
0.0
 40
1.0
  1
03072
  3

  2
NN
 70
     9
  0
ATTDEF
  5
1303
  8
0
 10
74.398224282657907
 20
27.045908249040728
 30
0.0
 40
1.0
  1
Federnde Druckst\U+00FCcke glatte Ausf\U+00FChrung, ohne Bund, Nirosta
  3

  2
NT
 70
     9
  0
ATTDEF
  5
1304
  8
0
 10
74.398224282657907
 20
27.045908249040728
 30
0.0
 40
1.0
  1
$BEST.
  3

  2
NBSYN
 70
     9
  0
ATTDEF
  5
1305
  8
0
 10
74.398224282657907
 20
27.045908249040728
 30
0.0
 40
1.0
  1
03072-208
  3

  2
LINA
 70
     9
  0
ATTDEF
  5
1309
  8
0
 10
94.171174908517557
 20
54.990019901583871
 30
0.0
 40
1.0
  1
KIPP
  3

  2
Company
 70
     9
  0
ATTDEF
  5
130A
  8
0
 10
94.171174908517557
 20
54.990019901583871
 30
0.0
 40
1.0
  1
03072-210
  3

  2
NB
 70
     9
  0
ATTDEF
  5
130B
  8
0
 10
94.171174908517557
 20
54.990019901583871
 30
0.0
 40
1.0
  1
03072
  3

  2
NN
 70
     9
  0
ATTDEF
  5
130C
  8
0
 10
94.171174908517557
 20
54.990019901583871
 30
0.0
 40
1.0
  1
Federnde Druckst\U+00FCcke glatte Ausf\U+00FChrung, ohne Bund, Nirosta
  3

  2
NT
 70
     9
  0
ATTDEF
  5
130D
  8
0
 10
94.171174908517557
 20
54.990019901583871
 30
0.0
 40
1.0
  1
$BEST.
  3

  2
NBSYN
 70
     9
  0
ATTDEF
  5
130E
  8
0
 10
94.171174908517557
 20
54.990019901583871
 30
0.0
 40
1.0
  1
03072-210
  3

  2
LINA
 70
     9
  0
ATTDEF
  5
1319
  8
0
 10
128.9236343972284
 20
54.39121754249431
 30
0.0
 40
1.0
  1
KIPP
  3

  2
Company
 70
     9
  0
ATTDEF
  5
131A
  8
0
 10
128.9236343972284
 20
54.39121754249431
 30
0.0
 40
1.0
  1
03072-210
  3

  2
NB
 70
     9
  0
ATTDEF
  5
131B
  8
0
 10
128.9236343972284
 20
54.39121754249431
 30
0.0
 40
1.0
  1
03072
  3

  2
NN
 70
     9
  0
ATTDEF
  5
131C
  8
0
 10
128.9236343972284
 20
54.39121754249431
 30
0.0
 40
1.0
  1
Federnde Druckst\U+00FCcke glatte Ausf\U+00FChrung, ohne Bund, Nirosta
  3

  2
NT
 70
     9
  0
ATTDEF
  5
131D
  8
0
 10
128.9236343972284
 20
54.39121754249431
 30
0.0
 40
1.0
  1
$BEST.
  3

  2
NBSYN
 70
     9
  0
ATTDEF
  5
131E
  8
0
 10
128.9236343972284
 20
54.39121754249431
 30
0.0
 40
1.0
  1
03072-210
  3

  2
LINA
 70
     9
  0
ATTDEF
  5
1322
  8
0
 10
94.770355057543611
 20
34.031936162176521
 30
0.0
 40
1.0
  1
KIPP
  3

  2
Company
 70
     9
  0
ATTDEF
  5
1323
  8
0
 10
94.770355057543611
 20
34.031936162176521
 30
0.0
 40
1.0
  1
03072-212
  3

  2
NB
 70
     9
  0
ATTDEF
  5
1324
  8
0
 10
94.770355057543611
 20
34.031936162176521
 30
0.0
 40
1.0
  1
03072
  3

  2
NN
 70
     9
  0
ATTDEF
  5
1325
  8
0
 10
94.770355057543611
 20
34.031936162176521
 30
0.0
 40
1.0
  1
Federnde Druckst\U+00FCcke glatte Ausf\U+00FChrung, ohne Bund, Nirosta
  3

  2
NT
 70
     9
  0
ATTDEF
  5
1326
  8
0
 10
94.770355057543611
 20
34.031936162176521
 30
0.0
 40
1.0
  1
$BEST.
  3

  2
NBSYN
 70
     9
  0
ATTDEF
  5
1327
  8
0
 10
94.770355057543611
 20
34.031936162176521
 30
0.0
 40
1.0
  1
03072-212
  3

  2
LINA
 70
     9
  0
ATTDEF
  5
1332
  8
0
 10
132.91816967540211
 20
34.231536948539713
 30
0.0
 40
1.0
  1
KIPP
  3

  2
Company
 70
     9
  0
ATTDEF
  5
1333
  8
0
 10
132.91816967540211
 20
34.231536948539713
 30
0.0
 40
1.0
  1
03072-212
  3

  2
NB
 70
     9
  0
ATTDEF
  5
1334
  8
0
 10
132.91816967540211
 20
34.231536948539713
 30
0.0
 40
1.0
  1
03072
  3

  2
NN
 70
     9
  0
ATTDEF
  5
1335
  8
0
 10
132.91816967540211
 20
34.231536948539713
 30
0.0
 40
1.0
  1
Federnde Druckst\U+00FCcke glatte Ausf\U+00FChrung, ohne Bund, Nirosta
  3

  2
NT
 70
     9
  0
ATTDEF
  5
1336
  8
0
 10
132.91816967540211
 20
34.231536948539713
 30
0.0
 40
1.0
  1
$BEST.
  3

  2
NBSYN
 70
     9
  0
ATTDEF
  5
1337
  8
0
 10
132.91816967540211
 20
34.231536948539713
 30
0.0
 40
1.0
  1
03072-212
  3

  2
LINA
 70
     9
  0
TEXT
  5
1423
  8
0
 62
     3
 10
0.0
 20
0.0
 30
0.0
 40
5.0
  1
SSPS4
  7
STANDARD1
  0
ARC
  5
149A
  8
0
 10
21.938000000049978
 20
21.869999999980319
 30
0.0
 40
0.4300000000000044
 50
45.198631092099809
 51
90.0
  0
ARC
  5
149B
  8
0
 10
21.938000000049978
 20
18.12999999998031
 30
0.0
 40
0.4300000000000069
 50
270.0
 51
314.80136890790021
  0
ARC
  5
149C
  8
0
 10
21.938000000049978
 20
21.799999999980312
 30
0.0
 40
0.5
 50
90.0
 51
145.150095421
  0
ARC
  5
149D
  8
0
 10
21.938000000049978
 20
18.199999999980321
 30
0.0
 40
0.5000000000000142
 50
214.84990457899971
 51
270.0
  0
ARC
  5
149E
  8
0
 10
22.100000000049992
 20
22.033266716780311
 30
0.0
 40
0.1999999999999678
 50
0.0
 51
45.170455949799958
  0
ARC
  5
149F
  8
0
 10
22.100000000049992
 20
17.96673328328032
 30
0.0
 40
0.1999999999999678
 50
314.82954405020001
 51
0.0
  0
ARC
  5
14A0
  8
0
 10
21.363543735349989
 20
22.199999999980321
 30
0.0
 40
0.2000000000000084
 50
270.0
 51
325.15009542100017
  0
ARC
  5
14A1
  8
0
 10
21.363543735349989
 20
17.799999999980312
 30
0.0
 40
0.2000000000000084
 50
34.849904578999713
 51
90.0
  0
LINE
  5
14A2
  8
0
 10
19.599999999949979
 20
17.999999999980322
 30
0.0
 11
21.363543735349989
 21
17.999999999980322
 31
0.0
  0
LINE
  5
14A3
  8
0
 10
21.363543735349989
 20
21.999999999980322
 30
0.0
 11
19.599999999949979
 21
21.999999999980322
 31
0.0
  0
LINE
  5
14A4
  8
0
 10
12.78198511714997
 20
17.999999999980322
 30
0.0
 11
14.000000000049971
 21
17.999999999980322
 31
0.0
  0
LINE
  5
14A5
  8
0
 10
14.000000000049971
 20
21.999999999980322
 30
0.0
 11
12.78198511714997
 21
21.999999999980322
 31
0.0
  0
ARC
  5
14A6
  8
0
 10
12.78198511714997
 20
21.499999999980322
 30
0.0
 40
0.5
 50
90.0
 51
130.0000000000002
  0
ARC
  5
14A7
  8
0
 10
12.78198511714997
 20
18.499999999980322
 30
0.0
 40
0.5
 50
229.9999999999998
 51
270.0
  0
LINE
  5
14A8
  8
0
 10
19.599999999949979
 20
21.999999999980322
 30
0.0
 11
19.098163282149962
 21
21.924999999980319
 31
0.0
  0
LINE
  5
14A9
  8
0
 10
19.098163282149962
 20
18.074999999980321
 30
0.0
 11
19.599999999949979
 21
17.999999999980322
 31
0.0
  0
LINE
  5
14AA
  8
0
 10
14.000000000049971
 20
17.999999999980322
 30
0.0
 11
14.50183671784999
 21
18.074999999980321
 31
0.0
  0
LINE
  5
14AB
  8
0
 10
14.50183671784999
 20
21.924999999980319
 30
0.0
 11
14.000000000049971
 21
21.999999999980322
 31
0.0
  0
LINE
  5
14AC
  8
0
 10
14.50183671784999
 20
18.074999999980321
 30
0.0
 11
19.098163282149962
 21
18.074999999980321
 31
0.0
  0
LINE
  5
14AD
  8
0
 10
19.098163282149962
 20
21.924999999980319
 30
0.0
 11
14.50183671784999
 21
21.924999999980319
 31
0.0
  0
LINE
  5
14AE
  8
0
 10
12.460591312349971
 20
21.883022221580319
 30
0.0
 11
11.77860619514998
 21
21.310768761280318
 31
0.0
  0
LINE
  5
14AF
  8
0
 10
11.77860619514998
 20
18.689231238780309
 30
0.0
 11
12.460591312349971
 21
18.116977778480301
 31
0.0
  0
ARC
  5
14B0
  8
0
 10
12.100000000049979
 20
20.927746539780319
 30
0.0
 40
0.5
 50
130.00000000150001
 51
180.0
  0
ARC
  5
14B1
  8
0
 10
12.100000000049979
 20
19.072253460280312
 30
0.0
 40
0.5
 50
180.0
 51
229.9999999984999
  0
LINE
  5
14B2
  8
0
 10
22.300000000049991
 20
17.966733459780311
 30
0.0
 11
22.300000000049991
 21
22.03326654018031
 31
0.0
  0
LINE
  5
14B3
  8
0
 10
19.599999999949979
 20
17.999999999980322
 30
0.0
 11
19.599999999949979
 21
21.999999999980322
 31
0.0
  0
LINE
  5
14B4
  8
0
 10
14.000000000049971
 20
21.999999999980322
 30
0.0
 11
14.000000000049971
 21
17.999999999980322
 31
0.0
  0
LINE
  5
14B5
  8
0
 10
19.098163282149962
 20
18.074999999980321
 30
0.0
 11
19.098163282149962
 21
21.924999999980319
 31
0.0
  0
LINE
  5
14B6
  8
0
 10
14.50183671784999
 20
21.924999999980319
 30
0.0
 11
14.50183671784999
 21
18.074999999980321
 31
0.0
  0
LINE
  5
14B7
  8
0
 10
11.600000000049979
 20
20.927746539780319
 30
0.0
 11
11.600000000049979
 21
19.072253460280312
 31
0.0
  0
LINE
  5
14B8
  8
0
 10
21.938000000049978
 20
17.699999999980321
 30
0.0
 11
21.938000000049978
 21
22.299999999980319
 31
0.0
  0
LINE
  5
14B9
  8
0
 10
21.363543735349989
 20
17.999999999980322
 30
0.0
 11
21.363543735349989
 21
21.999999999980322
 31
0.0
  0
LINE
  5
14BA
  8
0
 10
12.78198511714997
 20
21.999999999980322
 30
0.0
 11
12.78198511714997
 21
17.999999999980322
 31
0.0
  0
CIRCLE
  5
14BB
  8
0
 10
3.2999999999999972
 20
20.0
 30
0.0
 40
0.9000000000000056
  0
CIRCLE
  5
14BC
  8
0
 10
3.2999999999999972
 20
20.0
 30
0.0
 40
2.0
  0
CIRCLE
  5
14BD
  8
0
 10
3.2999999999999972
 20
20.0
 30
0.0
 40
2.2999999999999972
  0
CIRCLE
  5
14BE
  8
0
 10
33.300056851099967
 20
20.00183481869999
 30
0.0
 40
2.033210516945076
  0
CIRCLE
  5
14C0
  8
0
 10
33.299999999999997
 20
20.0
 30
0.0
 40
2.30000000000001
  0
LINE
  5
14CF
  8
1
 10
0.0
 20
20.0
 30
0.0
 11
6.5999999999999943
 21
20.0
 31
0.0
  0
LINE
  5
14D0
  8
1
 10
3.2999999999999972
 20
23.300000000000001
 30
0.0
 11
3.2999999999999972
 21
16.699999999999999
 31
0.0
  0
LINE
  5
14D1
  8
1
 10
33.299999999999997
 20
23.300000000000001
 30
0.0
 11
33.299999999999997
 21
16.699999999999982
 31
0.0
  0
LINE
  5
14D2
  8
1
 10
29.999999999999989
 20
20.0
 30
0.0
 11
36.600000000000009
 21
20.0
 31
0.0
  0
LINE
  5
14D5
  8
1
 10
10.600000000049979
 20
20.000000000030312
 30
0.0
 11
25.99999999995001
 21
19.999999999969681
 31
0.0
  0
ARC
  5
15CB
  8
0
 10
23.599999999950001
 20
20.000000000014939
 30
0.0
 40
1.400000000000005
 50
270.0
 51
90.0
  0
LINE
  5
15CC
  8
0
 10
22.300000000049991
 20
21.400000000014948
 30
0.0
 11
23.599999999950001
 21
21.400000000014948
 31
0.0
  0
LINE
  5
15CD
  8
0
 10
22.300000000049991
 20
18.600000000014941
 30
0.0
 11
23.599999999950001
 21
18.600000000014941
 31
0.0
  0
LINE
  5
15CE
  8
0
 10
23.599999999950001
 20
21.400000000014948
 30
0.0
 11
23.599999999950001
 21
18.600000000014941
 31
0.0
  0
CIRCLE
  5
1666
  8
0
 10
33.300056851099967
 20
20.00183481869999
 30
0.0
 40
1.399999999999999
  0
ENDSEC
  0
EOF
