  0
SECTION
  2
HEADER
  9
$ACADVER
  1
AC1009
  9
$INSBASE
 10
0.0
 20
0.0
 30
0.0
  9
$EXTMIN
 10
0.0
 20
-1.4802182810368341
 30
0.0
  9
$EXTMAX
 10
44.600000000000023
 20
24.300000000000011
 30
0.0
  9
$LIMMIN
 10
0.0
 20
0.0
  9
$LIMMAX
 10
187.5
 20
135.0
  9
$ORTHOMODE
 70
     1
  9
$REGENMODE
 70
     1
  9
$FILLMODE
 70
     1
  9
$QTEXTMODE
 70
     0
  9
$MIRRTEXT
 70
     0
  9
$DRAGMODE
 70
     2
  9
$LTSCALE
 40
2.0
  9
$OSMODE
 70
    37
  9
$ATTMODE
 70
     1
  9
$TEXTSIZE
 40
4.0
  9
$TRACEWID
 40
0.05
  9
$TEXTSTYLE
  7
STANDARD
  9
$CLAYER
  8
0
  9
$CELTYPE
  6
BYLAYER
  9
$CECOLOR
 62
   256
  9
$DIMSCALE
 40
0.5
  9
$DIMASZ
 40
3.0
  9
$DIMEXO
 40
2.0
  9
$DIMDLI
 40
0.38
  9
$DIMRND
 40
0.0
  9
$DIMDLE
 40
0.0
  9
$DIMEXE
 40
2.0
  9
$DIMTP
 40
0.0
  9
$DIMTM
 40
0.0
  9
$DIMTXT
 40
3.0
  9
$DIMCEN
 40
0.0
  9
$DIMTSZ
 40
0.0
  9
$DIMTOL
 70
     0
  9
$DIMLIM
 70
     0
  9
$DIMTIH
 70
     0
  9
$DIMTOH
 70
     0
  9
$DIMSE1
 70
     0
  9
$DIMSE2
 70
     0
  9
$DIMTAD
 70
     1
  9
$DIMZIN
 70
     0
  9
$DIMBLK
  1

  9
$DIMASO
 70
     0
  9
$DIMSHO
 70
     0
  9
$DIMPOST
  1

  9
$DIMAPOST
  1

  9
$DIMALT
 70
     0
  9
$DIMALTD
 70
     2
  9
$DIMALTF
 40
25.399999999999999
  9
$DIMLFAC
 40
1.0
  9
$DIMTOFL
 70
     0
  9
$DIMTVP
 40
1.6000000000000001
  9
$DIMTIX
 70
     1
  9
$DIMSOXD
 70
     0
  9
$DIMSAH
 70
     0
  9
$DIMBLK1
  1

  9
$DIMBLK2
  1

  9
$DIMSTYLE
  2
STANDARD
  9
$DIMCLRD
 70
     0
  9
$DIMCLRE
 70
     0
  9
$DIMCLRT
 70
     0
  9
$DIMTFAC
 40
1.0
  9
$DIMGAP
 40
0.09
  9
$LUNITS
 70
     2
  9
$LUPREC
 70
     4
  9
$SKETCHINC
 40
0.1
  9
$FILLETRAD
 40
1.0
  9
$AUNITS
 70
     0
  9
$AUPREC
 70
     0
  9
$MENU
  1
E:\r13\win\SUPPORT\ACAD
  9
$ELEVATION
 40
0.0
  9
$PELEVATION
 40
0.0
  9
$THICKNESS
 40
0.0
  9
$LIMCHECK
 70
     0
  9
$BLIPMODE
 70
     0
  9
$CHAMFERA
 40
0.0
  9
$CHAMFERB
 40
0.0
  9
$SKPOLY
 70
     0
  9
$TDCREATE
 40
2449840.6143865739
  9
$TDUPDATE
 40
2458249.5926346532
  9
$TDINDWG
 40
0.2676595718
  9
$TDUSRTIMER
 40
0.2676595718
  9
$USRTIMER
 70
     1
  9
$ANGBASE
 50
0.0
  9
$ANGDIR
 70
     0
  9
$PDMODE
 70
     0
  9
$PDSIZE
 40
0.0
  9
$PLINEWID
 40
0.0
  9
$COORDS
 70
     1
  9
$SPLFRAME
 70
     0
  9
$SPLINETYPE
 70
     6
  9
$SPLINESEGS
 70
     8
  9
$ATTDIA
 70
     0
  9
$ATTREQ
 70
     1
  9
$HANDLING
 70
     1
  9
$HANDSEED
  5
197E
  9
$SURFTAB1
 70
     6
  9
$SURFTAB2
 70
     6
  9
$SURFTYPE
 70
     6
  9
$SURFU
 70
     6
  9
$SURFV
 70
     6
  9
$UCSNAME
  2

  9
$UCSORG
 10
0.0
 20
0.0
 30
0.0
  9
$UCSXDIR
 10
1.0
 20
0.0
 30
0.0
  9
$UCSYDIR
 10
0.0
 20
1.0
 30
0.0
  9
$PUCSNAME
  2

  9
$PUCSORG
 10
0.0
 20
0.0
 30
0.0
  9
$PUCSXDIR
 10
1.0
 20
0.0
 30
0.0
  9
$PUCSYDIR
 10
0.0
 20
1.0
 30
0.0
  9
$USERI1
 70
     0
  9
$USERI2
 70
     1
  9
$USERI3
 70
     1
  9
$USERI4
 70
     0
  9
$USERI5
 70
     0
  9
$USERR1
 40
0.0
  9
$USERR2
 40
0.0
  9
$USERR3
 40
0.0
  9
$USERR4
 40
0.0
  9
$USERR5
 40
0.0
  9
$WORLDVIEW
 70
     1
  9
$SHADEDGE
 70
     3
  9
$SHADEDIF
 70
    70
  9
$TILEMODE
 70
     1
  9
$MAXACTVP
 70
    16
  9
$PLIMCHECK
 70
     0
  9
$PEXTMIN
 10
1.0000000000000000E+020
 20
1.0000000000000000E+020
 30
1.0000000000000000E+020
  9
$PEXTMAX
 10
-1.0000000000000000E+020
 20
-1.0000000000000000E+020
 30
-1.0000000000000000E+020
  9
$PLIMMIN
 10
0.0
 20
0.0
  9
$PLIMMAX
 10
12.0
 20
9.0
  9
$UNITMODE
 70
     0
  9
$VISRETAIN
 70
     0
  9
$PLINEGEN
 70
     0
  9
$PSLTSCALE
 70
     0
  0
ENDSEC
  0
SECTION
  2
TABLES
  0
TABLE
  2
VPORT
 70
     1
  0
VPORT
  2
*ACTIVE
 70
     0
 10
0.0
 20
0.0
 11
1.0
 21
1.0
 12
24.719701466586621
 22
11.40786841953309
 13
0.0
 23
0.0
 14
5.0
 24
5.0
 15
5.0
 25
5.0
 16
0.0
 26
0.0
 36
1.0
 17
0.0
 27
0.0
 37
0.0
 40
26.13673700138796
 41
2.0984455958549222
 42
50.0
 43
0.0
 44
0.0
 50
0.0
 51
0.0
 71
     0
 72
   100
 73
     1
 74
     0
 75
     0
 76
     0
 77
     0
 78
     0
  0
ENDTAB
  0
TABLE
  2
LTYPE
 70
     5
  0
LTYPE
  2
CONTINUOUS
 70
     0
  3
Solid Line
 72
    65
 73
     0
 40
0.0
  0
LTYPE
  2
CENTER
 70
     0
  3
____ _ ____ _ ____ _ ____ _ ____ _ ____ _ ____
 72
    65
 73
     4
 40
2.0
 49
1.25
 49
-0.25
 49
0.25
 49
-0.25
  0
LTYPE
  2
HIDDEN
 70
     0
  3
_ _ _ _ _ _ _ _ _ _ _ _ _ _ _ _ _ _ _ _ _ _ _
 72
    65
 73
     2
 40
0.375
 49
0.25
 49
-0.125
  0
LTYPE
  2
PHANTOM2
 70
     0
  3
___ _ _ ___ _ _ ___ _ _ ___ _ _
 72
    65
 73
     6
 40
1.25
 49
0.625
 49
-0.125
 49
0.125
 49
-0.125
 49
0.125
 49
-0.125
  0
LTYPE
  2
PHANTOM
 70
     0
  3
Phantom ______  __  __  ______  __  __  ______
 72
    65
 73
     6
 40
2.5
 49
1.25
 49
-0.25
 49
0.25
 49
-0.25
 49
0.25
 49
-0.25
  0
ENDTAB
  0
TABLE
  2
LAYER
 70
     2
  0
LAYER
  2
0
 70
     0
 62
     7
  6
CONTINUOUS
  0
LAYER
  2
1
 70
     0
 62
     1
  6
CENTER
  0
ENDTAB
  0
TABLE
  2
STYLE
 70
     2
  0
STYLE
  2
STANDARD
 70
     0
 40
0.0
 41
1.0
 50
0.0
 71
     0
 42
4.0
  3
TXT
  4
BIGFONT
  0
STYLE
  2
STANDARD1
 70
     0
 40
0.0
 41
1.0
 50
0.0
 71
     0
 42
3.0
  3
txt
  4

  0
ENDTAB
  0
TABLE
  2
VIEW
 70
     1
  0
VIEW
  2
ALL
 70
     0
 40
179.66152299999999
 10
141.903918
 20
89.830760999999995
 41
0.0
 11
0.0
 21
0.0
 31
1.0
 12
0.0
 22
0.0
 32
0.0
 42
0.0
 43
0.0
 44
0.0
 50
0.0
 71
     0
  0
ENDTAB
  0
TABLE
  2
UCS
 70
     0
  0
ENDTAB
  0
TABLE
  2
APPID
 70
     5
  0
APPID
  2
ACAD
 70
     0
  0
APPID
  2
DCO15
 70
     0
  0
APPID
  2
ACAD_MLEADERVER
 70
     0
  0
APPID
  2
ACAD_EXEMPT_FROM_CAD_STANDARDS
 70
     0
  0
APPID
  2
ACAD_NAV_VCDISPLAY
 70
     0
  0
ENDTAB
  0
TABLE
  2
DIMSTYLE
 70
     2
  0
DIMSTYLE
  2
STANDARD
 70
     0
  3

  4

  5

  6

  7

 40
1.0
 41
0.18
 42
0.0625
 43
0.38
 44
0.18
 45
0.0
 46
0.0
 47
0.0
 48
0.0
140
0.18
141
0.09
142
0.0
143
25.399999999999999
144
1.0
145
0.0
146
1.0
147
0.09
 71
     0
 72
     0
 73
     1
 74
     1
 75
     0
 76
     0
 77
     0
 78
     0
170
     0
171
     2
172
     0
173
     0
174
     0
175
     0
176
     0
177
     0
178
     0
  0
DIMSTYLE
  2
ISO-25
 70
     0
  3

  4

  5

  6

  7

 40
1.0
 41
2.5
 42
0.625
 43
3.75
 44
1.25
 45
0.0
 46
0.0
 47
0.0
 48
0.0
140
2.5
141
2.5
142
0.0
143
0.0393700787
144
1.0
145
0.0
146
1.0
147
0.625
 71
     0
 72
     0
 73
     0
 74
     0
 75
     0
 76
     0
 77
     1
 78
     8
170
     0
171
     3
172
     1
173
     0
174
     0
175
     0
176
     0
177
     0
178
     0
  0
ENDTAB
  0
ENDSEC
  0
SECTION
  2
BLOCKS
  0
BLOCK
  8
0
  2
$MODEL_SPACE
 70
     0
 10
0.0
 20
0.0
 30
0.0
  3
$MODEL_SPACE
  1

  0
ENDBLK
  5
1BD
  8
0
  0
BLOCK
 67
     1
  8
0
  2
$PAPER_SPACE
 70
     0
 10
0.0
 20
0.0
 30
0.0
  3
$PAPER_SPACE
  1

  0
ENDBLK
  5
1BB
 67
     1
  8
0
  0
ENDSEC
  0
SECTION
  2
ENTITIES
  0
ATTDEF
  5
1296
  8
0
 10
314.9088241206793
 20
164.23348131398001
 30
0.0
 40
1.0
  1
KIPP
  3

  2
Company
 70
     9
  0
ATTDEF
  5
1297
  8
0
 10
314.9088241206793
 20
164.23348131398001
 30
0.0
 40
1.0
  1
03072-204
  3

  2
NB
 70
     9
  0
ATTDEF
  5
1298
  8
0
 10
314.9088241206793
 20
164.23348131398001
 30
0.0
 40
1.0
  1
03072
  3

  2
NN
 70
     9
  0
ATTDEF
  5
1299
  8
0
 10
314.9088241206793
 20
164.23348131398001
 30
0.0
 40
1.0
  1
Federnde Druckst\U+00FCcke glatte Ausf\U+00FChrung, ohne Bund, Nirosta
  3

  2
NT
 70
     9
  0
ATTDEF
  5
129A
  8
0
 10
314.9088241206793
 20
164.23348131398001
 30
0.0
 40
1.0
  1
$BEST.
  3

  2
NBSYN
 70
     9
  0
ATTDEF
  5
129B
  8
0
 10
314.9088241206793
 20
164.23348131398001
 30
0.0
 40
1.0
  1
03072-204
  3

  2
LINA
 70
     9
  0
ATTDEF
  5
12A6
  8
0
 10
332.11819643339152
 20
146.54357743367109
 30
0.0
 40
1.0
  1
KIPP
  3

  2
Company
 70
     9
  0
ATTDEF
  5
12A7
  8
0
 10
332.11819643339152
 20
146.54357743367109
 30
0.0
 40
1.0
  1
03072-204
  3

  2
NB
 70
     9
  0
ATTDEF
  5
12A8
  8
0
 10
332.11819643339152
 20
146.54357743367109
 30
0.0
 40
1.0
  1
03072
  3

  2
NN
 70
     9
  0
ATTDEF
  5
12A9
  8
0
 10
332.11819643339152
 20
146.54357743367109
 30
0.0
 40
1.0
  1
Federnde Druckst\U+00FCcke glatte Ausf\U+00FChrung, ohne Bund, Nirosta
  3

  2
NT
 70
     9
  0
ATTDEF
  5
12AA
  8
0
 10
332.11819643339152
 20
146.54357743367109
 30
0.0
 40
1.0
  1
$BEST.
  3

  2
NBSYN
 70
     9
  0
ATTDEF
  5
12AB
  8
0
 10
332.11819643339152
 20
146.54357743367109
 30
0.0
 40
1.0
  1
03072-204
  3

  2
LINA
 70
     9
  0
ATTDEF
  5
12B1
  8
0
 10
315.4005203288126
 20
149.98328130031589
 30
0.0
 40
1.0
  1
KIPP
  3

  2
Company
 70
     9
  0
ATTDEF
  5
12B2
  8
0
 10
315.4005203288126
 20
149.98328130031589
 30
0.0
 40
1.0
  1
03072-204
  3

  2
NB
 70
     9
  0
ATTDEF
  5
12B3
  8
0
 10
315.4005203288126
 20
149.98328130031589
 30
0.0
 40
1.0
  1
03072
  3

  2
NN
 70
     9
  0
ATTDEF
  5
12B4
  8
0
 10
315.4005203288126
 20
149.98328130031589
 30
0.0
 40
1.0
  1
Federnde Druckst\U+00FCcke glatte Ausf\U+00FChrung, ohne Bund, Nirosta
  3

  2
NT
 70
     9
  0
ATTDEF
  5
12B5
  8
0
 10
315.4005203288126
 20
149.98328130031589
 30
0.0
 40
1.0
  1
$BEST.
  3

  2
NBSYN
 70
     9
  0
ATTDEF
  5
12B6
  8
0
 10
315.4005203288126
 20
149.98328130031589
 30
0.0
 40
1.0
  1
03072-204
  3

  2
LINA
 70
     9
  0
ATTDEF
  5
12BD
  8
0
 10
48.833196789946498
 20
56.78642736927668
 30
0.0
 40
1.0
  1
KIPP
  3

  2
Company
 70
     9
  0
ATTDEF
  5
12BE
  8
0
 10
48.833196789946498
 20
56.78642736927668
 30
0.0
 40
1.0
  1
03072-205
  3

  2
NB
 70
     9
  0
ATTDEF
  5
12BF
  8
0
 10
48.833196789946498
 20
56.78642736927668
 30
0.0
 40
1.0
  1
03072
  3

  2
NN
 70
     9
  0
ATTDEF
  5
12C0
  8
0
 10
48.833196789946498
 20
56.78642736927668
 30
0.0
 40
1.0
  1
Federnde Druckst\U+00FCcke glatte Ausf\U+00FChrung, ohne Bund, Nirosta
  3

  2
NT
 70
     9
  0
ATTDEF
  5
12C1
  8
0
 10
48.833196789946498
 20
56.78642736927668
 30
0.0
 40
1.0
  1
$BEST.
  3

  2
NBSYN
 70
     9
  0
ATTDEF
  5
12C2
  8
0
 10
48.833196789946498
 20
56.78642736927668
 30
0.0
 40
1.0
  1
03072-205
  3

  2
LINA
 70
     9
  0
ATTDEF
  5
12CE
  8
0
 10
71.002868582710335
 20
57.185628942003071
 30
0.0
 40
1.0
  1
KIPP
  3

  2
Company
 70
     9
  0
ATTDEF
  5
12CF
  8
0
 10
71.002868582710335
 20
57.185628942003071
 30
0.0
 40
1.0
  1
03072-205
  3

  2
NB
 70
     9
  0
ATTDEF
  5
12D0
  8
0
 10
71.002868582710335
 20
57.185628942003071
 30
0.0
 40
1.0
  1
03072
  3

  2
NN
 70
     9
  0
ATTDEF
  5
12D1
  8
0
 10
71.002868582710335
 20
57.185628942003071
 30
0.0
 40
1.0
  1
Federnde Druckst\U+00FCcke glatte Ausf\U+00FChrung, ohne Bund, Nirosta
  3

  2
NT
 70
     9
  0
ATTDEF
  5
12D2
  8
0
 10
71.002868582710335
 20
57.185628942003071
 30
0.0
 40
1.0
  1
$BEST.
  3

  2
NBSYN
 70
     9
  0
ATTDEF
  5
12D3
  8
0
 10
71.002868582710335
 20
57.185628942003071
 30
0.0
 40
1.0
  1
03072-205
  3

  2
LINA
 70
     9
  0
ATTDEF
  5
12D7
  8
0
 10
49.831830181389932
 20
41.816367220765073
 30
0.0
 40
1.0
  1
KIPP
  3

  2
Company
 70
     9
  0
ATTDEF
  5
12D8
  8
0
 10
49.831830181389932
 20
41.816367220765073
 30
0.0
 40
1.0
  1
03072-206
  3

  2
NB
 70
     9
  0
ATTDEF
  5
12D9
  8
0
 10
49.831830181389932
 20
41.816367220765073
 30
0.0
 40
1.0
  1
03072
  3

  2
NN
 70
     9
  0
ATTDEF
  5
12DA
  8
0
 10
49.831830181389932
 20
41.816367220765073
 30
0.0
 40
1.0
  1
Federnde Druckst\U+00FCcke glatte Ausf\U+00FChrung, ohne Bund, Nirosta
  3

  2
NT
 70
     9
  0
ATTDEF
  5
12DB
  8
0
 10
49.831830181389932
 20
41.816367220765073
 30
0.0
 40
1.0
  1
$BEST.
  3

  2
NBSYN
 70
     9
  0
ATTDEF
  5
12DC
  8
0
 10
49.831830181389932
 20
41.816367220765073
 30
0.0
 40
1.0
  1
03072-206
  3

  2
LINA
 70
     9
  0
ATTDEF
  5
12E7
  8
0
 10
69.804508284658255
 20
41.616766434401882
 30
0.0
 40
1.0
  1
KIPP
  3

  2
Company
 70
     9
  0
ATTDEF
  5
12E8
  8
0
 10
69.804508284658255
 20
41.616766434401882
 30
0.0
 40
1.0
  1
03072-206
  3

  2
NB
 70
     9
  0
ATTDEF
  5
12E9
  8
0
 10
69.804508284658255
 20
41.616766434401882
 30
0.0
 40
1.0
  1
03072
  3

  2
NN
 70
     9
  0
ATTDEF
  5
12EA
  8
0
 10
69.804508284658255
 20
41.616766434401882
 30
0.0
 40
1.0
  1
Federnde Druckst\U+00FCcke glatte Ausf\U+00FChrung, ohne Bund, Nirosta
  3

  2
NT
 70
     9
  0
ATTDEF
  5
12EB
  8
0
 10
69.804508284658255
 20
41.616766434401882
 30
0.0
 40
1.0
  1
$BEST.
  3

  2
NBSYN
 70
     9
  0
ATTDEF
  5
12EC
  8
0
 10
69.804508284658255
 20
41.616766434401882
 30
0.0
 40
1.0
  1
03072-206
  3

  2
LINA
 70
     9
  0
ATTDEF
  5
12F0
  8
0
 10
49.232650032363892
 20
25.24950078134799
 30
0.0
 40
1.0
  1
KIPP
  3

  2
Company
 70
     9
  0
ATTDEF
  5
12F1
  8
0
 10
49.232650032363892
 20
25.24950078134799
 30
0.0
 40
1.0
  1
03072-208
  3

  2
NB
 70
     9
  0
ATTDEF
  5
12F2
  8
0
 10
49.232650032363892
 20
25.24950078134799
 30
0.0
 40
1.0
  1
03072
  3

  2
NN
 70
     9
  0
ATTDEF
  5
12F3
  8
0
 10
49.232650032363892
 20
25.24950078134799
 30
0.0
 40
1.0
  1
Federnde Druckst\U+00FCcke glatte Ausf\U+00FChrung, ohne Bund, Nirosta
  3

  2
NT
 70
     9
  0
ATTDEF
  5
12F4
  8
0
 10
49.232650032363892
 20
25.24950078134799
 30
0.0
 40
1.0
  1
$BEST.
  3

  2
NBSYN
 70
     9
  0
ATTDEF
  5
12F5
  8
0
 10
49.232650032363892
 20
25.24950078134799
 30
0.0
 40
1.0
  1
03072-208
  3

  2
LINA
 70
     9
  0
ATTDEF
  5
1300
  8
0
 10
74.398224282657907
 20
27.045908249040728
 30
0.0
 40
1.0
  1
KIPP
  3

  2
Company
 70
     9
  0
ATTDEF
  5
1301
  8
0
 10
74.398224282657907
 20
27.045908249040728
 30
0.0
 40
1.0
  1
03072-208
  3

  2
NB
 70
     9
  0
ATTDEF
  5
1302
  8
0
 10
74.398224282657907
 20
27.045908249040728
 30
0.0
 40
1.0
  1
03072
  3

  2
NN
 70
     9
  0
ATTDEF
  5
1303
  8
0
 10
74.398224282657907
 20
27.045908249040728
 30
0.0
 40
1.0
  1
Federnde Druckst\U+00FCcke glatte Ausf\U+00FChrung, ohne Bund, Nirosta
  3

  2
NT
 70
     9
  0
ATTDEF
  5
1304
  8
0
 10
74.398224282657907
 20
27.045908249040728
 30
0.0
 40
1.0
  1
$BEST.
  3

  2
NBSYN
 70
     9
  0
ATTDEF
  5
1305
  8
0
 10
74.398224282657907
 20
27.045908249040728
 30
0.0
 40
1.0
  1
03072-208
  3

  2
LINA
 70
     9
  0
ATTDEF
  5
1309
  8
0
 10
94.171174908517557
 20
54.990019901583871
 30
0.0
 40
1.0
  1
KIPP
  3

  2
Company
 70
     9
  0
ATTDEF
  5
130A
  8
0
 10
94.171174908517557
 20
54.990019901583871
 30
0.0
 40
1.0
  1
03072-210
  3

  2
NB
 70
     9
  0
ATTDEF
  5
130B
  8
0
 10
94.171174908517557
 20
54.990019901583871
 30
0.0
 40
1.0
  1
03072
  3

  2
NN
 70
     9
  0
ATTDEF
  5
130C
  8
0
 10
94.171174908517557
 20
54.990019901583871
 30
0.0
 40
1.0
  1
Federnde Druckst\U+00FCcke glatte Ausf\U+00FChrung, ohne Bund, Nirosta
  3

  2
NT
 70
     9
  0
ATTDEF
  5
130D
  8
0
 10
94.171174908517557
 20
54.990019901583871
 30
0.0
 40
1.0
  1
$BEST.
  3

  2
NBSYN
 70
     9
  0
ATTDEF
  5
130E
  8
0
 10
94.171174908517557
 20
54.990019901583871
 30
0.0
 40
1.0
  1
03072-210
  3

  2
LINA
 70
     9
  0
ATTDEF
  5
1319
  8
0
 10
128.9236343972284
 20
54.39121754249431
 30
0.0
 40
1.0
  1
KIPP
  3

  2
Company
 70
     9
  0
ATTDEF
  5
131A
  8
0
 10
128.9236343972284
 20
54.39121754249431
 30
0.0
 40
1.0
  1
03072-210
  3

  2
NB
 70
     9
  0
ATTDEF
  5
131B
  8
0
 10
128.9236343972284
 20
54.39121754249431
 30
0.0
 40
1.0
  1
03072
  3

  2
NN
 70
     9
  0
ATTDEF
  5
131C
  8
0
 10
128.9236343972284
 20
54.39121754249431
 30
0.0
 40
1.0
  1
Federnde Druckst\U+00FCcke glatte Ausf\U+00FChrung, ohne Bund, Nirosta
  3

  2
NT
 70
     9
  0
ATTDEF
  5
131D
  8
0
 10
128.9236343972284
 20
54.39121754249431
 30
0.0
 40
1.0
  1
$BEST.
  3

  2
NBSYN
 70
     9
  0
ATTDEF
  5
131E
  8
0
 10
128.9236343972284
 20
54.39121754249431
 30
0.0
 40
1.0
  1
03072-210
  3

  2
LINA
 70
     9
  0
ATTDEF
  5
1322
  8
0
 10
94.770355057543611
 20
34.031936162176521
 30
0.0
 40
1.0
  1
KIPP
  3

  2
Company
 70
     9
  0
ATTDEF
  5
1323
  8
0
 10
94.770355057543611
 20
34.031936162176521
 30
0.0
 40
1.0
  1
03072-212
  3

  2
NB
 70
     9
  0
ATTDEF
  5
1324
  8
0
 10
94.770355057543611
 20
34.031936162176521
 30
0.0
 40
1.0
  1
03072
  3

  2
NN
 70
     9
  0
ATTDEF
  5
1325
  8
0
 10
94.770355057543611
 20
34.031936162176521
 30
0.0
 40
1.0
  1
Federnde Druckst\U+00FCcke glatte Ausf\U+00FChrung, ohne Bund, Nirosta
  3

  2
NT
 70
     9
  0
ATTDEF
  5
1326
  8
0
 10
94.770355057543611
 20
34.031936162176521
 30
0.0
 40
1.0
  1
$BEST.
  3

  2
NBSYN
 70
     9
  0
ATTDEF
  5
1327
  8
0
 10
94.770355057543611
 20
34.031936162176521
 30
0.0
 40
1.0
  1
03072-212
  3

  2
LINA
 70
     9
  0
ATTDEF
  5
1332
  8
0
 10
132.91816967540211
 20
34.231536948539713
 30
0.0
 40
1.0
  1
KIPP
  3

  2
Company
 70
     9
  0
ATTDEF
  5
1333
  8
0
 10
132.91816967540211
 20
34.231536948539713
 30
0.0
 40
1.0
  1
03072-212
  3

  2
NB
 70
     9
  0
ATTDEF
  5
1334
  8
0
 10
132.91816967540211
 20
34.231536948539713
 30
0.0
 40
1.0
  1
03072
  3

  2
NN
 70
     9
  0
ATTDEF
  5
1335
  8
0
 10
132.91816967540211
 20
34.231536948539713
 30
0.0
 40
1.0
  1
Federnde Druckst\U+00FCcke glatte Ausf\U+00FChrung, ohne Bund, Nirosta
  3

  2
NT
 70
     9
  0
ATTDEF
  5
1336
  8
0
 10
132.91816967540211
 20
34.231536948539713
 30
0.0
 40
1.0
  1
$BEST.
  3

  2
NBSYN
 70
     9
  0
ATTDEF
  5
1337
  8
0
 10
132.91816967540211
 20
34.231536948539713
 30
0.0
 40
1.0
  1
03072-212
  3

  2
LINA
 70
     9
  0
ATTDEF
  5
136F
  8
0
 10
314.9088241206793
 20
164.23348131398001
 30
0.0
 40
1.0
  1
KIPP
  3

  2
Company
 70
     9
  0
ATTDEF
  5
1370
  8
0
 10
314.9088241206793
 20
164.23348131398001
 30
0.0
 40
1.0
  1
03072-204
  3

  2
NB
 70
     9
  0
ATTDEF
  5
1371
  8
0
 10
314.9088241206793
 20
164.23348131398001
 30
0.0
 40
1.0
  1
03072
  3

  2
NN
 70
     9
  0
ATTDEF
  5
1372
  8
0
 10
314.9088241206793
 20
164.23348131398001
 30
0.0
 40
1.0
  1
Federnde Druckst\U+00FCcke glatte Ausf\U+00FChrung, ohne Bund, Nirosta
  3

  2
NT
 70
     9
  0
ATTDEF
  5
1373
  8
0
 10
314.9088241206793
 20
164.23348131398001
 30
0.0
 40
1.0
  1
$BEST.
  3

  2
NBSYN
 70
     9
  0
ATTDEF
  5
1374
  8
0
 10
314.9088241206793
 20
164.23348131398001
 30
0.0
 40
1.0
  1
03072-204
  3

  2
LINA
 70
     9
  0
ATTDEF
  5
137F
  8
0
 10
332.11819643339152
 20
146.54357743367109
 30
0.0
 40
1.0
  1
KIPP
  3

  2
Company
 70
     9
  0
ATTDEF
  5
1380
  8
0
 10
332.11819643339152
 20
146.54357743367109
 30
0.0
 40
1.0
  1
03072-204
  3

  2
NB
 70
     9
  0
ATTDEF
  5
1381
  8
0
 10
332.11819643339152
 20
146.54357743367109
 30
0.0
 40
1.0
  1
03072
  3

  2
NN
 70
     9
  0
ATTDEF
  5
1382
  8
0
 10
332.11819643339152
 20
146.54357743367109
 30
0.0
 40
1.0
  1
Federnde Druckst\U+00FCcke glatte Ausf\U+00FChrung, ohne Bund, Nirosta
  3

  2
NT
 70
     9
  0
ATTDEF
  5
1383
  8
0
 10
332.11819643339152
 20
146.54357743367109
 30
0.0
 40
1.0
  1
$BEST.
  3

  2
NBSYN
 70
     9
  0
ATTDEF
  5
1384
  8
0
 10
332.11819643339152
 20
146.54357743367109
 30
0.0
 40
1.0
  1
03072-204
  3

  2
LINA
 70
     9
  0
ATTDEF
  5
138A
  8
0
 10
315.4005203288126
 20
149.98328130031589
 30
0.0
 40
1.0
  1
KIPP
  3

  2
Company
 70
     9
  0
ATTDEF
  5
138B
  8
0
 10
315.4005203288126
 20
149.98328130031589
 30
0.0
 40
1.0
  1
03072-204
  3

  2
NB
 70
     9
  0
ATTDEF
  5
138C
  8
0
 10
315.4005203288126
 20
149.98328130031589
 30
0.0
 40
1.0
  1
03072
  3

  2
NN
 70
     9
  0
ATTDEF
  5
138D
  8
0
 10
315.4005203288126
 20
149.98328130031589
 30
0.0
 40
1.0
  1
Federnde Druckst\U+00FCcke glatte Ausf\U+00FChrung, ohne Bund, Nirosta
  3

  2
NT
 70
     9
  0
ATTDEF
  5
138E
  8
0
 10
315.4005203288126
 20
149.98328130031589
 30
0.0
 40
1.0
  1
$BEST.
  3

  2
NBSYN
 70
     9
  0
ATTDEF
  5
138F
  8
0
 10
315.4005203288126
 20
149.98328130031589
 30
0.0
 40
1.0
  1
03072-204
  3

  2
LINA
 70
     9
  0
ATTDEF
  5
1396
  8
0
 10
48.833196789946498
 20
56.78642736927668
 30
0.0
 40
1.0
  1
KIPP
  3

  2
Company
 70
     9
  0
ATTDEF
  5
1397
  8
0
 10
48.833196789946498
 20
56.78642736927668
 30
0.0
 40
1.0
  1
03072-205
  3

  2
NB
 70
     9
  0
ATTDEF
  5
1398
  8
0
 10
48.833196789946498
 20
56.78642736927668
 30
0.0
 40
1.0
  1
03072
  3

  2
NN
 70
     9
  0
ATTDEF
  5
1399
  8
0
 10
48.833196789946498
 20
56.78642736927668
 30
0.0
 40
1.0
  1
Federnde Druckst\U+00FCcke glatte Ausf\U+00FChrung, ohne Bund, Nirosta
  3

  2
NT
 70
     9
  0
ATTDEF
  5
139A
  8
0
 10
48.833196789946498
 20
56.78642736927668
 30
0.0
 40
1.0
  1
$BEST.
  3

  2
NBSYN
 70
     9
  0
ATTDEF
  5
139B
  8
0
 10
48.833196789946498
 20
56.78642736927668
 30
0.0
 40
1.0
  1
03072-205
  3

  2
LINA
 70
     9
  0
ATTDEF
  5
13A7
  8
0
 10
71.002868582710335
 20
57.185628942003071
 30
0.0
 40
1.0
  1
KIPP
  3

  2
Company
 70
     9
  0
ATTDEF
  5
13A8
  8
0
 10
71.002868582710335
 20
57.185628942003071
 30
0.0
 40
1.0
  1
03072-205
  3

  2
NB
 70
     9
  0
ATTDEF
  5
13A9
  8
0
 10
71.002868582710335
 20
57.185628942003071
 30
0.0
 40
1.0
  1
03072
  3

  2
NN
 70
     9
  0
ATTDEF
  5
13AA
  8
0
 10
71.002868582710335
 20
57.185628942003071
 30
0.0
 40
1.0
  1
Federnde Druckst\U+00FCcke glatte Ausf\U+00FChrung, ohne Bund, Nirosta
  3

  2
NT
 70
     9
  0
ATTDEF
  5
13AB
  8
0
 10
71.002868582710335
 20
57.185628942003071
 30
0.0
 40
1.0
  1
$BEST.
  3

  2
NBSYN
 70
     9
  0
ATTDEF
  5
13AC
  8
0
 10
71.002868582710335
 20
57.185628942003071
 30
0.0
 40
1.0
  1
03072-205
  3

  2
LINA
 70
     9
  0
ATTDEF
  5
13B0
  8
0
 10
49.831830181389932
 20
41.816367220765073
 30
0.0
 40
1.0
  1
KIPP
  3

  2
Company
 70
     9
  0
ATTDEF
  5
13B1
  8
0
 10
49.831830181389932
 20
41.816367220765073
 30
0.0
 40
1.0
  1
03072-206
  3

  2
NB
 70
     9
  0
ATTDEF
  5
13B2
  8
0
 10
49.831830181389932
 20
41.816367220765073
 30
0.0
 40
1.0
  1
03072
  3

  2
NN
 70
     9
  0
ATTDEF
  5
13B3
  8
0
 10
49.831830181389932
 20
41.816367220765073
 30
0.0
 40
1.0
  1
Federnde Druckst\U+00FCcke glatte Ausf\U+00FChrung, ohne Bund, Nirosta
  3

  2
NT
 70
     9
  0
ATTDEF
  5
13B4
  8
0
 10
49.831830181389932
 20
41.816367220765073
 30
0.0
 40
1.0
  1
$BEST.
  3

  2
NBSYN
 70
     9
  0
ATTDEF
  5
13B5
  8
0
 10
49.831830181389932
 20
41.816367220765073
 30
0.0
 40
1.0
  1
03072-206
  3

  2
LINA
 70
     9
  0
ATTDEF
  5
13C0
  8
0
 10
69.804508284658255
 20
41.616766434401882
 30
0.0
 40
1.0
  1
KIPP
  3

  2
Company
 70
     9
  0
ATTDEF
  5
13C1
  8
0
 10
69.804508284658255
 20
41.616766434401882
 30
0.0
 40
1.0
  1
03072-206
  3

  2
NB
 70
     9
  0
ATTDEF
  5
13C2
  8
0
 10
69.804508284658255
 20
41.616766434401882
 30
0.0
 40
1.0
  1
03072
  3

  2
NN
 70
     9
  0
ATTDEF
  5
13C3
  8
0
 10
69.804508284658255
 20
41.616766434401882
 30
0.0
 40
1.0
  1
Federnde Druckst\U+00FCcke glatte Ausf\U+00FChrung, ohne Bund, Nirosta
  3

  2
NT
 70
     9
  0
ATTDEF
  5
13C4
  8
0
 10
69.804508284658255
 20
41.616766434401882
 30
0.0
 40
1.0
  1
$BEST.
  3

  2
NBSYN
 70
     9
  0
ATTDEF
  5
13C5
  8
0
 10
69.804508284658255
 20
41.616766434401882
 30
0.0
 40
1.0
  1
03072-206
  3

  2
LINA
 70
     9
  0
ATTDEF
  5
13C9
  8
0
 10
49.232650032363892
 20
25.24950078134799
 30
0.0
 40
1.0
  1
KIPP
  3

  2
Company
 70
     9
  0
ATTDEF
  5
13CA
  8
0
 10
49.232650032363892
 20
25.24950078134799
 30
0.0
 40
1.0
  1
03072-208
  3

  2
NB
 70
     9
  0
ATTDEF
  5
13CB
  8
0
 10
49.232650032363892
 20
25.24950078134799
 30
0.0
 40
1.0
  1
03072
  3

  2
NN
 70
     9
  0
ATTDEF
  5
13CC
  8
0
 10
49.232650032363892
 20
25.24950078134799
 30
0.0
 40
1.0
  1
Federnde Druckst\U+00FCcke glatte Ausf\U+00FChrung, ohne Bund, Nirosta
  3

  2
NT
 70
     9
  0
ATTDEF
  5
13CD
  8
0
 10
49.232650032363892
 20
25.24950078134799
 30
0.0
 40
1.0
  1
$BEST.
  3

  2
NBSYN
 70
     9
  0
ATTDEF
  5
13CE
  8
0
 10
49.232650032363892
 20
25.24950078134799
 30
0.0
 40
1.0
  1
03072-208
  3

  2
LINA
 70
     9
  0
ATTDEF
  5
13D9
  8
0
 10
74.398224282657907
 20
27.045908249040728
 30
0.0
 40
1.0
  1
KIPP
  3

  2
Company
 70
     9
  0
ATTDEF
  5
13DA
  8
0
 10
74.398224282657907
 20
27.045908249040728
 30
0.0
 40
1.0
  1
03072-208
  3

  2
NB
 70
     9
  0
ATTDEF
  5
13DB
  8
0
 10
74.398224282657907
 20
27.045908249040728
 30
0.0
 40
1.0
  1
03072
  3

  2
NN
 70
     9
  0
ATTDEF
  5
13DC
  8
0
 10
74.398224282657907
 20
27.045908249040728
 30
0.0
 40
1.0
  1
Federnde Druckst\U+00FCcke glatte Ausf\U+00FChrung, ohne Bund, Nirosta
  3

  2
NT
 70
     9
  0
ATTDEF
  5
13DD
  8
0
 10
74.398224282657907
 20
27.045908249040728
 30
0.0
 40
1.0
  1
$BEST.
  3

  2
NBSYN
 70
     9
  0
ATTDEF
  5
13DE
  8
0
 10
74.398224282657907
 20
27.045908249040728
 30
0.0
 40
1.0
  1
03072-208
  3

  2
LINA
 70
     9
  0
ATTDEF
  5
13E2
  8
0
 10
94.171174908517557
 20
54.990019901583871
 30
0.0
 40
1.0
  1
KIPP
  3

  2
Company
 70
     9
  0
ATTDEF
  5
13E3
  8
0
 10
94.171174908517557
 20
54.990019901583871
 30
0.0
 40
1.0
  1
03072-210
  3

  2
NB
 70
     9
  0
ATTDEF
  5
13E4
  8
0
 10
94.171174908517557
 20
54.990019901583871
 30
0.0
 40
1.0
  1
03072
  3

  2
NN
 70
     9
  0
ATTDEF
  5
13E5
  8
0
 10
94.171174908517557
 20
54.990019901583871
 30
0.0
 40
1.0
  1
Federnde Druckst\U+00FCcke glatte Ausf\U+00FChrung, ohne Bund, Nirosta
  3

  2
NT
 70
     9
  0
ATTDEF
  5
13E6
  8
0
 10
94.171174908517557
 20
54.990019901583871
 30
0.0
 40
1.0
  1
$BEST.
  3

  2
NBSYN
 70
     9
  0
ATTDEF
  5
13E7
  8
0
 10
94.171174908517557
 20
54.990019901583871
 30
0.0
 40
1.0
  1
03072-210
  3

  2
LINA
 70
     9
  0
ATTDEF
  5
13F2
  8
0
 10
128.9236343972284
 20
54.39121754249431
 30
0.0
 40
1.0
  1
KIPP
  3

  2
Company
 70
     9
  0
ATTDEF
  5
13F3
  8
0
 10
128.9236343972284
 20
54.39121754249431
 30
0.0
 40
1.0
  1
03072-210
  3

  2
NB
 70
     9
  0
ATTDEF
  5
13F4
  8
0
 10
128.9236343972284
 20
54.39121754249431
 30
0.0
 40
1.0
  1
03072
  3

  2
NN
 70
     9
  0
ATTDEF
  5
13F5
  8
0
 10
128.9236343972284
 20
54.39121754249431
 30
0.0
 40
1.0
  1
Federnde Druckst\U+00FCcke glatte Ausf\U+00FChrung, ohne Bund, Nirosta
  3

  2
NT
 70
     9
  0
ATTDEF
  5
13F6
  8
0
 10
128.9236343972284
 20
54.39121754249431
 30
0.0
 40
1.0
  1
$BEST.
  3

  2
NBSYN
 70
     9
  0
ATTDEF
  5
13F7
  8
0
 10
128.9236343972284
 20
54.39121754249431
 30
0.0
 40
1.0
  1
03072-210
  3

  2
LINA
 70
     9
  0
ATTDEF
  5
13FB
  8
0
 10
94.770355057543611
 20
34.031936162176521
 30
0.0
 40
1.0
  1
KIPP
  3

  2
Company
 70
     9
  0
ATTDEF
  5
13FC
  8
0
 10
94.770355057543611
 20
34.031936162176521
 30
0.0
 40
1.0
  1
03072-212
  3

  2
NB
 70
     9
  0
ATTDEF
  5
13FD
  8
0
 10
94.770355057543611
 20
34.031936162176521
 30
0.0
 40
1.0
  1
03072
  3

  2
NN
 70
     9
  0
ATTDEF
  5
13FE
  8
0
 10
94.770355057543611
 20
34.031936162176521
 30
0.0
 40
1.0
  1
Federnde Druckst\U+00FCcke glatte Ausf\U+00FChrung, ohne Bund, Nirosta
  3

  2
NT
 70
     9
  0
ATTDEF
  5
13FF
  8
0
 10
94.770355057543611
 20
34.031936162176521
 30
0.0
 40
1.0
  1
$BEST.
  3

  2
NBSYN
 70
     9
  0
ATTDEF
  5
1400
  8
0
 10
94.770355057543611
 20
34.031936162176521
 30
0.0
 40
1.0
  1
03072-212
  3

  2
LINA
 70
     9
  0
ATTDEF
  5
140B
  8
0
 10
132.91816967540211
 20
34.231536948539713
 30
0.0
 40
1.0
  1
KIPP
  3

  2
Company
 70
     9
  0
ATTDEF
  5
140C
  8
0
 10
132.91816967540211
 20
34.231536948539713
 30
0.0
 40
1.0
  1
03072-212
  3

  2
NB
 70
     9
  0
ATTDEF
  5
140D
  8
0
 10
132.91816967540211
 20
34.231536948539713
 30
0.0
 40
1.0
  1
03072
  3

  2
NN
 70
     9
  0
ATTDEF
  5
140E
  8
0
 10
132.91816967540211
 20
34.231536948539713
 30
0.0
 40
1.0
  1
Federnde Druckst\U+00FCcke glatte Ausf\U+00FChrung, ohne Bund, Nirosta
  3

  2
NT
 70
     9
  0
ATTDEF
  5
140F
  8
0
 10
132.91816967540211
 20
34.231536948539713
 30
0.0
 40
1.0
  1
$BEST.
  3

  2
NBSYN
 70
     9
  0
ATTDEF
  5
1410
  8
0
 10
132.91816967540211
 20
34.231536948539713
 30
0.0
 40
1.0
  1
03072-212
  3

  2
LINA
 70
     9
  0
TEXT
  5
14F6
  8
0
 62
     3
 10
0.0
 20
0.0
 30
0.0
 40
5.0
  1
SSPS5
  7
STANDARD1
  0
ARC
  5
1589
  8
0
 10
25.935999999999989
 20
22.370000000000001
 30
0.0
 40
0.4300000000000013
 50
36.86989764579986
 51
90.0
  0
ARC
  5
158A
  8
0
 10
25.935999999999989
 20
17.629999999999999
 30
0.0
 40
0.4300000000000069
 50
270.0
 51
323.13010235420018
  0
ARC
  5
158B
  8
0
 10
25.935999999999989
 20
22.29999999999999
 30
0.0
 40
0.5000000000000165
 50
90.0
 51
150.0
  0
ARC
  5
158C
  8
0
 10
25.935999999999989
 20
17.699999999999999
 30
0.0
 40
0.5000000000000237
 50
209.99999999999989
 51
270.0
  0
ARC
  5
158D
  8
0
 10
26.199999999999999
 20
22.568000000000001
 30
0.0
 40
0.1000000000000227
 50
0.0
 51
36.86989764579986
  0
ARC
  5
158E
  8
0
 10
26.199999999999999
 20
17.431999999999999
 30
0.0
 40
0.1000000000000227
 50
323.13010235420018
 51
0.0
  0
ARC
  5
158F
  8
0
 10
25.41638475780001
 20
22.600000000000009
 30
0.0
 40
0.0999999999999991
 50
270.0
 51
329.99999999999989
  0
ARC
  5
1590
  8
0
 10
25.41638475780001
 20
17.399999999999999
 30
0.0
 40
0.0999999999999943
 50
30.000000000000011
 51
90.0
  0
LINE
  5
1591
  8
0
 10
17.29999999999999
 20
22.5
 30
0.0
 11
15.53895932979999
 21
22.5
 31
0.0
  0
LINE
  5
1592
  8
0
 10
15.53895932979999
 20
17.5
 30
0.0
 11
17.29999999999999
 21
17.5
 31
0.0
  0
ARC
  5
1593
  8
0
 10
15.53895932979999
 20
18.399999999999999
 30
0.0
 40
0.9000000000000056
 50
217.99999999970029
 51
270.0
  0
ARC
  5
1594
  8
0
 10
15.53895932979999
 20
21.600000000000009
 30
0.0
 40
0.9000000000000056
 50
90.0
 51
142.00000000029951
  0
LINE
  5
1595
  8
0
 10
23.300000000099988
 20
22.5
 30
0.0
 11
22.79816328219998
 21
22.42499999999999
 31
0.0
  0
LINE
  5
1596
  8
0
 10
22.79816328219998
 20
17.574999999999999
 30
0.0
 11
23.300000000099988
 21
17.5
 31
0.0
  0
LINE
  5
1597
  8
0
 10
25.41638475780001
 20
22.5
 30
0.0
 11
23.300000000099988
 21
22.5
 31
0.0
  0
LINE
  5
1598
  8
0
 10
23.300000000099988
 20
17.5
 30
0.0
 11
25.41638475780001
 21
17.5
 31
0.0
  0
LINE
  5
1599
  8
0
 10
17.29999999999999
 20
17.5
 30
0.0
 11
17.801836717899999
 21
17.574999999999999
 31
0.0
  0
LINE
  5
159A
  8
0
 10
17.801836717899999
 20
22.42499999999999
 30
0.0
 11
17.29999999999999
 21
22.5
 31
0.0
  0
LINE
  5
159B
  8
0
 10
22.79816328219998
 20
22.42499999999999
 30
0.0
 11
17.801836717899999
 21
22.42499999999999
 31
0.0
  0
LINE
  5
159C
  8
0
 10
17.801836717899999
 20
17.574999999999999
 30
0.0
 11
22.79816328219998
 21
17.574999999999999
 31
0.0
  0
LINE
  5
159D
  8
0
 10
14.82974965159999
 20
22.1540953278
 30
0.0
 11
14.342397849299999
 21
21.530313466599999
 31
0.0
  0
LINE
  5
159E
  8
0
 10
14.342397849299999
 20
18.469686533499999
 30
0.0
 11
14.82974965159999
 21
17.845904672200021
 31
0.0
  0
ARC
  5
159F
  8
0
 10
14.5
 20
18.5928188285
 30
0.0
 40
0.2000000000000171
 50
180.0
 51
217.99999999970029
  0
ARC
  5
15A0
  8
0
 10
14.5
 20
21.40718117150001
 30
0.0
 40
0.2000000000000171
 50
142.00000000029951
 51
180.0
  0
LINE
  5
15A1
  8
0
 10
26.300000000000001
 20
22.568000000000001
 30
0.0
 11
26.300000000000001
 21
17.431999999999999
 31
0.0
  0
LINE
  5
15A2
  8
0
 10
17.29999999999999
 20
22.5
 30
0.0
 11
17.29999999999999
 21
17.5
 31
0.0
  0
LINE
  5
15A3
  8
0
 10
23.300000000099988
 20
22.5
 30
0.0
 11
23.300000000099988
 21
17.5
 31
0.0
  0
LINE
  5
15A4
  8
0
 10
22.79816328219998
 20
22.42499999999999
 30
0.0
 11
22.79816328219998
 21
17.574999999999999
 31
0.0
  0
LINE
  5
15A5
  8
0
 10
17.801836717899999
 20
22.42499999999999
 30
0.0
 11
17.801836717899999
 21
17.574999999999999
 31
0.0
  0
LINE
  5
15A7
  8
0
 10
14.29999999999999
 20
18.5928188285
 30
0.0
 11
14.29999999999999
 21
21.40718117150001
 31
0.0
  0
LINE
  5
15A8
  8
0
 10
25.935999999999989
 20
22.79999999999999
 30
0.0
 11
25.935999999999989
 21
17.199999999999999
 31
0.0
  0
LINE
  5
15AA
  8
0
 10
25.41638475780001
 20
17.5
 30
0.0
 11
25.41638475780001
 21
22.5
 31
0.0
  0
LINE
  5
15AB
  8
0
 10
15.53895932979999
 20
22.5
 30
0.0
 11
15.53895932979999
 21
17.5
 31
0.0
  0
CIRCLE
  5
15B2
  8
0
 10
40.300000000000011
 20
20.0
 30
0.0
 40
2.5679999999999841
  0
CIRCLE
  5
15B3
  8
0
 10
40.300000000000011
 20
20.0
 30
0.0
 40
2.8000000000000109
  0
CIRCLE
  5
15B5
  8
0
 10
4.3000000000000114
 20
20.0
 30
0.0
 40
1.4071811714917151
  0
CIRCLE
  5
15B6
  8
0
 10
4.3000000000000114
 20
20.0
 30
0.0
 40
1.2499999999999849
  0
CIRCLE
  5
15B8
  8
0
 10
4.3000000000000114
 20
20.0
 30
0.0
 40
2.4999999999999849
  0
CIRCLE
  5
15BA
  8
0
 10
4.3000000000000114
 20
20.0
 30
0.0
 40
2.8000000000000109
  0
LINE
  5
15BD
  8
0
 10
28.40000000000002
 20
18.099999999999991
 30
0.0
 11
28.40000000000002
 21
21.899999999999991
 31
0.0
  0
ARC
  5
15BE
  8
0
 10
28.40000000000002
 20
20.0
 30
0.0
 40
1.900000000000005
 50
270.0
 51
90.0
  0
LINE
  5
15BF
  8
0
 10
28.40000000000002
 20
21.899999999999991
 30
0.0
 11
26.300000000000001
 21
21.899999999999991
 31
0.0
  0
LINE
  5
15C0
  8
0
 10
28.40000000000002
 20
18.099999999999991
 30
0.0
 11
26.300000000000001
 21
18.099999999999991
 31
0.0
  0
CIRCLE
  5
1633
  8
0
 10
40.300000000000011
 20
20.0
 30
0.0
 40
1.8999999999999999
  0
LINE
  5
1640
  8
1
 10
0.0
 20
20.0
 30
0.0
 11
8.6000000000000227
 21
20.0
 31
0.0
  0
LINE
  5
1641
  8
1
 10
4.3000000000000114
 20
24.300000000000011
 30
0.0
 11
4.3000000000000114
 21
15.69999999999999
 31
0.0
  0
LINE
  5
1642
  8
1
 10
40.300000000000011
 20
24.300000000000011
 30
0.0
 11
40.300000000000011
 21
15.69999999999999
 31
0.0
  0
LINE
  5
1643
  8
1
 10
36.0
 20
20.0
 30
0.0
 11
44.600000000000023
 21
20.0
 31
0.0
  0
LINE
  5
1644
  8
1
 10
31.800000000000029
 20
20.0
 30
0.0
 11
12.800000000000001
 21
20.0
 31
0.0
  0
ENDSEC
  0
EOF
