  0
SECTION
  2
HEADER
  9
$ACADVER
  1
AC1009
  9
$INSBASE
 10
0.0
 20
0.0
 30
0.0
  9
$EXTMIN
 10
0.0
 20
-2.960436562073669
 30
0.0
  9
$EXTMAX
 10
456.5309734834942788
 20
338.0094705806782827
 30
0.0
  9
$LIMMIN
 10
0.0
 20
0.0
  9
$LIMMAX
 10
375.0
 20
270.0
  9
$ORTHOMODE
 70
     0
  9
$REGENMODE
 70
     1
  9
$FILLMODE
 70
     1
  9
$QTEXTMODE
 70
     0
  9
$MIRRTEXT
 70
     0
  9
$DRAGMODE
 70
     2
  9
$LTSCALE
 40
10.0
  9
$OSMODE
 70
    37
  9
$ATTMODE
 70
     1
  9
$TEXTSIZE
 40
0.2
  9
$TRACEWID
 40
0.05
  9
$TEXTSTYLE
  7
K90
  9
$CLAYER
  8
0
  9
$CELTYPE
  6
BYLAYER
  9
$CECOLOR
 62
   256
  9
$DIMSCALE
 40
1.0
  9
$DIMASZ
 40
3.0
  9
$DIMEXO
 40
2.0
  9
$DIMDLI
 40
0.38
  9
$DIMRND
 40
0.0
  9
$DIMDLE
 40
0.0
  9
$DIMEXE
 40
2.0
  9
$DIMTP
 40
0.0
  9
$DIMTM
 40
0.0
  9
$DIMTXT
 40
3.2000000000000002
  9
$DIMCEN
 40
0.0
  9
$DIMTSZ
 40
0.0
  9
$DIMTOL
 70
     0
  9
$DIMLIM
 70
     0
  9
$DIMTIH
 70
     0
  9
$DIMTOH
 70
     0
  9
$DIMSE1
 70
     0
  9
$DIMSE2
 70
     0
  9
$DIMTAD
 70
     1
  9
$DIMZIN
 70
     8
  9
$DIMBLK
  1

  9
$DIMASO
 70
     1
  9
$DIMSHO
 70
     0
  9
$DIMPOST
  1

  9
$DIMAPOST
  1

  9
$DIMALT
 70
     0
  9
$DIMALTD
 70
     2
  9
$DIMALTF
 40
25.3999999999999986
  9
$DIMLFAC
 40
1.0
  9
$DIMTOFL
 70
     1
  9
$DIMTVP
 40
1.6000000000000001
  9
$DIMTIX
 70
     0
  9
$DIMSOXD
 70
     0
  9
$DIMSAH
 70
     0
  9
$DIMBLK1
  1

  9
$DIMBLK2
  1

  9
$DIMSTYLE
  2
STANDARD
  9
$DIMCLRD
 70
     0
  9
$DIMCLRE
 70
     0
  9
$DIMCLRT
 70
     0
  9
$DIMTFAC
 40
1.0
  9
$DIMGAP
 40
0.09
  9
$LUNITS
 70
     2
  9
$LUPREC
 70
     1
  9
$SKETCHINC
 40
0.1
  9
$FILLETRAD
 40
2.0
  9
$AUNITS
 70
     0
  9
$AUPREC
 70
     0
  9
$MENU
  1
E:\r13\win\SUPPORT\ACAD
  9
$ELEVATION
 40
0.0
  9
$PELEVATION
 40
0.0
  9
$THICKNESS
 40
0.0
  9
$LIMCHECK
 70
     0
  9
$BLIPMODE
 70
     0
  9
$CHAMFERA
 40
0.0
  9
$CHAMFERB
 40
0.0
  9
$SKPOLY
 70
     0
  9
$TDCREATE
 40
2449840.6031828699633479
  9
$TDUPDATE
 40
2460726.5757986111566424
  9
$TDINDWG
 40
0.6086158565000001
  9
$TDUSRTIMER
 40
0.6086158565000001
  9
$USRTIMER
 70
     1
  9
$ANGBASE
 50
0.0
  9
$ANGDIR
 70
     0
  9
$PDMODE
 70
     0
  9
$PDSIZE
 40
0.0
  9
$PLINEWID
 40
0.0
  9
$COORDS
 70
     1
  9
$SPLFRAME
 70
     0
  9
$SPLINETYPE
 70
     6
  9
$SPLINESEGS
 70
     8
  9
$ATTDIA
 70
     1
  9
$ATTREQ
 70
     1
  9
$HANDLING
 70
     1
  9
$HANDSEED
  5
6FA9
  9
$SURFTAB1
 70
     6
  9
$SURFTAB2
 70
     6
  9
$SURFTYPE
 70
     6
  9
$SURFU
 70
     6
  9
$SURFV
 70
     6
  9
$UCSNAME
  2

  9
$UCSORG
 10
0.0
 20
0.0
 30
0.0
  9
$UCSXDIR
 10
1.0
 20
0.0
 30
0.0
  9
$UCSYDIR
 10
0.0
 20
1.0
 30
0.0
  9
$PUCSNAME
  2

  9
$PUCSORG
 10
0.0
 20
0.0
 30
0.0
  9
$PUCSXDIR
 10
1.0
 20
0.0
 30
0.0
  9
$PUCSYDIR
 10
0.0
 20
1.0
 30
0.0
  9
$USERI1
 70
     0
  9
$USERI2
 70
     1
  9
$USERI3
 70
     1
  9
$USERI4
 70
     0
  9
$USERI5
 70
     0
  9
$USERR1
 40
0.0
  9
$USERR2
 40
0.0
  9
$USERR3
 40
0.0
  9
$USERR4
 40
0.0
  9
$USERR5
 40
0.0
  9
$WORLDVIEW
 70
     1
  9
$SHADEDGE
 70
     3
  9
$SHADEDIF
 70
    70
  9
$TILEMODE
 70
     1
  9
$MAXACTVP
 70
    16
  9
$PLIMCHECK
 70
     0
  9
$PEXTMIN
 10
1.0000000000000000E+20
 20
1.0000000000000000E+20
 30
1.0000000000000000E+20
  9
$PEXTMAX
 10
-1.0000000000000000E+20
 20
-1.0000000000000000E+20
 30
-1.0000000000000000E+20
  9
$PLIMMIN
 10
0.0
 20
0.0
  9
$PLIMMAX
 10
12.0
 20
9.0
  9
$UNITMODE
 70
     0
  9
$VISRETAIN
 70
     0
  9
$PLINEGEN
 70
     0
  9
$PSLTSCALE
 70
     0
  0
ENDSEC
  0
SECTION
  2
TABLES
  0
TABLE
  2
VPORT
 70
     1
  0
VPORT
  2
*ACTIVE
 70
     0
 10
0.0
 20
0.0
 11
1.0
 21
1.0
 12
310.5106397884010789
 22
167.5347803784613063
 13
0.0
 23
0.0
 14
10.0
 24
10.0
 15
10.0
 25
10.0
 16
0.0
 26
0.0
 36
1.0
 17
0.0
 27
0.0
 37
0.0
 40
343.6820160812652034
 41
2.3485221674876842
 42
50.0
 43
0.0
 44
0.0
 50
0.0
 51
0.0
 71
     0
 72
   500
 73
     1
 74
     0
 75
     0
 76
     0
 77
     0
 78
     0
  0
ENDTAB
  0
TABLE
  2
LTYPE
 70
     5
  0
LTYPE
  2
CONTINUOUS
 70
     0
  3
Solid Line
 72
    65
 73
     0
 40
0.0
  0
LTYPE
  2
CENTER
 70
     0
  3
____ _ ____ _ ____ _ ____ _ ____ _ ____ _ ____
 72
    65
 73
     4
 40
2.0
 49
1.25
 49
-0.25
 49
0.25
 49
-0.25
  0
LTYPE
  2
HIDDEN
 70
     0
  3
_ _ _ _ _ _ _ _ _ _ _ _ _ _ _ _ _ _ _ _ _ _ _
 72
    65
 73
     2
 40
0.375
 49
0.25
 49
-0.125
  0
LTYPE
  2
PHANTOM2
 70
     0
  3
___ _ _ ___ _ _ ___ _ _ ___ _ _
 72
    65
 73
     6
 40
1.25
 49
0.625
 49
-0.125
 49
0.125
 49
-0.125
 49
0.125
 49
-0.125
  0
LTYPE
  2
DASHED
 70
     0
  3

 72
    65
 73
     2
 40
2.0
 49
1.0
 49
-1.0
  0
ENDTAB
  0
TABLE
  2
LAYER
 70
     5
  0
LAYER
  2
0
 70
     0
 62
     7
  6
CONTINUOUS
  0
LAYER
  2
1
 70
     0
 62
     1
  6
CENTER
  0
LAYER
  2
2
 70
     0
 62
     2
  6
HIDDEN
  0
LAYER
  2
DEFPOINTS
 70
     0
 62
     7
  6
CONTINUOUS
  0
LAYER
  2
3
 70
     0
 62
     3
  6
CONTINUOUS
  0
ENDTAB
  0
TABLE
  2
STYLE
 70
     3
  0
STYLE
  2
STANDARD
 70
     0
 40
0.0
 41
1.0
 50
0.0
 71
     0
 42
0.2
  3
romans.shx
  4

  0
STYLE
  2
K90
 70
     0
 40
0.0
 41
1.0
 50
0.0
 71
     0
 42
0.2
  3
romans.shx
  4

  0
STYLE
  2
STANDARD1
 70
     0
 40
0.0
 41
1.0
 50
0.0
 71
     0
 42
3.0
  3
txt
  4

  0
ENDTAB
  0
TABLE
  2
VIEW
 70
     1
  0
VIEW
  2
ALL
 70
     0
 40
179.538466448915301
 10
135.0
 20
89.7692332244576647
 41
0.0
 11
0.0
 21
0.0
 31
1.0
 12
0.0
 22
0.0
 32
0.0
 42
0.0
 43
0.0
 44
0.0
 50
0.0
 71
     0
  0
ENDTAB
  0
TABLE
  2
UCS
 70
     0
  0
ENDTAB
  0
TABLE
  2
APPID
 70
    14
  0
APPID
  2
ACAD
 70
     0
  0
APPID
  2
ACAD_MLEADERVER
 70
     0
  0
APPID
  2
ACAD_NAV_VCDISPLAY
 70
     0
  0
APPID
  2
ACAD_EXEMPT_FROM_CAD_STANDARDS
 70
     0
  0
APPID
  2
ACAD_DSTYLE_DIMRADIAL_EXTENSION
 70
     0
  0
APPID
  2
ACAD_DSTYLE_DIMJAG
 70
     0
  0
APPID
  2
ACAD_DSTYLE_DIMTALN
 70
     0
  0
APPID
  2
ACAD_PSEXT
 70
     0
  0
APPID
  2
ACAD_DSTYLE_DIMBREAK
 70
     0
  0
APPID
  2
ACAECLAYERSTANDARD
 70
     0
  0
APPID
  2
ACCMTRANSPARENCY
 70
     0
  0
APPID
  2
GRADIENTCOLOR1ACI
 70
     0
  0
APPID
  2
GRADIENTCOLOR2ACI
 70
     0
  0
APPID
  2
ACAD_TC
 70
     0
  0
ENDTAB
  0
TABLE
  2
DIMSTYLE
 70
     2
  0
DIMSTYLE
  2
STANDARD
 70
     0
  3

  4

  5

  6

  7

 40
1.0
 41
0.18
 42
0.0625
 43
0.38
 44
0.18
 45
0.0
 46
0.0
 47
0.0
 48
0.0
140
0.18
141
0.09
142
0.0
143
25.3999999999999986
144
1.0
145
0.0
146
1.0
147
0.09
 71
     0
 72
     0
 73
     1
 74
     1
 75
     0
 76
     0
 77
     0
 78
     0
170
     0
171
     2
172
     0
173
     0
174
     0
175
     0
176
     0
177
     0
178
     0
  0
DIMSTYLE
  2
ISO-25
 70
     0
  3

  4

  5

  6

  7

 40
1.0
 41
2.5
 42
0.625
 43
3.75
 44
1.25
 45
0.0
 46
0.0
 47
0.0
 48
0.0
140
2.5
141
2.5
142
0.0
143
0.03937007874016
144
1.0
145
0.0
146
1.0
147
0.625
 71
     0
 72
     0
 73
     0
 74
     0
 75
     0
 76
     0
 77
     1
 78
     8
170
     0
171
     3
172
     1
173
     0
174
     0
175
     0
176
     0
177
     0
178
     0
  0
ENDTAB
  0
ENDSEC
  0
SECTION
  2
BLOCKS
  0
BLOCK
  8
0
  2
$MODEL_SPACE
 70
     0
 10
0.0
 20
0.0
 30
0.0
  3
$MODEL_SPACE
  1

  0
ENDBLK
  5
2DF
  8
0
  0
BLOCK
 67
     1
  8
0
  2
$PAPER_SPACE
 70
     0
 10
0.0
 20
0.0
 30
0.0
  3
$PAPER_SPACE
  1

  0
ENDBLK
  5
2DB
 67
     1
  8
0
  0
ENDSEC
  0
SECTION
  2
ENTITIES
  0
TEXT
  5
67C
  8
0
 62
     3
 10
0.0
 20
0.0
 30
0.0
 40
10.0
  1
SSR-MSP2165
  7
STANDARD1
  0
LINE
  5
62E5
  8
0
 10
112.999999999990294
 20
187.001670800557207
 30
0.0
 11
112.999999999990294
 21
198.0047352903187061
 31
0.0
  0
LINE
  5
62E6
  8
0
 10
112.999999999990294
 20
171.0047352903187061
 30
0.0
 11
112.999999999990294
 21
173.0078000994537888
 31
0.0
  0
LINE
  5
62E7
  8
0
 10
49.9999999999903295
 20
173.0078850467342875
 30
0.0
 11
49.9999999999903295
 21
171.0047352903187061
 31
0.0
  0
LINE
  5
62E8
  8
0
 10
49.9999999999903295
 20
198.0047352903187061
 30
0.0
 11
49.9999999999903295
 21
187.00158553390321
 31
0.0
  0
LINE
  5
62E9
  8
0
 10
49.9999999999903295
 20
171.0047352903187061
 30
0.0
 11
50.9999999999903366
 21
170.0047352903187061
 31
0.0
  0
LINE
  5
62EA
  8
0
 10
111.999999999990294
 20
170.0047352903187061
 30
0.0
 11
112.999999999990294
 21
171.0047352903187061
 31
0.0
  0
LINE
  5
6333
  8
0
 10
112.999999999990294
 20
171.0047352903187061
 30
0.0
 11
49.9999999999903295
 21
171.0047352903187061
 31
0.0
  0
LINE
  5
6337
  8
0
 10
50.9999999999903366
 20
170.0047352903187061
 30
0.0
 11
111.999999999990294
 21
170.0047352903187061
 31
0.0
  0
LINE
  5
6342
  8
2
 10
65.7499999999902798
 20
189.0047352903187061
 30
0.0
 11
97.2499999999902656
 21
189.0047352903187061
 31
0.0
  0
LINE
  5
6343
  8
2
 10
78.4999999999902656
 20
195.0047352903187061
 30
0.0
 11
84.4999999999902656
 21
195.0047352903187061
 31
0.0
  0
LINE
  5
6344
  8
2
 10
84.4999999999902656
 20
178.0047352903187061
 30
0.0
 11
78.4999999999902656
 21
178.0047352903187061
 31
0.0
  0
LINE
  5
634B
  8
2
 10
98.249999999990294
 20
170.0047352903187061
 30
0.0
 11
97.2499999999902656
 21
171.0047352903187061
 31
0.0
  0
LINE
  5
634C
  8
2
 10
65.7499999999902798
 20
171.0047352903187061
 30
0.0
 11
64.7499999999902656
 21
170.0047352903187061
 31
0.0
  0
LINE
  5
634D
  8
2
 10
97.2499999999902656
 20
171.0047352903187061
 30
0.0
 11
97.2499999999902656
 21
189.0047352903187061
 31
0.0
  0
LINE
  5
634E
  8
2
 10
65.7499999999902798
 20
189.0047352903187061
 30
0.0
 11
65.7499999999902798
 21
171.0047352903187061
 31
0.0
  0
LINE
  5
634F
  8
2
 10
77.4999999999903366
 20
208.0047352903187061
 30
0.0
 11
77.4999999999903366
 21
189.0047352903187061
 31
0.0
  0
LINE
  5
6350
  8
2
 10
85.4999999999903366
 20
189.0047352903187061
 30
0.0
 11
85.4999999999903366
 21
208.0047352903187061
 31
0.0
  0
LINE
  5
6351
  8
2
 10
84.4999999999902656
 20
195.0047352903187061
 30
0.0
 11
84.4999999999902656
 21
203.0047352903187914
 31
0.0
  0
LINE
  5
6352
  8
2
 10
78.4999999999902656
 20
203.0047352903187914
 30
0.0
 11
78.4999999999902656
 21
195.0047352903187061
 31
0.0
  0
LINE
  5
6353
  8
2
 10
84.4999999999902656
 20
170.0047352903187061
 30
0.0
 11
84.4999999999902656
 21
178.0047352903187061
 31
0.0
  0
LINE
  5
6354
  8
2
 10
78.4999999999902656
 20
178.0047352903187061
 30
0.0
 11
78.4999999999902656
 21
170.0047352903187061
 31
0.0
  0
LINE
  5
6468
  8
0
 10
238.002770253218813
 20
171.0047352902894033
 30
0.0
 11
238.002770253218813
 21
198.0047352902892897
 31
0.0
  0
LINE
  5
6469
  8
0
 10
175.002770253218813
 20
198.0047352902892897
 30
0.0
 11
175.002770253218813
 21
171.0047352902894033
 31
0.0
  0
LINE
  5
646A
  8
0
 10
175.002770253218813
 20
171.0047352902894033
 30
0.0
 11
176.002770253218813
 21
170.0047352902894033
 31
0.0
  0
LINE
  5
646B
  8
0
 10
237.002770253218813
 20
170.0047352902894033
 30
0.0
 11
238.002770253218813
 21
171.0047352902894033
 31
0.0
  0
LINE
  5
64A3
  8
0
 10
238.0027702532186993
 20
171.0047352902894033
 30
0.0
 11
175.002770253218813
 21
171.0047352902894033
 31
0.0
  0
LINE
  5
64A5
  8
0
 10
176.002770253218813
 20
170.0047352902894033
 30
0.0
 11
237.002770253218813
 21
170.0047352902894033
 31
0.0
  0
LINE
  5
64A9
  8
2
 10
190.752770253218813
 20
189.0047352902892897
 30
0.0
 11
222.252770253218813
 21
189.0047352902892897
 31
0.0
  0
LINE
  5
64AA
  8
2
 10
234.502770253216994
 20
178.0047352902892897
 30
0.0
 11
228.502770253216994
 21
178.0047352902892897
 31
0.0
  0
LINE
  5
64AB
  8
2
 10
228.502770253216994
 20
195.0047352902894033
 30
0.0
 11
234.502770253216994
 21
195.0047352902894033
 31
0.0
  0
LINE
  5
64BB
  8
2
 10
223.252770253218813
 20
170.0047352902894033
 30
0.0
 11
222.252770253218813
 21
171.0047352902894033
 31
0.0
  0
LINE
  5
64BC
  8
2
 10
190.7502702532187868
 20
171.0047352902894033
 30
0.0
 11
189.7502702532187868
 21
170.0047352902894033
 31
0.0
  0
LINE
  5
64BD
  8
2
 10
222.252770253218813
 20
171.0047352902894033
 30
0.0
 11
222.252770253218813
 21
189.0047352902892897
 31
0.0
  0
LINE
  5
64BE
  8
2
 10
190.752770253218813
 20
189.0047352902892897
 30
0.0
 11
190.7502702532187868
 21
171.0047352902892897
 31
0.0
  0
LINE
  5
64BF
  8
2
 10
202.502770253218813
 20
208.0047352902894033
 30
0.0
 11
202.502770253218813
 21
189.0047352902892897
 31
0.0
  0
LINE
  5
64C0
  8
2
 10
210.5027702532188982
 20
189.0047352902892897
 30
0.0
 11
210.5027702532188982
 21
208.0047352902894033
 31
0.0
  0
LINE
  5
64C1
  8
2
 10
234.502770253216994
 20
170.0047352902894033
 30
0.0
 11
234.502770253216994
 21
178.0047352902892897
 31
0.0
  0
LINE
  5
64C2
  8
2
 10
228.502770253216994
 20
178.0047352902892897
 30
0.0
 11
228.502770253216994
 21
170.0047352902894033
 31
0.0
  0
LINE
  5
64C3
  8
2
 10
234.502770253216994
 20
195.0047352902894033
 30
0.0
 11
234.502770253216994
 21
203.0047352902894033
 31
0.0
  0
LINE
  5
64C4
  8
2
 10
228.502770253216994
 20
203.0047352902894033
 30
0.0
 11
228.502770253216994
 21
195.0047352902894033
 31
0.0
  0
LINE
  5
64DF
  8
1
 10
81.4999999999902798
 20
213.0047352903187914
 30
0.0
 11
81.4999999999902798
 21
165.0047352903187061
 31
0.0
  0
LINE
  5
64E0
  8
1
 10
206.502770253218813
 20
213.0047352902894033
 30
0.0
 11
206.502770253218813
 21
165.0047352902892897
 31
0.0
  0
LINE
  5
64E1
  8
1
 10
231.5027702532169087
 20
168.0047352902894033
 30
0.0
 11
231.5027702532169087
 21
180.0047352902892897
 31
0.0
  0
LINE
  5
64E2
  8
1
 10
231.5027702532169087
 20
193.0047352902894033
 30
0.0
 11
231.5027702532169087
 21
205.0047352902894033
 31
0.0
  0
LINE
  5
64E4
  8
2
 10
84.8234999999903039
 20
189.0047352903187061
 30
0.0
 11
84.8234999999903039
 21
208.0047352903187061
 31
0.0
  0
LINE
  5
64E5
  8
2
 10
78.1764999999903125
 20
189.0047352903187061
 30
0.0
 11
78.1764999999903125
 21
208.0047352903187061
 31
0.0
  0
LINE
  5
64E6
  8
2
 10
209.8262702532188086
 20
189.0047352902892897
 30
0.0
 11
209.8262702532188086
 21
208.0047352902894033
 31
0.0
  0
LINE
  5
64E7
  8
2
 10
203.1792702532187889
 20
189.0047352902892897
 30
0.0
 11
203.1792702532187889
 21
208.0047352902894033
 31
0.0
  0
POLYLINE
  5
6594
  8
0
 66
     1
 10
0.0
 20
0.0
 30
0.0
  0
VERTEX
  5
6E4F
  8
0
 10
112.9993300711753932
 20
187.001670800557207
 30
0.0
  0
VERTEX
  5
6E50
  8
0
 10
112.9898977129932973
 20
186.9576298592982937
 30
0.0
  0
VERTEX
  5
6E51
  8
0
 10
112.9700279395387952
 20
186.8642595769985064
 30
0.0
  0
VERTEX
  5
6E52
  8
0
 10
112.9342331803772055
 20
186.6941107407454865
 30
0.0
  0
VERTEX
  5
6E53
  8
0
 10
112.8862720999084956
 20
186.4607354395677135
 30
0.0
  0
VERTEX
  5
6E54
  8
0
 10
112.826503764680794
 20
186.1657806816928087
 30
0.0
  0
VERTEX
  5
6E55
  8
0
 10
112.759149907813196
 20
185.8122918818631035
 30
0.0
  0
VERTEX
  5
6E56
  8
0
 10
112.6869720722475989
 20
185.403559154762803
 30
0.0
  0
VERTEX
  5
6E57
  8
0
 10
112.6119622917112935
 20
184.9436171773878925
 30
0.0
  0
VERTEX
  5
6E58
  8
0
 10
112.5362744287196932
 20
184.43693146150801
 30
0.0
  0
VERTEX
  5
6E59
  8
0
 10
112.4629194740541038
 20
183.88804007563499
 30
0.0
  0
VERTEX
  5
6E5A
  8
0
 10
112.3952365457870997
 20
183.3015752181009077
 30
0.0
  0
VERTEX
  5
6E5B
  8
0
 10
112.3355118251709968
 20
182.6830631117518067
 30
0.0
  0
VERTEX
  5
6E5C
  8
0
 10
112.2859289501877953
 20
182.0373954226413957
 30
0.0
  0
VERTEX
  5
6E5D
  8
0
 10
112.2501126565882004
 20
181.3711358846611859
 30
0.0
  0
VERTEX
  5
6E5E
  8
0
 10
112.2195216931370965
 20
180.0047352903187061
 30
0.0
  0
SEQEND
  5
6E5F
  8
0
  0
POLYLINE
  5
6595
  8
0
 66
     1
 10
0.0
 20
0.0
 30
0.0
  0
VERTEX
  5
6E60
  8
0
 10
112.2195216931370965
 20
180.0047352903187061
 30
0.0
  0
VERTEX
  5
6E61
  8
0
 10
112.2501620375550999
 20
178.6383055562683069
 30
0.0
  0
VERTEX
  5
6E62
  8
0
 10
112.2866099749529951
 20
177.9730568388254142
 30
0.0
  0
VERTEX
  5
6E63
  8
0
 10
112.3353792037625993
 20
177.3279912634432094
 30
0.0
  0
VERTEX
  5
6E64
  8
0
 10
112.3950839969088946
 20
176.709372898366496
 30
0.0
  0
VERTEX
  5
6E65
  8
0
 10
112.4627509057741008
 20
176.1227933808953026
 30
0.0
  0
VERTEX
  5
6E66
  8
0
 10
112.5360972605016059
 20
175.5737755844195931
 30
0.0
  0
VERTEX
  5
6E67
  8
0
 10
112.6117873910864944
 20
175.066961141223004
 30
0.0
  0
VERTEX
  5
6E68
  8
0
 10
112.6868617203003993
 20
174.6070376584318069
 30
0.0
  0
VERTEX
  5
6E69
  8
0
 10
112.7588887942627025
 20
174.1983719203080057
 30
0.0
  0
VERTEX
  5
6E6A
  8
0
 10
112.826334608045002
 20
173.844676469301902
 30
0.0
  0
VERTEX
  5
6E6B
  8
0
 10
112.8860663593819993
 20
173.5496964050825
 30
0.0
  0
VERTEX
  5
6E6C
  8
0
 10
112.9350707883693019
 20
173.312732988080711
 30
0.0
  0
VERTEX
  5
6E6D
  8
0
 10
112.9701633132063989
 20
173.144703404161703
 30
0.0
  0
VERTEX
  5
6E6E
  8
0
 10
112.9894124784257059
 20
173.0536709876882924
 30
0.0
  0
VERTEX
  5
6E6F
  8
0
 10
112.9993299993373057
 20
173.0078000994537888
 30
0.0
  0
SEQEND
  5
6E70
  8
0
  0
POLYLINE
  5
6596
  8
0
 66
     1
 10
0.0
 20
0.0
 30
0.0
  0
VERTEX
  5
6E71
  8
0
 10
50.0006679615975074
 20
187.00158553390321
 30
0.0
  0
VERTEX
  5
6E72
  8
0
 10
50.0102849585645117
 20
186.9538285100950077
 30
0.0
  0
VERTEX
  5
6E73
  8
0
 10
50.0180664861421178
 20
186.9164648752027063
 30
0.0
  0
VERTEX
  5
6E74
  8
0
 10
50.0294148326173627
 20
186.8629223337663063
 30
0.0
  0
VERTEX
  5
6E75
  8
0
 10
50.0450921909907365
 20
186.7895028652494034
 30
0.0
  0
VERTEX
  5
6E76
  8
0
 10
50.0647375904233627
 20
186.6969694208266901
 30
0.0
  0
VERTEX
  5
6E77
  8
0
 10
50.0878072180303207
 20
186.5868111620133902
 30
0.0
  0
VERTEX
  5
6E78
  8
0
 10
50.113757284073408
 20
186.4605171705665043
 30
0.0
  0
VERTEX
  5
6E79
  8
0
 10
50.1421159051215568
 20
186.3193287540910887
 30
0.0
  0
VERTEX
  5
6E7A
  8
0
 10
50.1726421491887322
 20
186.1636914096349074
 30
0.0
  0
VERTEX
  5
6E7B
  8
0
 10
50.2051413590280617
 20
185.9938911811366893
 30
0.0
  0
VERTEX
  5
6E7C
  8
0
 10
50.23941887739187
 20
185.810214112535192
 30
0.0
  0
VERTEX
  5
6E7D
  8
0
 10
50.2752438726468824
 20
185.6129577006460067
 30
0.0
  0
VERTEX
  5
6E7E
  8
0
 10
50.3122419980044526
 20
185.402464879444608
 30
0.0
  0
VERTEX
  5
6E7F
  8
0
 10
50.3500033210724212
 20
185.1790898493736108
 30
0.0
  0
VERTEX
  5
6E80
  8
0
 10
50.3881179111919266
 20
184.9431868179950129
 30
0.0
  0
VERTEX
  5
6E81
  8
0
 10
50.4261953740428268
 20
184.6951902364731097
 30
0.0
  0
VERTEX
  5
6E82
  8
0
 10
50.4639132717633387
 20
184.4358136804850119
 30
0.0
  0
VERTEX
  5
6E83
  8
0
 10
50.5009639330507127
 20
184.1658313779063008
 30
0.0
  0
VERTEX
  5
6E84
  8
0
 10
50.5370396778899433
 20
183.8860175279486953
 30
0.0
  0
VERTEX
  5
6E85
  8
0
 10
50.5718176547416078
 20
183.5970964145274991
 30
0.0
  0
VERTEX
  5
6E86
  8
0
 10
50.6049286692886824
 20
183.2996398508215918
 30
0.0
  0
VERTEX
  5
6E87
  8
0
 10
50.6359947096076723
 20
182.9941906395148123
 30
0.0
  0
VERTEX
  5
6E88
  8
0
 10
50.6646377640644232
 20
182.6812915837456899
 30
0.0
  0
VERTEX
  5
6E89
  8
0
 10
50.6905195507981432
 20
182.3615479879630925
 30
0.0
  0
VERTEX
  5
6E8A
  8
0
 10
50.7134515614145016
 20
182.0358007743164137
 30
0.0
  0
VERTEX
  5
6E8B
  8
0
 10
50.7498533691461873
 20
181.3698812311596953
 30
0.0
  0
VERTEX
  5
6E8C
  8
0
 10
50.7726126415242334
 20
180.6906192845355008
 30
0.0
  0
VERTEX
  5
6E8D
  8
0
 10
50.7804783068434915
 20
180.0047352903187061
 30
0.0
  0
VERTEX
  5
6E8E
  8
0
 10
50.7726126415242618
 20
179.3188512961019114
 30
0.0
  0
VERTEX
  5
6E8F
  8
0
 10
50.7498533691461873
 20
178.6395893494778022
 30
0.0
  0
VERTEX
  5
6E90
  8
0
 10
50.7134515614145016
 20
177.9736698063211975
 30
0.0
  0
VERTEX
  5
6E91
  8
0
 10
50.6905195507981716
 20
177.6479225926744903
 30
0.0
  0
VERTEX
  5
6E92
  8
0
 10
50.6646377640644019
 20
177.3281789968918076
 30
0.0
  0
VERTEX
  5
6E93
  8
0
 10
50.6359947096076723
 20
177.0152799411227136
 30
0.0
  0
VERTEX
  5
6E94
  8
0
 10
50.6049286692886824
 20
176.7098307298159057
 30
0.0
  0
VERTEX
  5
6E95
  8
0
 10
50.5718176547416078
 20
176.4123741661099984
 30
0.0
  0
VERTEX
  5
6E96
  8
0
 10
50.5370396778899007
 20
176.1234530526886886
 30
0.0
  0
VERTEX
  5
6E97
  8
0
 10
50.5009639330507127
 20
175.8436392027311115
 30
0.0
  0
VERTEX
  5
6E98
  8
0
 10
50.4639132717633387
 20
175.5736569001524003
 30
0.0
  0
VERTEX
  5
6E99
  8
0
 10
50.4261953740428268
 20
175.3142803441643878
 30
0.0
  0
VERTEX
  5
6E9A
  8
0
 10
50.3881179111919266
 20
175.066283762642513
 30
0.0
  0
VERTEX
  5
6E9B
  8
0
 10
50.3500033210724212
 20
174.8303807312638867
 30
0.0
  0
VERTEX
  5
6E9C
  8
0
 10
50.312241998004481
 20
174.6070057011928895
 30
0.0
  0
VERTEX
  5
6E9D
  8
0
 10
50.2752438726469109
 20
174.3965128799914908
 30
0.0
  0
VERTEX
  5
6E9E
  8
0
 10
50.23941887739187
 20
174.1992564681021918
 30
0.0
  0
VERTEX
  5
6E9F
  8
0
 10
50.2051413590280617
 20
174.0155793995008082
 30
0.0
  0
VERTEX
  5
6EA0
  8
0
 10
50.1726421491887606
 20
173.8457791710025049
 30
0.0
  0
VERTEX
  5
6EA1
  8
0
 10
50.1421159051215781
 20
173.6901418265464088
 30
0.0
  0
VERTEX
  5
6EA2
  8
0
 10
50.113757284073408
 20
173.5489534100709079
 30
0.0
  0
VERTEX
  5
6EA3
  8
0
 10
50.0878072180303207
 20
173.4226594186241073
 30
0.0
  0
VERTEX
  5
6EA4
  8
0
 10
50.0647375904233272
 20
173.3125011598108074
 30
0.0
  0
VERTEX
  5
6EA5
  8
0
 10
50.0450921909907365
 20
173.2199677153880941
 30
0.0
  0
VERTEX
  5
6EA6
  8
0
 10
50.0294148326173627
 20
173.1465482468711912
 30
0.0
  0
VERTEX
  5
6EA7
  8
0
 10
50.0180664861421178
 20
173.0930057054347913
 30
0.0
  0
VERTEX
  5
6EA8
  8
0
 10
50.0102849585645117
 20
173.0556420705424898
 30
0.0
  0
VERTEX
  5
6EA9
  8
0
 10
50.0006679615975074
 20
173.0078850467342022
 30
0.0
  0
SEQEND
  5
6EAA
  8
0
  0
CIRCLE
  5
6648
  8
0
 10
81.4999999999997726
 20
295.5228180500092208
 30
0.0
 40
15.7500000000000302
  0
CIRCLE
  5
6649
  8
0
 10
104.9999999999999005
 20
295.5071233869419984
 30
0.0
 40
7.0
  0
CIRCLE
  5
664A
  8
0
 10
57.9971673781567532
 20
295.5385146048648721
 30
0.0
 40
6.9999999999999707
  0
CIRCLE
  5
664B
  8
0
 10
57.9971673781567532
 20
295.5385146048648721
 30
0.0
 40
5.1999999999999709
  0
LINE
  5
664C
  8
0
 10
117.997171118232302
 20
265.0172577761777006
 30
0.0
 11
118.9846874935573027
 21
296.578265042676378
 31
0.0
  0
LINE
  5
664D
  8
0
 10
118.9846874935573027
 20
296.578265042676378
 30
0.0
 11
117.9983545748936962
 21
331.0666451884591197
 31
0.0
  0
LINE
  5
664E
  8
0
 10
44.0153125064423421
 20
296.578265042676378
 30
0.0
 11
45.002828881767293
 21
265.0172577761777006
 31
0.0
  0
LINE
  5
664F
  8
0
 10
45.0016454251097002
 20
331.0666451884594039
 30
0.0
 11
44.0153125064423421
 21
296.578265042676378
 31
0.0
  0
LINE
  5
6650
  8
0
 10
115.5527864044998978
 20
259.110308099337999
 30
0.0
 11
117.4772078651433986
 21
262.9591510206250859
 31
0.0
  0
ARC
  5
6651
  8
0
 10
113.0515030799826945
 20
265.1720034132055162
 30
0.0
 40
4.948088373982829
 50
333.4349488229207168
 51
358.2078497502255914
  0
ARC
  5
6652
  8
0
 10
49.2360679774997223
 20
260.0047352903378055
 30
0.0
 40
2.0
 50
206.5650511767730109
 51
269.9999999994528253
  0
LINE
  5
6653
  8
0
 10
49.2360679774806087
 20
258.0047352903378055
 30
0.0
 11
113.7639320225000006
 21
258.0047352903378055
 31
0.0
  0
ARC
  5
6654
  8
0
 10
113.7639320225000006
 20
260.0047352903378055
 30
0.0
 40
2.0
 50
270.0
 51
333.4349488225639107
  0
LINE
  5
6655
  8
0
 10
45.5227921348562106
 20
262.9591510206250859
 30
0.0
 11
47.4472135954997611
 21
259.110308099337999
 31
0.0
  0
ARC
  5
6656
  8
0
 10
47.0008280241299872
 20
331.0094705806782827
 30
0.0
 40
2.0
 50
90.0
 51
178.3618449617428041
  0
LINE
  5
6657
  8
0
 10
115.999171975873594
 20
333.0094705806783963
 30
0.0
 11
47.0008280241299872
 21
333.0094705806783963
 31
0.0
  0
ARC
  5
6658
  8
0
 10
115.999171975873594
 20
331.0094705806782827
 30
0.0
 40
2.0
 50
1.6381550382507111
 51
90.0
  0
ARC
  5
6659
  8
0
 10
49.948496920017071
 20
265.1720034132055162
 30
0.0
 40
4.9480883739828201
 50
181.7921502497744086
 51
206.5650511770791127
  0
CIRCLE
  5
665A
  8
0
 10
57.9971673781566324
 20
295.538552016551705
 30
0.0
 40
2.9999999999859019
  0
CIRCLE
  5
665B
  8
0
 10
63.8223304703362828
 20
313.2004875796725969
 30
0.0
 40
3.1500000000243058
  0
CIRCLE
  5
665C
  8
0
 10
104.9999999999999005
 20
295.5071233869419984
 30
0.0
 40
3.0000000000306382
  0
CIRCLE
  5
665D
  8
0
 10
81.4999999999997726
 20
320.5228180500109829
 30
0.0
 40
3.0
  0
CIRCLE
  5
665E
  8
0
 10
99.1776695296634898
 20
313.2004875796725969
 30
0.0
 40
3.1500000000243058
  0
CIRCLE
  5
665F
  8
0
 10
63.8223304703362828
 20
277.8451485203452194
 30
0.0
 40
3.1500000000188768
  0
CIRCLE
  5
6660
  8
0
 10
99.1776695296634898
 20
277.8451485203452194
 30
0.0
 40
3.1500000000188768
  0
CIRCLE
  5
6661
  8
1
 10
81.4999999999998863
 20
295.5228180500088797
 30
0.0
 40
25.0
  0
LINE
  5
6662
  8
1
 10
60.1807305472082135
 20
316.842087502800382
 30
0.0
 11
67.46393039346367
 21
309.5588876565443002
 31
0.0
  0
LINE
  5
6663
  8
1
 10
95.5360696065395132
 20
281.4867484434693097
 30
0.0
 11
102.8192694527876938
 21
274.2035485972212996
 31
0.0
  0
LINE
  5
6664
  8
1
 10
60.1807305472120788
 20
274.2035485972212996
 30
0.0
 11
67.4639303934601458
 21
281.4867484434694234
 31
0.0
  0
LINE
  5
6665
  8
1
 10
95.5360696065354205
 20
309.5588876565449254
 30
0.0
 11
102.8192694527913034
 21
316.8420875028006094
 31
0.0
  0
LINE
  5
6666
  8
1
 10
124.0
 20
295.5228180500088229
 30
0.0
 11
39.0
 21
295.5228180500089934
 31
0.0
  0
LINE
  5
6667
  8
1
 10
81.5
 20
338.0094705806782827
 30
0.0
 11
81.5
 21
253.0047352903378908
 31
0.0
  0
LINE
  5
6668
  8
1
 10
104.9999999999999005
 20
304.5071233869419984
 30
0.0
 11
104.9999999999999005
 21
286.5071233869419984
 31
0.0
  0
LINE
  5
6669
  8
1
 10
57.9971673781566324
 20
304.5385146048648721
 30
0.0
 11
57.9971673781566324
 21
286.5385146048648153
 31
0.0
  0
CIRCLE
  5
666A
  8
3
 10
81.5
 20
295.5228180500088797
 30
0.0
 40
4.0
  0
CIRCLE
  5
666B
  8
0
 10
81.5
 20
295.5228180500088797
 30
0.0
 40
3.3235000000000001
  0
LINE
  5
6670
  8
0
 10
65.7499999999902229
 20
207.0047352903391982
 30
0.0
 11
65.7499999999902229
 21
203.0047352903391982
 31
0.0
  0
LINE
  5
6671
  8
0
 10
97.2499999999902229
 20
203.0047352903391982
 30
0.0
 11
97.2499999999902229
 21
207.0047352903391982
 31
0.0
  0
LINE
  5
6672
  8
0
 10
97.2499999999928235
 20
207.0047352903391982
 30
0.0
 11
96.2499999999890861
 21
208.0047352903378908
 31
0.0
  0
LINE
  5
6673
  8
0
 10
66.749999999991573
 20
208.0047352903378908
 30
0.0
 11
65.7499999999877218
 21
207.0047352903391982
 31
0.0
  0
LINE
  5
6674
  8
0
 10
113.7639320224904935
 20
198.0047352903391982
 30
0.0
 11
114.6583592134191036
 21
198.0047352902822979
 31
0.0
  0
LINE
  5
6675
  8
0
 10
114.6583592134191036
 20
198.0047352902822979
 30
0.0
 11
117.984240175646903
 21
198.0047352903391982
 31
0.0
  0
LINE
  5
6676
  8
0
 10
46.4172193257988965
 20
203.0047352903357876
 30
0.0
 11
116.5827806741067008
 21
203.0047352903914941
 31
0.0
  0
LINE
  5
6677
  8
0
 10
46.4172193258259469
 20
198.0047352902965088
 30
0.0
 11
113.7639320224904935
 21
198.0047352903391982
 31
0.0
  0
LINE
  5
6678
  8
0
 10
46.0023397361422894
 20
198.0047352903391982
 30
0.0
 11
46.4172193258259469
 21
198.0047352902965088
 31
0.0
  0
LINE
  5
6679
  8
0
 10
46.4172193257988965
 20
203.0047352903357876
 30
0.0
 11
46.0023397360866895
 21
203.0047352903073943
 31
0.0
  0
LINE
  5
667A
  8
0
 10
116.9976602638089958
 20
203.004735290365403
 30
0.0
 11
116.5827806741067008
 21
203.0047352903914941
 31
0.0
  0
LINE
  5
667C
  8
0
 10
44.0153125064327924
 20
199.0047352903391982
 30
0.0
 11
44.0153125064327924
 21
202.0047352903391982
 31
0.0
  0
LINE
  5
667D
  8
0
 10
44.0153125064327924
 20
202.0047352903391129
 30
0.0
 11
45.0157598243335997
 21
203.0047352903391982
 31
0.0
  0
LINE
  5
667E
  8
0
 10
45.0157598243335997
 20
203.0047352903391982
 30
0.0
 11
46.0023397360866895
 21
203.0047352903073943
 31
0.0
  0
LINE
  5
667F
  8
0
 10
118.9846874935477956
 20
199.0047352903391982
 30
0.0
 11
117.984240175646903
 21
198.0047352903391982
 31
0.0
  0
LINE
  5
6680
  8
0
 10
118.9846874935477956
 20
202.0047352903391982
 30
0.0
 11
118.9846874935477956
 21
199.0047352903391982
 31
0.0
  0
LINE
  5
6681
  8
0
 10
117.984240175647102
 20
203.0047352903391982
 30
0.0
 11
118.9846874935477956
 21
202.0047352903391129
 31
0.0
  0
LINE
  5
6682
  8
0
 10
116.9976602638089958
 20
203.004735290365403
 30
0.0
 11
117.984240175646903
 21
203.0047352903391982
 31
0.0
  0
LINE
  5
6683
  8
0
 10
45.0157598243335997
 20
198.0047352903391129
 30
0.0
 11
44.0153125064327924
 21
199.0047352903391982
 31
0.0
  0
LINE
  5
6684
  8
0
 10
45.0157598243335997
 20
198.0047352903391982
 30
0.0
 11
46.0023397361422894
 21
198.0047352903391982
 31
0.0
  0
LINE
  5
6685
  8
0
 10
96.2499999999890861
 20
208.0047352903378908
 30
0.0
 11
66.749999999991573
 21
208.0047352903378908
 31
0.0
  0
LINE
  5
668E
  8
0
 10
190.7685042197614962
 20
207.0047352903391129
 30
0.0
 11
190.7685042197614962
 21
203.0047352903391129
 31
0.0
  0
LINE
  5
668F
  8
0
 10
222.2685042197614962
 20
203.0047352903391129
 30
0.0
 11
222.2685042197614962
 21
207.0047352903391129
 31
0.0
  0
LINE
  5
6690
  8
0
 10
222.2685042197641963
 20
207.0047352903391129
 30
0.0
 11
221.2685042197603025
 21
208.0047352903378055
 31
0.0
  0
LINE
  5
6691
  8
0
 10
191.7685042197628036
 20
208.0047352903378055
 30
0.0
 11
190.7685042197589098
 21
207.0047352903391129
 31
0.0
  0
LINE
  5
6692
  8
0
 10
207.5582172458863113
 20
202.0047352903391129
 30
0.0
 11
207.5582172458863113
 21
199.0047352903391129
 31
0.0
  0
LINE
  5
6693
  8
0
 10
207.5582172458863113
 20
199.0047352903391129
 30
0.0
 11
207.5595617095667933
 21
198.0047352903391129
 31
0.0
  0
LINE
  5
6694
  8
0
 10
207.5595617095655996
 20
203.0047352903391129
 30
0.0
 11
207.5582172458863113
 21
202.0047352903391129
 31
0.0
  0
LINE
  5
6695
  8
0
 10
243.9894227840430005
 20
202.0047352903013973
 30
0.0
 11
242.9894227839330938
 21
203.0047352903345939
 31
0.0
  0
LINE
  5
6696
  8
0
 10
243.9894227838881022
 20
202.0047352903391129
 30
0.0
 11
243.9894227838881022
 21
199.0047352903391129
 31
0.0
  0
LINE
  5
6697
  8
0
 10
242.9894227838759946
 20
198.004735290296594
 30
0.0
 11
243.9894227837588119
 21
199.0047352902016939
 31
0.0
  0
LINE
  5
6698
  8
0
 10
170.5374738980632117
 20
203.0047352903783064
 30
0.0
 11
242.9894227839330938
 21
203.0047352903345939
 31
0.0
  0
LINE
  5
6699
  8
0
 10
170.5374738980443112
 20
198.0047352902822126
 30
0.0
 11
242.9894227838759946
 21
198.004735290296594
 31
0.0
  0
LINE
  5
669A
  8
0
 10
169.9846874935595906
 20
203.0047352903345939
 30
0.0
 11
168.9846874935477956
 21
202.0047352903391129
 31
0.0
  0
LINE
  5
669B
  8
0
 10
170.5374738980632117
 20
203.0047352903783064
 30
0.0
 11
169.9846874935595906
 21
203.0047352903345939
 31
0.0
  0
LINE
  5
669C
  8
0
 10
168.9846874935477956
 20
199.0047352903391129
 30
0.0
 11
168.9846874935477956
 21
202.0047352903391129
 31
0.0
  0
LINE
  5
669D
  8
0
 10
169.9846874935477103
 20
198.0047352903391129
 30
0.0
 11
168.9846874935477956
 21
199.0047352903391129
 31
0.0
  0
LINE
  5
669E
  8
0
 10
169.9846874935477103
 20
198.0047352903391129
 30
0.0
 11
170.5374738980443112
 21
198.0047352902822126
 31
0.0
  0
LINE
  5
66A0
  8
0
 10
221.2685042197603025
 20
208.0047352903378055
 30
0.0
 11
191.7685042197628036
 21
208.0047352903378055
 31
0.0
  0
CIRCLE
  5
66A2
  8
0
 10
105.0
 20
295.5385146048648721
 30
0.0
 40
5.1999999999999709
  0
CIRCLE
  5
66A3
  8
0
 10
81.4999999999997726
 20
82.4866525306691756
 30
0.0
 40
15.7500000000000302
  0
LINE
  5
66A4
  8
0
 10
117.997171118232302
 20
112.9922128045006957
 30
0.0
 11
118.9846874935573027
 21
81.4312055380019046
 31
0.0
  0
LINE
  5
66A5
  8
0
 10
118.9846874935573027
 20
81.4312055380019046
 30
0.0
 11
117.9983545748936962
 21
46.9428253922192198
 31
0.0
  0
LINE
  5
66A6
  8
0
 10
44.0153125064423421
 20
81.4312055380019046
 30
0.0
 11
45.002828881767293
 21
112.9922128045005962
 31
0.0
  0
LINE
  5
66A7
  8
0
 10
45.0016454251097002
 20
46.9428253922189924
 30
0.0
 11
44.0153125064423421
 21
81.4312055380019046
 31
0.0
  0
LINE
  5
66A8
  8
0
 10
115.5527864044998978
 20
118.8991624813402979
 30
0.0
 11
117.4772078651433986
 21
115.0503195600531967
 31
0.0
  0
ARC
  5
66A9
  8
0
 10
113.0515030799826945
 20
112.8374671674727949
 30
0.0
 40
4.948088373982829
 50
1.7921502497743951
 51
26.5650511770789102
  0
ARC
  5
66AA
  8
0
 10
49.2360679774997223
 20
118.0047352903405056
 30
0.0
 40
2.0
 50
90.0000000005471747
 51
153.4349488232269891
  0
LINE
  5
66AB
  8
0
 10
49.2360679774806087
 20
120.0047352903405056
 30
0.0
 11
113.7639320225000006
 21
120.0047352903405056
 31
0.0
  0
ARC
  5
66AC
  8
0
 10
113.7639320225000006
 20
118.0047352903405056
 30
0.0
 40
2.0
 50
26.5650511774357483
 51
90.0
  0
LINE
  5
66AD
  8
0
 10
45.5227921348562106
 20
115.0503195600531967
 30
0.0
 11
47.4472135954997611
 21
118.8991624813402979
 31
0.0
  0
ARC
  5
66AE
  8
0
 10
47.0008280241299872
 20
47.0
 30
0.0
 40
2.0
 50
181.6381550382604075
 51
270.0
  0
LINE
  5
66AF
  8
0
 10
115.999171975873594
 20
45.0
 30
0.0
 11
47.0008280241299872
 21
45.0
 31
0.0
  0
ARC
  5
66B0
  8
0
 10
115.999171975873594
 20
47.0
 30
0.0
 40
2.0
 50
270.0
 51
358.3618449617459873
  0
ARC
  5
66B1
  8
0
 10
49.948496920017071
 20
112.8374671674727949
 30
0.0
 40
4.9480883739828201
 50
153.4349488229210863
 51
178.2078497502255914
  0
CIRCLE
  5
66B2
  8
0
 10
57.9971673781566324
 20
82.4709185641266913
 30
0.0
 40
2.9999999999859019
  0
CIRCLE
  5
66B3
  8
0
 10
63.8223304703362828
 20
64.8089830010057995
 30
0.0
 40
3.1500000000243058
  0
CIRCLE
  5
66B4
  8
0
 10
104.9999999999999005
 20
82.5023471937363553
 30
0.0
 40
3.0000000000306382
  0
CIRCLE
  5
66B5
  8
0
 10
81.4999999999997726
 20
57.4866525306673566
 30
0.0
 40
3.0100000000304021
  0
CIRCLE
  5
66B6
  8
0
 10
99.1776695296634898
 20
64.8089830010057995
 30
0.0
 40
3.1500000000243058
  0
CIRCLE
  5
66B7
  8
0
 10
63.8223304703362828
 20
100.1643220603331059
 30
0.0
 40
3.1500000000188768
  0
CIRCLE
  5
66B8
  8
0
 10
99.1776695296634898
 20
100.1643220603331059
 30
0.0
 40
3.1500000000188768
  0
CIRCLE
  5
66B9
  8
1
 10
81.4999999999998863
 20
82.4866525306694029
 30
0.0
 40
25.0
  0
LINE
  5
66BA
  8
1
 10
60.1807305472082135
 20
61.1673830778779504
 30
0.0
 11
67.46393039346367
 21
68.4505829241340962
 31
0.0
  0
LINE
  5
66BB
  8
1
 10
95.5360696065395132
 20
96.522722137209044
 30
0.0
 11
102.8192694527876938
 21
103.8059219834570968
 31
0.0
  0
LINE
  5
66BC
  8
1
 10
60.1807305472120788
 20
103.8059219834570968
 30
0.0
 11
67.4639303934601458
 21
96.5227221372089161
 31
0.0
  0
LINE
  5
66BD
  8
1
 10
95.5360696065354205
 20
68.4505829241334141
 30
0.0
 11
102.8192694527913034
 21
61.1673830778777301
 31
0.0
  0
LINE
  5
66BE
  8
1
 10
124.0
 20
82.4866525306695166
 30
0.0
 11
39.0
 21
82.4866525306692893
 31
0.0
  0
LINE
  5
66BF
  8
1
 10
81.5
 20
40.0
 30
0.0
 11
81.5
 21
125.0047352903405056
 31
0.0
  0
LINE
  5
66C0
  8
1
 10
104.9999999999999005
 20
77.5023471937057025
 30
0.0
 11
104.9999999999999005
 21
87.5023471937669655
 31
0.0
  0
LINE
  5
66C1
  8
1
 10
57.9971673781566324
 20
77.4709185641407885
 30
0.0
 11
57.9971673781566324
 21
87.4709185641125941
 31
0.0
  0
CIRCLE
  5
66C2
  8
3
 10
81.5
 20
82.4866525306694029
 30
0.0
 40
4.0
  0
CIRCLE
  5
66C3
  8
0
 10
81.5
 20
82.4866525306694029
 30
0.0
 40
3.3235000000000001
  0
LINE
  5
66C7
  8
0
 10
44.0153125064327924
 20
202.0047352903391129
 30
0.0
 11
118.9846874935477956
 21
202.0047352903985995
 31
0.0
  0
LINE
  5
66C8
  8
0
 10
44.0153125064327924
 20
199.0047352903391982
 30
0.0
 11
118.984687493607197
 21
199.0047352903987132
 31
0.0
  0
LINE
  5
66C9
  8
0
 10
97.2499999999928235
 20
207.0047352903391982
 30
0.0
 11
65.7499999999902229
 21
207.0047352903391982
 31
0.0
  0
LINE
  5
66CB
  8
0
 10
222.2685042197614962
 20
207.0047352903391129
 30
0.0
 11
190.7685042197614962
 21
207.0047352903391129
 31
0.0
  0
LINE
  5
66CC
  8
0
 10
168.9846874935477956
 20
202.0047352903391129
 30
0.0
 11
243.9894227840505039
 21
202.0047352902938087
 31
0.0
  0
LINE
  5
66CD
  8
0
 10
168.9846874935477956
 20
199.0047352903391129
 30
0.0
 11
243.9894227838881875
 21
199.0047352902938087
 31
0.0
  0
CIRCLE
  5
66CF
  8
0
 10
81.5
 20
82.5023676451702386
 30
0.0
 40
31.5000000000012612
  0
LINE
  5
66D0
  8
1
 10
305.902770253218705
 20
108.4991817851043976
 30
0.0
 11
305.902770253218705
 21
120.4991817851043976
 31
0.0
  0
LINE
  5
66D1
  8
1
 10
305.902770253218705
 20
124.4991817851043976
 30
0.0
 11
305.902770253218705
 21
145.4991817851044118
 31
0.0
  0
CIRCLE
  5
66D2
  8
0
 10
305.902770253218705
 20
114.4991817851043976
 30
0.0
 40
3.0
  0
LINE
  5
66D3
  8
0
 10
302.902770253218705
 20
142.4991817851044118
 30
0.0
 11
302.902770253218705
 21
127.4991817851043976
 31
0.0
  0
LINE
  5
66D4
  8
0
 10
308.902770253218705
 20
142.4991817851044118
 30
0.0
 11
308.902770253218705
 21
127.4991817851043976
 31
0.0
  0
LINE
  5
66D5
  8
1
 10
299.902770253218705
 20
114.4991817851043976
 30
0.0
 11
311.902770253218705
 21
114.4991817851043976
 31
0.0
  0
LINE
  5
66D6
  8
0
 10
308.902770253218705
 20
127.4991817851043976
 30
0.0
 11
302.902770253218705
 21
127.4991817851043976
 31
0.0
  0
LINE
  5
66D7
  8
0
 10
308.902770253218705
 20
142.4991817851044118
 30
0.0
 11
302.902770253218705
 21
142.4991817851044118
 31
0.0
  0
LINE
  5
66D8
  8
0
 10
48.3287108709338327
 20
198.0176592753632008
 30
0.0
 11
47.4342835714343067
 21
199.0176593228605952
 31
0.0
  0
LINE
  5
66D9
  8
0
 10
47.4342835714343067
 20
199.0176593228605952
 30
0.0
 11
47.4342835714343067
 21
202.017659465353006
 31
0.0
  0
LINE
  5
66DA
  8
0
 10
115.5398545434000965
 20
202.017659465353006
 30
0.0
 11
115.5398545434000965
 21
199.0176593228605952
 31
0.0
  0
LINE
  5
66DB
  8
0
 10
115.5398545434000965
 20
202.017659465353006
 30
0.0
 11
114.645427243900599
 21
203.0176591636044918
 31
0.0
  0
LINE
  5
66DC
  8
0
 10
48.3287108709338327
 20
203.0176591636044918
 30
0.0
 11
47.4342835714343067
 21
202.017659465353006
 31
0.0
  0
LINE
  5
66DD
  8
0
 10
114.645427243900599
 20
198.0176592753063005
 30
0.0
 11
115.5398545434000965
 21
199.0176593228605952
 31
0.0
  0
LINE
  5
66DE
  8
0
 10
45.9894073774340697
 20
198.0176592753632008
 30
0.0
 11
44.9898970891955372
 21
199.0176593228605952
 31
0.0
  0
LINE
  5
66DF
  8
0
 10
44.9898970891955372
 20
199.0176593228605952
 30
0.0
 11
44.9898970891955372
 21
202.017659465353006
 31
0.0
  0
LINE
  5
66E0
  8
0
 10
45.9894073774340697
 20
203.0176591636044918
 30
0.0
 11
44.9898970891955372
 21
202.017659465353006
 31
0.0
  0
LINE
  5
66E1
  8
0
 10
117.9842410256388945
 20
202.017659465353006
 30
0.0
 11
117.9842410256388945
 21
199.0176593228605952
 31
0.0
  0
LINE
  5
66E2
  8
0
 10
117.9842410256388945
 20
202.017659465353006
 30
0.0
 11
116.984730737400298
 21
203.0176591636044918
 31
0.0
  0
LINE
  5
66E3
  8
0
 10
116.984730737400298
 20
198.0176592753632008
 30
0.0
 11
117.9842410256388945
 21
199.0176593228605952
 31
0.0
  0
LINE
  5
6A19
  8
0
 10
199.6699450688603861
 20
178.4840451941566926
 30
0.0
 11
199.6699450688603861
 21
181.5254264593058053
 31
0.0
  0
ARC
  5
6A1A
  8
0
 10
206.5027702532186993
 20
180.0047358267312916
 30
0.0
 40
7.0000000000000338
 50
192.5470656040436097
 51
347.4529343959579251
  0
LINE
  5
6A1B
  8
0
 10
213.3355954375768988
 20
181.5254264593058053
 30
0.0
 11
213.3355954375768988
 21
178.4840451941568062
 31
0.0
  0
ARC
  5
6A1C
  8
0
 10
206.5027702532186993
 20
180.0047358267312916
 30
0.0
 40
7.0000000000000311
 50
12.5470656040436097
 51
167.4529343959563903
  0
CIRCLE
  5
6A1D
  8
0
 10
206.5027702532186993
 20
180.0047358267312916
 30
0.0
 40
4.3999999999999906
  0
CIRCLE
  5
6A1E
  8
3
 10
206.502770253218813
 20
180.0047352902892897
 30
0.0
 40
4.8639999999999191
  0
LINE
  5
6A1F
  8
1
 10
196.502770253218813
 20
180.0047352902892897
 30
0.0
 11
216.502770253218813
 21
180.0047352902892897
 31
0.0
  0
LINE
  5
6C42
  8
0
 10
293.5027702532187845
 20
184.2547352902892897
 30
0.0
 11
292.1027702532188073
 21
184.2547352902892897
 31
0.0
  0
LINE
  5
6C43
  8
0
 10
292.1027702532188073
 20
175.7547352902894033
 30
0.0
 11
293.5027702532187845
 21
175.7547352902894033
 31
0.0
  0
LINE
  5
6C47
  8
0
 10
303.2970074090595745
 20
184.5047352902892897
 30
0.0
 11
299.7914453878136101
 21
184.5047352902892897
 31
0.0
  0
LINE
  5
6C4A
  8
0
 10
299.7914453878136101
 20
175.5047352902892897
 30
0.0
 11
303.2970074090595745
 21
175.5047352902892897
 31
0.0
  0
LINE
  5
6C4B
  8
0
 10
292.1027702532188073
 20
175.7217352902893026
 30
0.0
 11
292.1027702532188073
 21
184.2877352902893904
 31
0.0
  0
LINE
  5
6C4C
  8
0
 10
292.1027702532188073
 20
184.2877352902893904
 30
0.0
 11
291.52177025321879
 21
184.8687352902894077
 31
0.0
  0
LINE
  5
6C4D
  8
0
 10
291.52177025321879
 20
175.1407352902893138
 30
0.0
 11
292.1027702532188073
 21
175.7217352902893026
 31
0.0
  0
LINE
  5
6C4E
  8
0
 10
288.0027702532187845
 20
175.7217352902893026
 30
0.0
 11
288.0027702532187845
 21
184.2877352902893904
 31
0.0
  0
LINE
  5
6C4F
  8
0
 10
288.0027702532187845
 20
175.7217352902893026
 30
0.0
 11
288.5837702532188018
 21
175.1407352902893138
 31
0.0
  0
LINE
  5
6C50
  8
0
 10
288.5837702532188018
 20
184.8687352902894077
 30
0.0
 11
288.0027702532187845
 21
184.2877352902893904
 31
0.0
  0
LINE
  5
6C51
  8
0
 10
288.5837702532188018
 20
175.1407352902893138
 30
0.0
 11
288.5837702532188018
 21
184.8687352902894077
 31
0.0
  0
LINE
  5
6C52
  8
0
 10
291.52177025321879
 20
175.1407352902893138
 30
0.0
 11
291.52177025321879
 21
184.8687352902894077
 31
0.0
  0
LINE
  5
6C53
  8
0
 10
291.52177025321879
 20
184.8687352902894077
 30
0.0
 11
288.5837702532188018
 21
184.8687352902894077
 31
0.0
  0
LINE
  5
6C54
  8
0
 10
288.5837702532188018
 20
175.1407352902893138
 30
0.0
 11
291.52177025321879
 21
175.1407352902893138
 31
0.0
  0
LINE
  5
6C55
  8
0
 10
299.7914453878136101
 20
180.5047352902894033
 30
0.0
 11
299.7914453878136101
 21
184.5047352902892897
 31
0.0
  0
LINE
  5
6C56
  8
0
 10
299.7914453878136101
 20
184.5047352902892897
 30
0.0
 11
299.5027702532187845
 21
185.0047352902894033
 31
0.0
  0
LINE
  5
6C57
  8
0
 10
299.5027702532187845
 20
175.0047352902892897
 30
0.0
 11
299.7914453878136101
 21
175.5047352902892897
 31
0.0
  0
LINE
  5
6C59
  8
0
 10
299.7914453878136101
 20
175.5047352902892897
 30
0.0
 11
299.7914453878136101
 21
179.5047352902894033
 31
0.0
  0
LINE
  5
6C5A
  8
0
 10
299.5027702532187845
 20
175.0047352902892897
 30
0.0
 11
299.5027702532187845
 21
185.0047352902894033
 31
0.0
  0
LINE
  5
6C5B
  8
0
 10
299.5027702532187845
 20
185.0047352902894033
 30
0.0
 11
298.5027702532187845
 21
185.0047352902894033
 31
0.0
  0
LINE
  5
6C5C
  8
0
 10
298.5027702532187845
 20
175.0047352902892897
 30
0.0
 11
299.5027702532187845
 21
175.0047352902892897
 31
0.0
  0
LINE
  5
6C5D
  8
0
 10
299.5027702532187845
 20
180.5047352902894033
 30
0.0
 11
300.7268645353756824
 21
180.5047352902894033
 31
0.0
  0
LINE
  5
6C5E
  8
0
 10
299.5027702532187845
 20
179.5047352902894033
 30
0.0
 11
300.7268645353756824
 21
179.5047352902894033
 31
0.0
  0
LINE
  5
6C5F
  8
0
 10
298.5027702532187845
 20
186.0047352902894033
 30
0.0
 11
293.5027702532187845
 21
186.0047352902894033
 31
0.0
  0
LINE
  5
6C60
  8
0
 10
298.5027702532187845
 20
174.0047352902892897
 30
0.0
 11
298.5027702532187845
 21
186.0047352902894033
 31
0.0
  0
LINE
  5
6C61
  8
0
 10
293.5027702532187845
 20
174.0047352902892897
 30
0.0
 11
293.5027702532187845
 21
186.0047352902894033
 31
0.0
  0
LINE
  5
6C62
  8
0
 10
293.5027702532187845
 20
174.0047352902892897
 30
0.0
 11
298.5027702532187845
 21
174.0047352902892897
 31
0.0
  0
POLYLINE
  5
6C63
  8
0
 66
     1
 10
0.0
 20
0.0
 30
0.0
  0
VERTEX
  5
6EAB
  8
0
 10
293.7514815591831052
 20
174.0047352902892897
 30
0.0
  0
VERTEX
  5
6EAC
  8
0
 10
293.6475882435639733
 20
174.7502213573158087
 30
0.0
  0
VERTEX
  5
6EAD
  8
0
 10
293.5689972232655123
 20
175.4979908863803075
 30
0.0
  0
VERTEX
  5
6EAE
  8
0
 10
293.5196878003317806
 20
176.25084047319109
 30
0.0
  0
VERTEX
  5
6EAF
  8
0
 10
293.5027702532187845
 20
177.0047352902892897
 30
0.0
  0
SEQEND
  5
6EB0
  8
0
  0
POLYLINE
  5
6C64
  8
0
 66
     1
 10
0.0
 20
0.0
 30
0.0
  0
VERTEX
  5
6EB1
  8
0
 10
298.5027702532187845
 20
177.0047352902892897
 30
0.0
  0
VERTEX
  5
6EB2
  8
0
 10
298.4860038470691279
 20
176.2542192897251141
 30
0.0
  0
VERTEX
  5
6EB3
  8
0
 10
298.4371232374006127
 20
175.5047352902892897
 30
0.0
  0
VERTEX
  5
6EB4
  8
0
 10
298.3583657543068171
 20
174.7535841267084038
 30
0.0
  0
VERTEX
  5
6EB5
  8
0
 10
298.2540589472545207
 20
174.0047352902892897
 30
0.0
  0
SEQEND
  5
6EB6
  8
0
  0
POLYLINE
  5
6C65
  8
0
 66
     1
 10
0.0
 20
0.0
 30
0.0
  0
VERTEX
  5
6EB7
  8
0
 10
298.2540589472545207
 20
180.0047352902892897
 30
0.0
  0
VERTEX
  5
6EB8
  8
0
 10
298.3579522628734821
 20
179.2592492232629127
 30
0.0
  0
VERTEX
  5
6EB9
  8
0
 10
298.4365432831721137
 20
178.5114796941984139
 30
0.0
  0
VERTEX
  5
6EBA
  8
0
 10
298.4858527061056179
 20
177.7586301073876029
 30
0.0
  0
VERTEX
  5
6EBB
  8
0
 10
298.5027702532187845
 20
177.0047352902892897
 30
0.0
  0
SEQEND
  5
6EBC
  8
0
  0
POLYLINE
  5
6C66
  8
0
 66
     1
 10
0.0
 20
0.0
 30
0.0
  0
VERTEX
  5
6EBD
  8
0
 10
293.5027702532187845
 20
183.0047352902892897
 30
0.0
  0
VERTEX
  5
6EBE
  8
0
 10
293.519536659368498
 20
183.7552512908536073
 30
0.0
  0
VERTEX
  5
6EBF
  8
0
 10
293.5684172690367859
 20
184.5047352902892897
 30
0.0
  0
VERTEX
  5
6EC0
  8
0
 10
293.6471747521305815
 20
185.2558864538702892
 30
0.0
  0
VERTEX
  5
6EC1
  8
0
 10
293.7514815591831052
 20
186.0047352902894033
 30
0.0
  0
SEQEND
  5
6EC2
  8
0
  0
LINE
  5
6C67
  8
0
 10
298.2540589472545207
 20
180.0047352902892897
 30
0.0
 11
293.7514815591831052
 21
180.0047352902892897
 31
0.0
  0
POLYLINE
  5
6C68
  8
0
 66
     1
 10
0.0
 20
0.0
 30
0.0
  0
VERTEX
  5
6EC3
  8
0
 10
298.5027702532187845
 20
183.0047352902892897
 30
0.0
  0
VERTEX
  5
6EC4
  8
0
 10
298.4860038470691279
 20
182.2542192897251141
 30
0.0
  0
VERTEX
  5
6EC5
  8
0
 10
298.4371232374006127
 20
181.5047352902894033
 30
0.0
  0
VERTEX
  5
6EC6
  8
0
 10
298.3583657543068171
 20
180.7535841267084038
 30
0.0
  0
VERTEX
  5
6EC7
  8
0
 10
298.2540589472545207
 20
180.0047352902892897
 30
0.0
  0
SEQEND
  5
6EC8
  8
0
  0
POLYLINE
  5
6C69
  8
0
 66
     1
 10
0.0
 20
0.0
 30
0.0
  0
VERTEX
  5
6EC9
  8
0
 10
298.2540589472545207
 20
186.0047352902894033
 30
0.0
  0
VERTEX
  5
6ECA
  8
0
 10
298.3579522628734821
 20
185.2592492232629127
 30
0.0
  0
VERTEX
  5
6ECB
  8
0
 10
298.4365432831721137
 20
184.5114796941984139
 30
0.0
  0
VERTEX
  5
6ECC
  8
0
 10
298.4858527061056179
 20
183.7586301073876029
 30
0.0
  0
VERTEX
  5
6ECD
  8
0
 10
298.5027702532187845
 20
183.0047352902892897
 30
0.0
  0
SEQEND
  5
6ECE
  8
0
  0
POLYLINE
  5
6C6A
  8
0
 66
     1
 10
0.0
 20
0.0
 30
0.0
  0
VERTEX
  5
6ECF
  8
0
 10
293.5027702532187845
 20
177.0047352902892897
 30
0.0
  0
VERTEX
  5
6ED0
  8
0
 10
293.519536659368498
 20
177.7552512908536073
 30
0.0
  0
VERTEX
  5
6ED1
  8
0
 10
293.5684172690367859
 20
178.5047352902894033
 30
0.0
  0
VERTEX
  5
6ED2
  8
0
 10
293.6471747521305815
 20
179.2558864538702892
 30
0.0
  0
VERTEX
  5
6ED3
  8
0
 10
293.7514815591831052
 20
180.0047352902892897
 30
0.0
  0
SEQEND
  5
6ED4
  8
0
  0
POLYLINE
  5
6C6B
  8
0
 66
     1
 10
0.0
 20
0.0
 30
0.0
  0
VERTEX
  5
6ED5
  8
0
 10
293.7514815591831052
 20
180.0047352902892897
 30
0.0
  0
VERTEX
  5
6ED6
  8
0
 10
293.6475882435639733
 20
180.7502213573158087
 30
0.0
  0
VERTEX
  5
6ED7
  8
0
 10
293.5689972232655123
 20
181.4979908863803075
 30
0.0
  0
VERTEX
  5
6ED8
  8
0
 10
293.5196878003317806
 20
182.25084047319109
 30
0.0
  0
VERTEX
  5
6ED9
  8
0
 10
293.5027702532187845
 20
183.0047352902892897
 30
0.0
  0
SEQEND
  5
6EDA
  8
0
  0
CIRCLE
  5
6C6C
  8
0
 10
305.902770253218705
 20
180.0047352902892897
 30
0.0
 40
5.2000000000000242
  0
CIRCLE
  5
6C6E
  8
0
 10
305.902770253218705
 20
180.0047352902892897
 30
0.0
 40
3.0000000000000249
  0
CIRCLE
  5
6C6F
  8
0
 10
305.902770253218705
 20
180.0047352902892897
 30
0.0
 40
4.8500000000000236
  0
LINE
  5
6C70
  8
3
 10
288.0027702532187845
 20
184.2877352902893904
 30
0.0
 11
292.1027702532188073
 21
184.2877352902893904
 31
0.0
  0
LINE
  5
6C71
  8
3
 10
288.0027702532187845
 20
175.7217352902893026
 30
0.0
 11
292.1027702532188073
 21
175.7217352902893026
 31
0.0
  0
LINE
  5
6C72
  8
1
 10
305.902770253218705
 20
188.204735290289392
 30
0.0
 11
305.902770253218705
 21
171.804735290289301
 31
0.0
  0
LINE
  5
6C73
  8
1
 10
314.1027702532188073
 20
180.0047352902892897
 30
0.0
 11
285.0027702532188982
 21
180.0047352902892897
 31
0.0
  0
LINE
  5
6CA7
  8
0
 10
350.0668718683564862
 20
186.0047352902894033
 30
0.0
 11
343.1386686380810147
 21
186.0047352902894033
 31
0.0
  0
LINE
  5
6CA9
  8
0
 10
343.1386686380810147
 20
186.0047352902894033
 30
0.0
 11
342.439921183115473
 21
184.7944691966297057
 31
0.0
  0
LINE
  5
6CAC
  8
0
 10
342.4399236111336222
 20
175.2149971784984075
 30
0.0
 11
343.1386686380810147
 21
174.0047352902892897
 31
0.0
  0
LINE
  5
6CAD
  8
0
 10
343.1386686380810147
 20
174.0047352902892897
 30
0.0
 11
350.0668718683564862
 21
174.0047352902892897
 31
0.0
  0
LINE
  5
6CAE
  8
0
 10
350.0668718683564862
 20
174.0047352902892897
 30
0.0
 11
353.5309734834942788
 21
180.0047352902894033
 31
0.0
  0
LINE
  5
6CAF
  8
0
 10
353.5309734834942788
 20
180.0047352902894033
 30
0.0
 11
350.0668718683564862
 21
186.0047352902894033
 31
0.0
  0
ARC
  5
6CB0
  8
0
 10
346.6027702532188073
 20
180.0047352902894033
 30
0.0
 40
6.0
 50
228.5903778907307924
 51
131.4096221092692076
  0
ARC
  5
6CB2
  8
0
 10
346.6027702532188073
 20
180.0047352902894033
 30
0.0
 40
5.0
 50
244.1580672368384057
 51
115.8419327631615943
  0
LINE
  5
6CB6
  8
0
 10
333.5027702532187845
 20
183.404735290289409
 30
0.0
 11
332.6027702532188073
 21
183.404735290289409
 31
0.0
  0
LINE
  5
6CB7
  8
0
 10
332.6027702532188073
 20
176.6047352902893977
 30
0.0
 11
333.5027702532187845
 21
176.6047352902893977
 31
0.0
  0
ARC
  5
6CB8
  8
0
 10
346.6027702532188073
 20
180.0047352902894033
 30
0.0
 40
4.5000000000000018
 50
270.0
 51
90.0
  0
LINE
  5
6CBC
  8
0
 10
346.6027702532188073
 20
184.5047352902894033
 30
0.0
 11
342.6069154416517222
 21
184.5047352902894033
 31
0.0
  0
LINE
  5
6CBD
  8
0
 10
342.6069154416517222
 20
175.5047352902892897
 30
0.0
 11
346.6027702532188073
 21
175.5047352902892897
 31
0.0
  0
LINE
  5
6CBE
  8
0
 10
331.1027702532188073
 20
175.1547352902892953
 30
0.0
 11
331.1027702532188073
 21
184.8547352902893977
 31
0.0
  0
LINE
  5
6CBF
  8
0
 10
332.6027702532188073
 20
175.1547352902892953
 30
0.0
 11
332.6027702532188073
 21
184.8547352902893977
 31
0.0
  0
LINE
  5
6CC0
  8
0
 10
332.6027702532188073
 20
184.8547352902893977
 30
0.0
 11
331.1027702532188073
 21
184.8547352902893977
 31
0.0
  0
LINE
  5
6CC1
  8
0
 10
331.1027702532188073
 20
175.1547352902892953
 30
0.0
 11
332.6027702532188073
 21
175.1547352902892953
 31
0.0
  0
LINE
  5
6CC2
  8
0
 10
333.5027702532187845
 20
174.8047352902893863
 30
0.0
 11
333.5027702532187845
 21
185.204735290289392
 31
0.0
  0
LINE
  5
6CC8
  8
0
 10
342.2027702532187732
 20
185.204735290289392
 30
0.0
 11
333.5027702532187845
 21
185.204735290289392
 31
0.0
  0
LINE
  5
6CC9
  8
0
 10
333.5027702532187845
 20
174.8047352902893863
 30
0.0
 11
342.2027702532187732
 21
174.8047352902893863
 31
0.0
  0
LINE
  5
6CCC
  8
0
 10
342.6069154416517222
 20
184.5047352902894033
 30
0.0
 11
342.2027702532187732
 21
185.204735290289392
 31
0.0
  0
LINE
  5
6CCD
  8
0
 10
342.2027702532187732
 20
174.8047352902893863
 30
0.0
 11
342.6069154416517222
 21
175.5047352902892897
 31
0.0
  0
LINE
  5
6CCE
  8
0
 10
342.2027702532187732
 20
174.8047352902893863
 30
0.0
 11
342.2027702532187732
 21
185.204735290289392
 31
0.0
  0
LINE
  5
6CCF
  8
0
 10
342.6069154416517222
 20
175.5047352902892897
 30
0.0
 11
342.6069154416517222
 21
184.5047352902894033
 31
0.0
  0
LINE
  5
6CD1
  8
1
 10
356.5309734834942788
 20
180.0047352902894033
 30
0.0
 11
328.1027702532188073
 21
180.0047352902894033
 31
0.0
  0
LINE
  5
6CD2
  8
1
 10
346.6027702532188073
 20
189.0047352902894033
 30
0.0
 11
346.6027702532188073
 21
171.0047352902894033
 31
0.0
  0
LINE
  5
6CD4
  8
0
 10
299.5027702532187845
 20
226.5047352902894033
 30
0.0
 11
299.5027702532187845
 21
216.5047352902894033
 31
0.0
  0
LINE
  5
6CD5
  8
0
 10
298.5027702532187845
 20
216.5047352902894886
 30
0.0
 11
300.7268645353756824
 21
216.5047352902894033
 31
0.0
  0
LINE
  5
6CD6
  8
0
 10
293.5027702532187845
 20
215.5047352902894886
 30
0.0
 11
293.5027702532187845
 21
227.5047352902894886
 31
0.0
  0
LINE
  5
6CD7
  8
0
 10
293.7514815591829915
 20
228.4329385205649885
 30
0.0
 11
293.5027702532187845
 21
227.5047352902894886
 31
0.0
  0
LINE
  5
6CD8
  8
0
 10
298.5027702532187845
 20
215.5047352902894886
 30
0.0
 11
298.5027702532187845
 21
227.5047352902894886
 31
0.0
  0
LINE
  5
6CD9
  8
0
 10
298.5027702532187845
 20
227.5047352902894886
 30
0.0
 11
298.2540589472545207
 21
228.4329385205649885
 31
0.0
  0
LINE
  5
6CDA
  8
0
 10
298.2540589472545207
 20
214.5765320600139034
 30
0.0
 11
298.5027702532187845
 21
215.5047352902894886
 31
0.0
  0
LINE
  5
6CDB
  8
0
 10
293.5027702532187845
 20
215.5047352902894886
 30
0.0
 11
293.7514815591829915
 21
214.5765320600139034
 31
0.0
  0
LINE
  5
6CDF
  8
0
 10
302.5027702532187845
 20
208.404735290289409
 30
0.0
 11
302.5027702532187845
 21
207.5047352902894033
 31
0.0
  0
LINE
  5
6CE0
  8
0
 10
309.3027702532186822
 20
207.5047352902894033
 30
0.0
 11
309.3027702532186822
 21
208.404735290289409
 31
0.0
  0
LINE
  5
6CE1
  8
0
 10
293.5027702532187845
 20
225.7547352902894886
 30
0.0
 11
292.1027702532186936
 21
225.7547352902894886
 31
0.0
  0
LINE
  5
6CE2
  8
0
 10
292.1027702532186936
 20
217.2547352902894033
 30
0.0
 11
293.5027702532187845
 21
217.2547352902894033
 31
0.0
  0
ARC
  5
6CE3
  8
0
 10
305.902770253218705
 20
221.5047352902894033
 30
0.0
 40
4.5
 50
0.0
 51
90.0
  0
LINE
  5
6CE5
  8
0
 10
299.7914453878136101
 20
217.0325993352896887
 30
0.0
 11
300.7268645353756824
 21
217.0325993352896887
 31
0.0
  0
LINE
  5
6CE6
  8
0
 10
305.902770253218705
 20
226.0047352902894033
 30
0.0
 11
299.7914453878136101
 21
226.0047352902894033
 31
0.0
  0
LINE
  5
6CE8
  8
0
 10
310.4027702532188187
 20
217.5088804787222045
 30
0.0
 11
310.4027702532188187
 21
221.5047352902894033
 31
0.0
  0
LINE
  5
6CEA
  8
0
 10
301.0527702532186822
 20
207.5047352902894033
 30
0.0
 11
301.0527702532186822
 21
206.0047352902894033
 31
0.0
  0
LINE
  5
6CEB
  8
0
 10
310.7527702532187845
 20
206.0047352902894033
 30
0.0
 11
310.7527702532187845
 21
207.5047352902894033
 31
0.0
  0
LINE
  5
6CEC
  8
0
 10
310.7527702532187845
 20
206.0047352902894033
 30
0.0
 11
301.0527702532186822
 21
206.0047352902894033
 31
0.0
  0
LINE
  5
6CED
  8
0
 10
310.7527702532187845
 20
207.5047352902894033
 30
0.0
 11
301.0527702532186822
 21
207.5047352902894033
 31
0.0
  0
LINE
  5
6CEE
  8
0
 10
292.1027702532186936
 20
225.7877352902895041
 30
0.0
 11
291.52177025321879
 21
226.3687352902894077
 31
0.0
  0
LINE
  5
6CEF
  8
0
 10
291.52177025321879
 20
216.640735290289399
 30
0.0
 11
292.1027702532186936
 21
217.2217352902895016
 31
0.0
  0
LINE
  5
6CF0
  8
0
 10
292.1027702532186936
 20
217.2217352902895016
 30
0.0
 11
292.1027702532186936
 21
225.7877352902895041
 31
0.0
  0
LINE
  5
6CF1
  8
0
 10
291.52177025321879
 20
226.3687352902894077
 30
0.0
 11
288.5837702532186881
 21
226.3687352902894077
 31
0.0
  0
LINE
  5
6CF2
  8
0
 10
288.5837702532186881
 20
216.640735290289399
 30
0.0
 11
291.52177025321879
 21
216.640735290289399
 31
0.0
  0
LINE
  5
6CF3
  8
0
 10
291.52177025321879
 20
216.640735290289399
 30
0.0
 11
291.52177025321879
 21
226.3687352902894077
 31
0.0
  0
LINE
  5
6CF4
  8
0
 10
288.0027702532187845
 20
217.2217352902895016
 30
0.0
 11
288.5837702532186881
 21
216.640735290289399
 31
0.0
  0
LINE
  5
6CF5
  8
0
 10
288.5837702532186881
 20
226.3687352902894077
 30
0.0
 11
288.0027702532187845
 21
225.7877352902895041
 31
0.0
  0
LINE
  5
6CF6
  8
0
 10
288.0027702532187845
 20
217.2217352902895016
 30
0.0
 11
288.0027702532187845
 21
225.7877352902895041
 31
0.0
  0
LINE
  5
6CF7
  8
0
 10
288.5837702532186881
 20
216.640735290289399
 30
0.0
 11
288.5837702532186881
 21
226.3687352902894077
 31
0.0
  0
LINE
  5
6CF8
  8
0
 10
299.5027702532187845
 20
216.5297981047561962
 30
0.0
 11
299.7914453878136101
 21
217.0325993352896887
 31
0.0
  0
LINE
  5
6CF9
  8
0
 10
299.7914453878136101
 20
217.0325993352896887
 30
0.0
 11
299.7914453878136101
 21
226.0047352902894033
 31
0.0
  0
LINE
  5
6CFA
  8
0
 10
299.7914453878136101
 20
226.0047352902894033
 30
0.0
 11
299.5027702532187845
 21
226.5047352902894033
 31
0.0
  0
LINE
  5
6CFB
  8
0
 10
299.5027702532187845
 20
226.5047352902894033
 30
0.0
 11
298.5027702532187845
 21
226.5047352902894886
 31
0.0
  0
LINE
  5
6CFC
  8
0
 10
300.789063183000394
 20
217.1047352902891987
 30
0.0
 11
300.7268645353756824
 21
217.0325993352896887
 31
0.0
  0
LINE
  5
6CFD
  8
0
 10
300.7268645353756824
 20
216.5047352902894033
 30
0.0
 11
300.7268645353756824
 21
217.0325993352896887
 31
0.0
  0
LINE
  5
6CFE
  8
0
 10
300.7027702532187163
 20
216.5047352902894033
 30
0.0
 11
300.7027702532187163
 21
208.404735290289409
 31
0.0
  0
LINE
  5
6CFF
  8
0
 10
311.1027702532186936
 20
208.404735290289409
 30
0.0
 11
311.1027702532186936
 21
217.1047352902893977
 31
0.0
  0
LINE
  5
6D00
  8
0
 10
311.1027702532186936
 20
208.404735290289409
 30
0.0
 11
300.7027702532187163
 21
208.404735290289409
 31
0.0
  0
POLYLINE
  5
6D01
  8
0
 66
     1
 10
0.0
 20
0.0
 30
0.0
  0
VERTEX
  5
6EDB
  8
0
 10
301.9069154416516199
 20
217.5088804787222045
 30
0.0
  0
VERTEX
  5
6EDC
  8
0
 10
301.5023515577994999
 20
217.3681839767627935
 30
0.0
  0
VERTEX
  5
6EDD
  8
0
 10
301.3112516889215726
 20
217.2993959693170041
 30
0.0
  0
VERTEX
  5
6EDE
  8
0
 10
301.1325072178811979
 20
217.2338219902565868
 30
0.0
  0
VERTEX
  5
6EDF
  8
0
 10
300.9493591800663808
 20
217.1654690064954991
 30
0.0
  0
VERTEX
  5
6EE0
  8
0
 10
300.789063183000394
 20
217.1047352902891987
 30
0.0
  0
SEQEND
  5
6EE1
  8
0
  0
LINE
  5
6D02
  8
0
 10
311.1027702532186936
 20
217.1047352902893977
 30
0.0
 11
310.4027702532188187
 21
217.5088804787222045
 31
0.0
  0
LINE
  5
6D03
  8
0
 10
311.1027702532186936
 20
217.1047352902893977
 30
0.0
 11
300.789063183000394
 21
217.1047352902891987
 31
0.0
  0
LINE
  5
6D04
  8
0
 10
310.4027702532188187
 20
217.5088804787222045
 30
0.0
 11
301.9069154416516199
 21
217.5088804787222045
 31
0.0
  0
POLYLINE
  5
6D05
  8
0
 66
     1
 10
0.0
 20
0.0
 30
0.0
  0
VERTEX
  5
6EE2
  8
0
 10
293.7514815591829915
 20
214.5765320600139034
 30
0.0
  0
VERTEX
  5
6EE3
  8
0
 10
293.6475882435639733
 20
215.0069386414888015
 30
0.0
  0
VERTEX
  5
6EE4
  8
0
 10
293.5689972232655123
 20
215.4386635803859065
 30
0.0
  0
VERTEX
  5
6EE5
  8
0
 10
293.5196878003317806
 20
215.8733214919905095
 30
0.0
  0
VERTEX
  5
6EE6
  8
0
 10
293.5027702532187845
 20
216.3085828675827997
 30
0.0
  0
SEQEND
  5
6EE7
  8
0
  0
LINE
  5
6D06
  8
0
 10
298.2540589472545207
 20
214.5765320600139034
 30
0.0
 11
293.7514815591829915
 21
214.5765320600139034
 31
0.0
  0
POLYLINE
  5
6D07
  8
0
 66
     1
 10
0.0
 20
0.0
 30
0.0
  0
VERTEX
  5
6EE8
  8
0
 10
298.5027702532187845
 20
216.3085828675827997
 30
0.0
  0
VERTEX
  5
6EE9
  8
0
 10
298.4860038470690142
 20
215.8752722526259049
 30
0.0
  0
VERTEX
  5
6EEA
  8
0
 10
298.4371232374006127
 20
215.4425574637982947
 30
0.0
  0
VERTEX
  5
6EEB
  8
0
 10
298.3583657543068171
 20
215.0088801373028105
 30
0.0
  0
VERTEX
  5
6EEC
  8
0
 10
298.2540589472545207
 20
214.5765320600139034
 30
0.0
  0
SEQEND
  5
6EED
  8
0
  0
POLYLINE
  5
6D08
  8
0
 66
     1
 10
0.0
 20
0.0
 30
0.0
  0
VERTEX
  5
6EEE
  8
0
 10
293.5027702532187845
 20
216.3085828675827997
 30
0.0
  0
VERTEX
  5
6EEF
  8
0
 10
293.519536659368498
 20
216.7418934825398082
 30
0.0
  0
VERTEX
  5
6EF0
  8
0
 10
293.5684172690367859
 20
217.1746082713673047
 30
0.0
  0
VERTEX
  5
6EF1
  8
0
 10
293.6471747521305815
 20
217.6082855978629027
 30
0.0
  0
VERTEX
  5
6EF2
  8
0
 10
293.7514815591829915
 20
218.040633675151696
 30
0.0
  0
SEQEND
  5
6EF3
  8
0
  0
POLYLINE
  5
6D09
  8
0
 66
     1
 10
0.0
 20
0.0
 30
0.0
  0
VERTEX
  5
6EF4
  8
0
 10
298.2540589472545207
 20
218.040633675151696
 30
0.0
  0
VERTEX
  5
6EF5
  8
0
 10
298.3579522628734821
 20
217.6102270936767979
 30
0.0
  0
VERTEX
  5
6EF6
  8
0
 10
298.4365432831721137
 20
217.178502154779693
 30
0.0
  0
VERTEX
  5
6EF7
  8
0
 10
298.4858527061056179
 20
216.74384424317509
 30
0.0
  0
VERTEX
  5
6EF8
  8
0
 10
298.5027702532187845
 20
216.3085828675827997
 30
0.0
  0
SEQEND
  5
6EF9
  8
0
  0
POLYLINE
  5
6D0A
  8
0
 66
     1
 10
0.0
 20
0.0
 30
0.0
  0
VERTEX
  5
6EFA
  8
0
 10
293.5027702532187845
 20
221.5047352902894886
 30
0.0
  0
VERTEX
  5
6EFB
  8
0
 10
293.5204003879672996
 20
222.3957391570820903
 30
0.0
  0
VERTEX
  5
6EFC
  8
0
 10
293.572179166472381
 20
223.286743023874692
 30
0.0
  0
VERTEX
  5
6EFD
  8
0
 10
293.6497891477063718
 20
224.1287085611637053
 30
0.0
  0
VERTEX
  5
6EFE
  8
0
 10
293.7514815591829915
 20
224.9688369054271959
 30
0.0
  0
SEQEND
  5
6EFF
  8
0
  0
POLYLINE
  5
6D0B
  8
0
 66
     1
 10
0.0
 20
0.0
 30
0.0
  0
VERTEX
  5
6F00
  8
0
 10
293.7514815591829915
 20
218.040633675151696
 30
0.0
  0
VERTEX
  5
6F01
  8
0
 10
293.6475882435639733
 20
218.9014468381014069
 30
0.0
  0
VERTEX
  5
6F02
  8
0
 10
293.5689972232655123
 20
219.7648967158957873
 30
0.0
  0
VERTEX
  5
6F03
  8
0
 10
293.5196878003317806
 20
220.6342125391047091
 30
0.0
  0
VERTEX
  5
6F04
  8
0
 10
293.5027702532187845
 20
221.5047352902894886
 30
0.0
  0
SEQEND
  5
6F05
  8
0
  0
LINE
  5
6D0C
  8
0
 10
298.2540589472545207
 20
218.040633675151696
 30
0.0
 11
293.7514815591829915
 21
218.040633675151696
 31
0.0
  0
POLYLINE
  5
6D0D
  8
0
 66
     1
 10
0.0
 20
0.0
 30
0.0
  0
VERTEX
  5
6F06
  8
0
 10
298.5027702532187845
 20
221.5047352902894886
 30
0.0
  0
VERTEX
  5
6F07
  8
0
 10
298.4851401184702127
 20
220.6137314234968869
 30
0.0
  0
VERTEX
  5
6F08
  8
0
 10
298.4333613399650744
 20
219.7227275567042
 30
0.0
  0
VERTEX
  5
6F09
  8
0
 10
298.3557513587310837
 20
218.8807620194151866
 30
0.0
  0
VERTEX
  5
6F0A
  8
0
 10
298.2540589472545207
 20
218.040633675151696
 30
0.0
  0
SEQEND
  5
6F0B
  8
0
  0
POLYLINE
  5
6D0E
  8
0
 66
     1
 10
0.0
 20
0.0
 30
0.0
  0
VERTEX
  5
6F0C
  8
0
 10
298.2540589472545207
 20
224.9688369054271959
 30
0.0
  0
VERTEX
  5
6F0D
  8
0
 10
298.3579522628734821
 20
224.1080237424773998
 30
0.0
  0
VERTEX
  5
6F0E
  8
0
 10
298.4365432831721137
 20
223.2445738646831046
 30
0.0
  0
VERTEX
  5
6F0F
  8
0
 10
298.4858527061056179
 20
222.3752580414742113
 30
0.0
  0
VERTEX
  5
6F10
  8
0
 10
298.5027702532187845
 20
221.5047352902894886
 30
0.0
  0
SEQEND
  5
6F11
  8
0
  0
LINE
  5
6D0F
  8
0
 10
298.2540589472545207
 20
228.4329385205649885
 30
0.0
 11
293.7514815591829915
 21
228.4329385205649885
 31
0.0
  0
POLYLINE
  5
6D10
  8
0
 66
     1
 10
0.0
 20
0.0
 30
0.0
  0
VERTEX
  5
6F12
  8
0
 10
293.5027702532187845
 20
226.7008877129960922
 30
0.0
  0
VERTEX
  5
6F13
  8
0
 10
293.519536659368498
 20
227.134198327952987
 30
0.0
  0
VERTEX
  5
6F14
  8
0
 10
293.5684172690367859
 20
227.5669131167805972
 30
0.0
  0
VERTEX
  5
6F15
  8
0
 10
293.6471747521305815
 20
228.0005904432761952
 30
0.0
  0
VERTEX
  5
6F16
  8
0
 10
293.7514815591829915
 20
228.4329385205649885
 30
0.0
  0
SEQEND
  5
6F17
  8
0
  0
POLYLINE
  5
6D11
  8
0
 66
     1
 10
0.0
 20
0.0
 30
0.0
  0
VERTEX
  5
6F18
  8
0
 10
293.7514815591829915
 20
224.9688369054271959
 30
0.0
  0
VERTEX
  5
6F19
  8
0
 10
293.6475882435639733
 20
225.399243486902094
 30
0.0
  0
VERTEX
  5
6F1A
  8
0
 10
293.5689972232655123
 20
225.8309684257991989
 30
0.0
  0
VERTEX
  5
6F1B
  8
0
 10
293.5196878003317806
 20
226.2656263374036882
 30
0.0
  0
VERTEX
  5
6F1C
  8
0
 10
293.5027702532187845
 20
226.7008877129960922
 30
0.0
  0
SEQEND
  5
6F1D
  8
0
  0
LINE
  5
6D12
  8
0
 10
298.2540589472545207
 20
224.9688369054271959
 30
0.0
 11
293.7514815591829915
 21
224.9688369054271959
 31
0.0
  0
POLYLINE
  5
6D13
  8
0
 66
     1
 10
0.0
 20
0.0
 30
0.0
  0
VERTEX
  5
6F1E
  8
0
 10
298.5027702532187845
 20
226.7008877129960922
 30
0.0
  0
VERTEX
  5
6F1F
  8
0
 10
298.4860038470690142
 20
226.2675770980391121
 30
0.0
  0
VERTEX
  5
6F20
  8
0
 10
298.4371232374006127
 20
225.8348623092117009
 30
0.0
  0
VERTEX
  5
6F21
  8
0
 10
298.3583657543068171
 20
225.4011849827161029
 30
0.0
  0
VERTEX
  5
6F22
  8
0
 10
298.2540589472545207
 20
224.9688369054271959
 30
0.0
  0
SEQEND
  5
6F23
  8
0
  0
POLYLINE
  5
6D14
  8
0
 66
     1
 10
0.0
 20
0.0
 30
0.0
  0
VERTEX
  5
6F24
  8
0
 10
298.2540589472545207
 20
228.4329385205649885
 30
0.0
  0
VERTEX
  5
6F25
  8
0
 10
298.3579522628734821
 20
228.0025319390900904
 30
0.0
  0
VERTEX
  5
6F26
  8
0
 10
298.4365432831721137
 20
227.5708070001929002
 30
0.0
  0
VERTEX
  5
6F27
  8
0
 10
298.4858527061056179
 20
227.1361490885884109
 30
0.0
  0
VERTEX
  5
6F28
  8
0
 10
298.5027702532187845
 20
226.7008877129960922
 30
0.0
  0
SEQEND
  5
6F29
  8
0
  0
LINE
  5
6D15
  8
3
 10
288.0027702532187845
 20
217.2217352902895016
 30
0.0
 11
292.1027702532186936
 21
217.2217352902895016
 31
0.0
  0
LINE
  5
6D16
  8
3
 10
288.0027702532187845
 20
225.7877352902895041
 30
0.0
 11
292.1027702532186936
 21
225.7877352902895041
 31
0.0
  0
LINE
  5
6D17
  8
1
 10
313.4027702532188187
 20
221.5047352902894033
 30
0.0
 11
285.0027702532187845
 21
221.5047352902894886
 31
0.0
  0
LINE
  5
6D18
  8
1
 10
305.902770253218705
 20
229.0047352902894033
 30
0.0
 11
305.902770253218705
 21
203.0047352902894033
 31
0.0
  0
LINE
  5
6D41
  8
0
 10
399.5027702532187845
 20
226.5047352902894033
 30
0.0
 11
399.5027702532187845
 21
216.5047352902894033
 31
0.0
  0
LINE
  5
6D42
  8
0
 10
398.5027702532187845
 20
216.5047352902894886
 30
0.0
 11
400.7268645353756256
 21
216.5047352902894033
 31
0.0
  0
LINE
  5
6D43
  8
0
 10
393.5027702532187845
 20
215.5047352902894886
 30
0.0
 11
393.5027702532187845
 21
227.5047352902894886
 31
0.0
  0
LINE
  5
6D44
  8
0
 10
393.7514815591829915
 20
228.4329385205649885
 30
0.0
 11
393.5027702532187845
 21
227.5047352902894886
 31
0.0
  0
LINE
  5
6D45
  8
0
 10
398.5027702532187845
 20
215.5047352902894886
 30
0.0
 11
398.5027702532187845
 21
227.5047352902894886
 31
0.0
  0
LINE
  5
6D46
  8
0
 10
398.5027702532187845
 20
227.5047352902894886
 30
0.0
 11
398.2540589472545207
 21
228.4329385205649885
 31
0.0
  0
LINE
  5
6D47
  8
0
 10
398.2540589472545207
 20
214.5765320600139034
 30
0.0
 11
398.5027702532187845
 21
215.5047352902894886
 31
0.0
  0
LINE
  5
6D48
  8
0
 10
393.5027702532187845
 20
215.5047352902894886
 30
0.0
 11
393.7514815591829915
 21
214.5765320600139034
 31
0.0
  0
LINE
  5
6D49
  8
0
 10
402.5027702532187277
 20
208.404735290289409
 30
0.0
 11
402.5027702532187277
 21
207.5047352902894033
 31
0.0
  0
LINE
  5
6D4A
  8
0
 10
409.3027702532186822
 20
207.5047352902894033
 30
0.0
 11
409.3027702532186822
 21
208.404735290289409
 31
0.0
  0
LINE
  5
6D4B
  8
0
 10
393.5027702532187845
 20
225.7547352902894886
 30
0.0
 11
392.1027702532186936
 21
225.7547352902894886
 31
0.0
  0
LINE
  5
6D4C
  8
0
 10
392.1027702532186936
 20
217.2547352902894033
 30
0.0
 11
393.5027702532187845
 21
217.2547352902894033
 31
0.0
  0
ARC
  5
6D4D
  8
0
 10
405.902770253218705
 20
221.5047352902894033
 30
0.0
 40
4.5
 50
0.0
 51
90.0
  0
LINE
  5
6D4E
  8
0
 10
399.7914453878136101
 20
217.0325993352896887
 30
0.0
 11
400.7268645353756256
 21
217.0325993352896887
 31
0.0
  0
LINE
  5
6D4F
  8
0
 10
405.902770253218705
 20
226.0047352902894033
 30
0.0
 11
399.7914453878136101
 21
226.0047352902894033
 31
0.0
  0
LINE
  5
6D50
  8
0
 10
410.402770253218705
 20
217.5088804787222045
 30
0.0
 11
410.402770253218705
 21
221.5047352902894033
 31
0.0
  0
LINE
  5
6D51
  8
0
 10
401.0527702532186822
 20
207.5047352902894033
 30
0.0
 11
401.0527702532186822
 21
206.0047352902894033
 31
0.0
  0
LINE
  5
6D52
  8
0
 10
410.7527702532187845
 20
206.0047352902894033
 30
0.0
 11
410.7527702532187845
 21
207.5047352902894033
 31
0.0
  0
LINE
  5
6D53
  8
0
 10
410.7527702532187845
 20
206.0047352902894033
 30
0.0
 11
401.0527702532186822
 21
206.0047352902894033
 31
0.0
  0
LINE
  5
6D54
  8
0
 10
410.7527702532187845
 20
207.5047352902894033
 30
0.0
 11
401.0527702532186822
 21
207.5047352902894033
 31
0.0
  0
LINE
  5
6D55
  8
0
 10
392.1027702532186936
 20
225.7877352902895041
 30
0.0
 11
391.52177025321879
 21
226.3687352902894077
 31
0.0
  0
LINE
  5
6D56
  8
0
 10
391.52177025321879
 20
216.640735290289399
 30
0.0
 11
392.1027702532186936
 21
217.2217352902895016
 31
0.0
  0
LINE
  5
6D57
  8
0
 10
392.1027702532186936
 20
217.2217352902895016
 30
0.0
 11
392.1027702532186936
 21
225.7877352902895041
 31
0.0
  0
LINE
  5
6D58
  8
0
 10
391.52177025321879
 20
226.3687352902894077
 30
0.0
 11
388.5837702532186881
 21
226.3687352902894077
 31
0.0
  0
LINE
  5
6D59
  8
0
 10
388.5837702532186881
 20
216.640735290289399
 30
0.0
 11
391.52177025321879
 21
216.640735290289399
 31
0.0
  0
LINE
  5
6D5A
  8
0
 10
391.52177025321879
 20
216.640735290289399
 30
0.0
 11
391.52177025321879
 21
226.3687352902894077
 31
0.0
  0
LINE
  5
6D5B
  8
0
 10
388.0027702532187845
 20
217.2217352902895016
 30
0.0
 11
388.5837702532186881
 21
216.640735290289399
 31
0.0
  0
LINE
  5
6D5C
  8
0
 10
388.5837702532186881
 20
226.3687352902894077
 30
0.0
 11
388.0027702532187845
 21
225.7877352902895041
 31
0.0
  0
LINE
  5
6D5D
  8
0
 10
388.0027702532187845
 20
217.2217352902895016
 30
0.0
 11
388.0027702532187845
 21
225.7877352902895041
 31
0.0
  0
LINE
  5
6D5E
  8
0
 10
388.5837702532186881
 20
216.640735290289399
 30
0.0
 11
388.5837702532186881
 21
226.3687352902894077
 31
0.0
  0
LINE
  5
6D5F
  8
0
 10
399.5027702532187845
 20
216.5297981047561962
 30
0.0
 11
399.7914453878136101
 21
217.0325993352896887
 31
0.0
  0
LINE
  5
6D60
  8
0
 10
399.7914453878136101
 20
217.0325993352896887
 30
0.0
 11
399.7914453878136101
 21
226.0047352902894033
 31
0.0
  0
LINE
  5
6D61
  8
0
 10
399.7914453878136101
 20
226.0047352902894033
 30
0.0
 11
399.5027702532187845
 21
226.5047352902894033
 31
0.0
  0
LINE
  5
6D62
  8
0
 10
399.5027702532187845
 20
226.5047352902894033
 30
0.0
 11
398.5027702532187845
 21
226.5047352902894886
 31
0.0
  0
LINE
  5
6D63
  8
0
 10
400.7890631830002803
 20
217.1047352902891987
 30
0.0
 11
400.7268645353756256
 21
217.0325993352896887
 31
0.0
  0
LINE
  5
6D64
  8
0
 10
400.7268645353756256
 20
216.5047352902894033
 30
0.0
 11
400.7268645353756256
 21
217.0325993352896887
 31
0.0
  0
LINE
  5
6D65
  8
0
 10
400.7027702532186026
 20
216.5047352902894033
 30
0.0
 11
400.7027702532186026
 21
208.404735290289409
 31
0.0
  0
LINE
  5
6D66
  8
0
 10
411.1027702532186936
 20
208.404735290289409
 30
0.0
 11
411.1027702532186936
 21
217.1047352902893977
 31
0.0
  0
LINE
  5
6D67
  8
0
 10
411.1027702532186936
 20
208.404735290289409
 30
0.0
 11
400.7027702532186026
 21
208.404735290289409
 31
0.0
  0
POLYLINE
  5
6D68
  8
0
 66
     1
 10
0.0
 20
0.0
 30
0.0
  0
VERTEX
  5
6F2A
  8
0
 10
401.9069154416516199
 20
217.5088804787222045
 30
0.0
  0
VERTEX
  5
6F2B
  8
0
 10
401.5023515577993862
 20
217.3681839767627935
 30
0.0
  0
VERTEX
  5
6F2C
  8
0
 10
401.3112516889215158
 20
217.2993959693170041
 30
0.0
  0
VERTEX
  5
6F2D
  8
0
 10
401.1325072178811979
 20
217.2338219902565868
 30
0.0
  0
VERTEX
  5
6F2E
  8
0
 10
400.9493591800663808
 20
217.1654690064954991
 30
0.0
  0
VERTEX
  5
6F2F
  8
0
 10
400.7890631830002803
 20
217.1047352902891987
 30
0.0
  0
SEQEND
  5
6F30
  8
0
  0
LINE
  5
6D69
  8
0
 10
411.1027702532186936
 20
217.1047352902893977
 30
0.0
 11
410.402770253218705
 21
217.5088804787222045
 31
0.0
  0
LINE
  5
6D6A
  8
0
 10
411.1027702532186936
 20
217.1047352902893977
 30
0.0
 11
400.7890631830002803
 21
217.1047352902891987
 31
0.0
  0
LINE
  5
6D6B
  8
0
 10
410.402770253218705
 20
217.5088804787222045
 30
0.0
 11
401.9069154416516199
 21
217.5088804787222045
 31
0.0
  0
POLYLINE
  5
6D6C
  8
0
 66
     1
 10
0.0
 20
0.0
 30
0.0
  0
VERTEX
  5
6F31
  8
0
 10
393.7514815591829915
 20
214.5765320600139034
 30
0.0
  0
VERTEX
  5
6F32
  8
0
 10
393.6475882435639733
 20
215.0069386414888015
 30
0.0
  0
VERTEX
  5
6F33
  8
0
 10
393.5689972232655123
 20
215.4386635803859065
 30
0.0
  0
VERTEX
  5
6F34
  8
0
 10
393.5196878003317806
 20
215.8733214919905095
 30
0.0
  0
VERTEX
  5
6F35
  8
0
 10
393.5027702532187845
 20
216.3085828675827997
 30
0.0
  0
SEQEND
  5
6F36
  8
0
  0
LINE
  5
6D6D
  8
0
 10
398.2540589472545207
 20
214.5765320600139034
 30
0.0
 11
393.7514815591829915
 21
214.5765320600139034
 31
0.0
  0
POLYLINE
  5
6D6E
  8
0
 66
     1
 10
0.0
 20
0.0
 30
0.0
  0
VERTEX
  5
6F37
  8
0
 10
398.5027702532187845
 20
216.3085828675827997
 30
0.0
  0
VERTEX
  5
6F38
  8
0
 10
398.4860038470690142
 20
215.8752722526259049
 30
0.0
  0
VERTEX
  5
6F39
  8
0
 10
398.4371232374006127
 20
215.4425574637982947
 30
0.0
  0
VERTEX
  5
6F3A
  8
0
 10
398.3583657543068171
 20
215.0088801373028105
 30
0.0
  0
VERTEX
  5
6F3B
  8
0
 10
398.2540589472545207
 20
214.5765320600139034
 30
0.0
  0
SEQEND
  5
6F3C
  8
0
  0
POLYLINE
  5
6D6F
  8
0
 66
     1
 10
0.0
 20
0.0
 30
0.0
  0
VERTEX
  5
6F3D
  8
0
 10
393.5027702532187845
 20
216.3085828675827997
 30
0.0
  0
VERTEX
  5
6F3E
  8
0
 10
393.519536659368498
 20
216.7418934825398082
 30
0.0
  0
VERTEX
  5
6F3F
  8
0
 10
393.5684172690367859
 20
217.1746082713673047
 30
0.0
  0
VERTEX
  5
6F40
  8
0
 10
393.6471747521306952
 20
217.6082855978629027
 30
0.0
  0
VERTEX
  5
6F41
  8
0
 10
393.7514815591829915
 20
218.040633675151696
 30
0.0
  0
SEQEND
  5
6F42
  8
0
  0
POLYLINE
  5
6D70
  8
0
 66
     1
 10
0.0
 20
0.0
 30
0.0
  0
VERTEX
  5
6F43
  8
0
 10
398.2540589472545207
 20
218.040633675151696
 30
0.0
  0
VERTEX
  5
6F44
  8
0
 10
398.3579522628734821
 20
217.6102270936767979
 30
0.0
  0
VERTEX
  5
6F45
  8
0
 10
398.4365432831721137
 20
217.178502154779693
 30
0.0
  0
VERTEX
  5
6F46
  8
0
 10
398.4858527061056179
 20
216.74384424317509
 30
0.0
  0
VERTEX
  5
6F47
  8
0
 10
398.5027702532187845
 20
216.3085828675827997
 30
0.0
  0
SEQEND
  5
6F48
  8
0
  0
POLYLINE
  5
6D71
  8
0
 66
     1
 10
0.0
 20
0.0
 30
0.0
  0
VERTEX
  5
6F49
  8
0
 10
393.5027702532187845
 20
221.5047352902894886
 30
0.0
  0
VERTEX
  5
6F4A
  8
0
 10
393.5204003879672996
 20
222.3957391570820903
 30
0.0
  0
VERTEX
  5
6F4B
  8
0
 10
393.572179166472381
 20
223.286743023874692
 30
0.0
  0
VERTEX
  5
6F4C
  8
0
 10
393.6497891477063718
 20
224.1287085611637053
 30
0.0
  0
VERTEX
  5
6F4D
  8
0
 10
393.7514815591829915
 20
224.9688369054271959
 30
0.0
  0
SEQEND
  5
6F4E
  8
0
  0
POLYLINE
  5
6D72
  8
0
 66
     1
 10
0.0
 20
0.0
 30
0.0
  0
VERTEX
  5
6F4F
  8
0
 10
393.7514815591829915
 20
218.040633675151696
 30
0.0
  0
VERTEX
  5
6F50
  8
0
 10
393.6475882435639733
 20
218.9014468381014069
 30
0.0
  0
VERTEX
  5
6F51
  8
0
 10
393.5689972232655123
 20
219.7648967158957873
 30
0.0
  0
VERTEX
  5
6F52
  8
0
 10
393.5196878003317806
 20
220.6342125391047091
 30
0.0
  0
VERTEX
  5
6F53
  8
0
 10
393.5027702532187845
 20
221.5047352902894886
 30
0.0
  0
SEQEND
  5
6F54
  8
0
  0
LINE
  5
6D73
  8
0
 10
398.2540589472545207
 20
218.040633675151696
 30
0.0
 11
393.7514815591829915
 21
218.040633675151696
 31
0.0
  0
POLYLINE
  5
6D74
  8
0
 66
     1
 10
0.0
 20
0.0
 30
0.0
  0
VERTEX
  5
6F55
  8
0
 10
398.5027702532187845
 20
221.5047352902894886
 30
0.0
  0
VERTEX
  5
6F56
  8
0
 10
398.4851401184702127
 20
220.6137314234968869
 30
0.0
  0
VERTEX
  5
6F57
  8
0
 10
398.4333613399650744
 20
219.7227275567042
 30
0.0
  0
VERTEX
  5
6F58
  8
0
 10
398.3557513587310837
 20
218.8807620194151866
 30
0.0
  0
VERTEX
  5
6F59
  8
0
 10
398.2540589472545207
 20
218.040633675151696
 30
0.0
  0
SEQEND
  5
6F5A
  8
0
  0
POLYLINE
  5
6D75
  8
0
 66
     1
 10
0.0
 20
0.0
 30
0.0
  0
VERTEX
  5
6F5B
  8
0
 10
398.2540589472545207
 20
224.9688369054271959
 30
0.0
  0
VERTEX
  5
6F5C
  8
0
 10
398.3579522628734821
 20
224.1080237424773998
 30
0.0
  0
VERTEX
  5
6F5D
  8
0
 10
398.4365432831721137
 20
223.2445738646831046
 30
0.0
  0
VERTEX
  5
6F5E
  8
0
 10
398.4858527061056179
 20
222.3752580414742113
 30
0.0
  0
VERTEX
  5
6F5F
  8
0
 10
398.5027702532187845
 20
221.5047352902894886
 30
0.0
  0
SEQEND
  5
6F60
  8
0
  0
LINE
  5
6D76
  8
0
 10
398.2540589472545207
 20
228.4329385205649885
 30
0.0
 11
393.7514815591829915
 21
228.4329385205649885
 31
0.0
  0
POLYLINE
  5
6D77
  8
0
 66
     1
 10
0.0
 20
0.0
 30
0.0
  0
VERTEX
  5
6F61
  8
0
 10
393.5027702532187845
 20
226.7008877129960922
 30
0.0
  0
VERTEX
  5
6F62
  8
0
 10
393.519536659368498
 20
227.134198327952987
 30
0.0
  0
VERTEX
  5
6F63
  8
0
 10
393.5684172690367859
 20
227.5669131167805972
 30
0.0
  0
VERTEX
  5
6F64
  8
0
 10
393.6471747521306952
 20
228.0005904432761952
 30
0.0
  0
VERTEX
  5
6F65
  8
0
 10
393.7514815591829915
 20
228.4329385205649885
 30
0.0
  0
SEQEND
  5
6F66
  8
0
  0
POLYLINE
  5
6D78
  8
0
 66
     1
 10
0.0
 20
0.0
 30
0.0
  0
VERTEX
  5
6F67
  8
0
 10
393.7514815591829915
 20
224.9688369054271959
 30
0.0
  0
VERTEX
  5
6F68
  8
0
 10
393.6475882435639733
 20
225.399243486902094
 30
0.0
  0
VERTEX
  5
6F69
  8
0
 10
393.5689972232655123
 20
225.8309684257991989
 30
0.0
  0
VERTEX
  5
6F6A
  8
0
 10
393.5196878003317806
 20
226.2656263374036882
 30
0.0
  0
VERTEX
  5
6F6B
  8
0
 10
393.5027702532187845
 20
226.7008877129960922
 30
0.0
  0
SEQEND
  5
6F6C
  8
0
  0
LINE
  5
6D79
  8
0
 10
398.2540589472545207
 20
224.9688369054271959
 30
0.0
 11
393.7514815591829915
 21
224.9688369054271959
 31
0.0
  0
POLYLINE
  5
6D7A
  8
0
 66
     1
 10
0.0
 20
0.0
 30
0.0
  0
VERTEX
  5
6F6D
  8
0
 10
398.5027702532187845
 20
226.7008877129960922
 30
0.0
  0
VERTEX
  5
6F6E
  8
0
 10
398.4860038470690142
 20
226.2675770980391121
 30
0.0
  0
VERTEX
  5
6F6F
  8
0
 10
398.4371232374006127
 20
225.8348623092117009
 30
0.0
  0
VERTEX
  5
6F70
  8
0
 10
398.3583657543068171
 20
225.4011849827161029
 30
0.0
  0
VERTEX
  5
6F71
  8
0
 10
398.2540589472545207
 20
224.9688369054271959
 30
0.0
  0
SEQEND
  5
6F72
  8
0
  0
POLYLINE
  5
6D7B
  8
0
 66
     1
 10
0.0
 20
0.0
 30
0.0
  0
VERTEX
  5
6F73
  8
0
 10
398.2540589472545207
 20
228.4329385205649885
 30
0.0
  0
VERTEX
  5
6F74
  8
0
 10
398.3579522628734821
 20
228.0025319390900904
 30
0.0
  0
VERTEX
  5
6F75
  8
0
 10
398.4365432831721137
 20
227.5708070001929002
 30
0.0
  0
VERTEX
  5
6F76
  8
0
 10
398.4858527061056179
 20
227.1361490885884109
 30
0.0
  0
VERTEX
  5
6F77
  8
0
 10
398.5027702532187845
 20
226.7008877129960922
 30
0.0
  0
SEQEND
  5
6F78
  8
0
  0
LINE
  5
6D7C
  8
3
 10
388.0027702532187845
 20
217.2217352902895016
 30
0.0
 11
392.1027702532186936
 21
217.2217352902895016
 31
0.0
  0
LINE
  5
6D7D
  8
3
 10
388.0027702532187845
 20
225.7877352902895041
 30
0.0
 11
392.1027702532186936
 21
225.7877352902895041
 31
0.0
  0
LINE
  5
6D7E
  8
1
 10
413.402770253218705
 20
221.5047352902894033
 30
0.0
 11
385.0027702532187845
 21
221.5047352902894886
 31
0.0
  0
LINE
  5
6D7F
  8
1
 10
405.902770253218705
 20
229.0047352902894033
 30
0.0
 11
405.902770253218705
 21
203.0047352902894033
 31
0.0
  0
LINE
  5
6D80
  8
0
 10
393.5027702532187845
 20
184.2547352902892897
 30
0.0
 11
392.1027702532188073
 21
184.2547352902892897
 31
0.0
  0
LINE
  5
6D81
  8
0
 10
392.1027702532188073
 20
175.7547352902894033
 30
0.0
 11
393.5027702532187845
 21
175.7547352902894033
 31
0.0
  0
LINE
  5
6D82
  8
0
 10
403.2970074090595745
 20
184.5047352902892897
 30
0.0
 11
399.7914453878136101
 21
184.5047352902892897
 31
0.0
  0
LINE
  5
6D83
  8
0
 10
399.7914453878136101
 20
175.5047352902892897
 30
0.0
 11
403.2970074090595745
 21
175.5047352902892897
 31
0.0
  0
LINE
  5
6D84
  8
0
 10
392.1027702532188073
 20
175.7217352902893026
 30
0.0
 11
392.1027702532188073
 21
184.2877352902893904
 31
0.0
  0
LINE
  5
6D85
  8
0
 10
392.1027702532188073
 20
184.2877352902893904
 30
0.0
 11
391.52177025321879
 21
184.8687352902894077
 31
0.0
  0
LINE
  5
6D86
  8
0
 10
391.52177025321879
 20
175.1407352902893138
 30
0.0
 11
392.1027702532188073
 21
175.7217352902893026
 31
0.0
  0
LINE
  5
6D87
  8
0
 10
388.0027702532187845
 20
175.7217352902893026
 30
0.0
 11
388.0027702532187845
 21
184.2877352902893904
 31
0.0
  0
LINE
  5
6D88
  8
0
 10
388.0027702532187845
 20
175.7217352902893026
 30
0.0
 11
388.5837702532188018
 21
175.1407352902893138
 31
0.0
  0
LINE
  5
6D89
  8
0
 10
388.5837702532188018
 20
184.8687352902894077
 30
0.0
 11
388.0027702532187845
 21
184.2877352902893904
 31
0.0
  0
LINE
  5
6D8A
  8
0
 10
388.5837702532188018
 20
175.1407352902893138
 30
0.0
 11
388.5837702532188018
 21
184.8687352902894077
 31
0.0
  0
LINE
  5
6D8B
  8
0
 10
391.52177025321879
 20
175.1407352902893138
 30
0.0
 11
391.52177025321879
 21
184.8687352902894077
 31
0.0
  0
LINE
  5
6D8C
  8
0
 10
391.52177025321879
 20
184.8687352902894077
 30
0.0
 11
388.5837702532188018
 21
184.8687352902894077
 31
0.0
  0
LINE
  5
6D8D
  8
0
 10
388.5837702532188018
 20
175.1407352902893138
 30
0.0
 11
391.52177025321879
 21
175.1407352902893138
 31
0.0
  0
LINE
  5
6D8E
  8
0
 10
399.7914453878136101
 20
180.5047352902894033
 30
0.0
 11
399.7914453878136101
 21
184.5047352902892897
 31
0.0
  0
LINE
  5
6D8F
  8
0
 10
399.7914453878136101
 20
184.5047352902892897
 30
0.0
 11
399.5027702532187845
 21
185.0047352902894033
 31
0.0
  0
LINE
  5
6D90
  8
0
 10
399.5027702532187845
 20
175.0047352902892897
 30
0.0
 11
399.7914453878136101
 21
175.5047352902892897
 31
0.0
  0
LINE
  5
6D91
  8
0
 10
399.7914453878136101
 20
175.5047352902892897
 30
0.0
 11
399.7914453878136101
 21
179.5047352902894033
 31
0.0
  0
LINE
  5
6D92
  8
0
 10
399.5027702532187845
 20
175.0047352902892897
 30
0.0
 11
399.5027702532187845
 21
185.0047352902894033
 31
0.0
  0
LINE
  5
6D93
  8
0
 10
399.5027702532187845
 20
185.0047352902894033
 30
0.0
 11
398.5027702532187845
 21
185.0047352902894033
 31
0.0
  0
LINE
  5
6D94
  8
0
 10
398.5027702532187845
 20
175.0047352902892897
 30
0.0
 11
399.5027702532187845
 21
175.0047352902892897
 31
0.0
  0
LINE
  5
6D95
  8
0
 10
399.5027702532187845
 20
180.5047352902894033
 30
0.0
 11
400.7268645353756256
 21
180.5047352902894033
 31
0.0
  0
LINE
  5
6D96
  8
0
 10
399.5027702532187845
 20
179.5047352902894033
 30
0.0
 11
400.7268645353756256
 21
179.5047352902894033
 31
0.0
  0
LINE
  5
6D97
  8
0
 10
398.5027702532187845
 20
186.0047352902894033
 30
0.0
 11
393.5027702532187845
 21
186.0047352902894033
 31
0.0
  0
LINE
  5
6D98
  8
0
 10
398.5027702532187845
 20
174.0047352902892897
 30
0.0
 11
398.5027702532187845
 21
186.0047352902894033
 31
0.0
  0
LINE
  5
6D99
  8
0
 10
393.5027702532187845
 20
174.0047352902892897
 30
0.0
 11
393.5027702532187845
 21
186.0047352902894033
 31
0.0
  0
LINE
  5
6D9A
  8
0
 10
393.5027702532187845
 20
174.0047352902892897
 30
0.0
 11
398.5027702532187845
 21
174.0047352902892897
 31
0.0
  0
POLYLINE
  5
6D9B
  8
0
 66
     1
 10
0.0
 20
0.0
 30
0.0
  0
VERTEX
  5
6F79
  8
0
 10
393.7514815591831052
 20
174.0047352902892897
 30
0.0
  0
VERTEX
  5
6F7A
  8
0
 10
393.6475882435639733
 20
174.7502213573158087
 30
0.0
  0
VERTEX
  5
6F7B
  8
0
 10
393.5689972232655123
 20
175.4979908863803075
 30
0.0
  0
VERTEX
  5
6F7C
  8
0
 10
393.5196878003317806
 20
176.25084047319109
 30
0.0
  0
VERTEX
  5
6F7D
  8
0
 10
393.5027702532187845
 20
177.0047352902892897
 30
0.0
  0
SEQEND
  5
6F7E
  8
0
  0
POLYLINE
  5
6D9C
  8
0
 66
     1
 10
0.0
 20
0.0
 30
0.0
  0
VERTEX
  5
6F7F
  8
0
 10
398.5027702532187845
 20
177.0047352902892897
 30
0.0
  0
VERTEX
  5
6F80
  8
0
 10
398.4860038470691279
 20
176.2542192897251141
 30
0.0
  0
VERTEX
  5
6F81
  8
0
 10
398.4371232374006127
 20
175.5047352902892897
 30
0.0
  0
VERTEX
  5
6F82
  8
0
 10
398.3583657543068171
 20
174.7535841267084038
 30
0.0
  0
VERTEX
  5
6F83
  8
0
 10
398.2540589472545207
 20
174.0047352902892897
 30
0.0
  0
SEQEND
  5
6F84
  8
0
  0
POLYLINE
  5
6D9D
  8
0
 66
     1
 10
0.0
 20
0.0
 30
0.0
  0
VERTEX
  5
6F85
  8
0
 10
398.2540589472545207
 20
180.0047352902892897
 30
0.0
  0
VERTEX
  5
6F86
  8
0
 10
398.3579522628734821
 20
179.2592492232629127
 30
0.0
  0
VERTEX
  5
6F87
  8
0
 10
398.4365432831721137
 20
178.5114796941984139
 30
0.0
  0
VERTEX
  5
6F88
  8
0
 10
398.4858527061056179
 20
177.7586301073876029
 30
0.0
  0
VERTEX
  5
6F89
  8
0
 10
398.5027702532187845
 20
177.0047352902892897
 30
0.0
  0
SEQEND
  5
6F8A
  8
0
  0
POLYLINE
  5
6D9E
  8
0
 66
     1
 10
0.0
 20
0.0
 30
0.0
  0
VERTEX
  5
6F8B
  8
0
 10
393.5027702532187845
 20
183.0047352902892897
 30
0.0
  0
VERTEX
  5
6F8C
  8
0
 10
393.519536659368498
 20
183.7552512908536073
 30
0.0
  0
VERTEX
  5
6F8D
  8
0
 10
393.5684172690367859
 20
184.5047352902892897
 30
0.0
  0
VERTEX
  5
6F8E
  8
0
 10
393.6471747521306952
 20
185.2558864538702892
 30
0.0
  0
VERTEX
  5
6F8F
  8
0
 10
393.7514815591831052
 20
186.0047352902894033
 30
0.0
  0
SEQEND
  5
6F90
  8
0
  0
LINE
  5
6D9F
  8
0
 10
398.2540589472545207
 20
180.0047352902892897
 30
0.0
 11
393.7514815591831052
 21
180.0047352902892897
 31
0.0
  0
POLYLINE
  5
6DA0
  8
0
 66
     1
 10
0.0
 20
0.0
 30
0.0
  0
VERTEX
  5
6F91
  8
0
 10
398.5027702532187845
 20
183.0047352902892897
 30
0.0
  0
VERTEX
  5
6F92
  8
0
 10
398.4860038470691279
 20
182.2542192897251141
 30
0.0
  0
VERTEX
  5
6F93
  8
0
 10
398.4371232374006127
 20
181.5047352902894033
 30
0.0
  0
VERTEX
  5
6F94
  8
0
 10
398.3583657543068171
 20
180.7535841267084038
 30
0.0
  0
VERTEX
  5
6F95
  8
0
 10
398.2540589472545207
 20
180.0047352902892897
 30
0.0
  0
SEQEND
  5
6F96
  8
0
  0
POLYLINE
  5
6DA1
  8
0
 66
     1
 10
0.0
 20
0.0
 30
0.0
  0
VERTEX
  5
6F97
  8
0
 10
398.2540589472545207
 20
186.0047352902894033
 30
0.0
  0
VERTEX
  5
6F98
  8
0
 10
398.3579522628734821
 20
185.2592492232629127
 30
0.0
  0
VERTEX
  5
6F99
  8
0
 10
398.4365432831721137
 20
184.5114796941984139
 30
0.0
  0
VERTEX
  5
6F9A
  8
0
 10
398.4858527061056179
 20
183.7586301073876029
 30
0.0
  0
VERTEX
  5
6F9B
  8
0
 10
398.5027702532187845
 20
183.0047352902892897
 30
0.0
  0
SEQEND
  5
6F9C
  8
0
  0
POLYLINE
  5
6DA2
  8
0
 66
     1
 10
0.0
 20
0.0
 30
0.0
  0
VERTEX
  5
6F9D
  8
0
 10
393.5027702532187845
 20
177.0047352902892897
 30
0.0
  0
VERTEX
  5
6F9E
  8
0
 10
393.519536659368498
 20
177.7552512908536073
 30
0.0
  0
VERTEX
  5
6F9F
  8
0
 10
393.5684172690367859
 20
178.5047352902894033
 30
0.0
  0
VERTEX
  5
6FA0
  8
0
 10
393.6471747521306952
 20
179.2558864538702892
 30
0.0
  0
VERTEX
  5
6FA1
  8
0
 10
393.7514815591831052
 20
180.0047352902892897
 30
0.0
  0
SEQEND
  5
6FA2
  8
0
  0
POLYLINE
  5
6DA3
  8
0
 66
     1
 10
0.0
 20
0.0
 30
0.0
  0
VERTEX
  5
6FA3
  8
0
 10
393.7514815591831052
 20
180.0047352902892897
 30
0.0
  0
VERTEX
  5
6FA4
  8
0
 10
393.6475882435639733
 20
180.7502213573158087
 30
0.0
  0
VERTEX
  5
6FA5
  8
0
 10
393.5689972232655123
 20
181.4979908863803075
 30
0.0
  0
VERTEX
  5
6FA6
  8
0
 10
393.5196878003317806
 20
182.25084047319109
 30
0.0
  0
VERTEX
  5
6FA7
  8
0
 10
393.5027702532187845
 20
183.0047352902892897
 30
0.0
  0
SEQEND
  5
6FA8
  8
0
  0
CIRCLE
  5
6DA4
  8
0
 10
405.902770253218705
 20
180.0047352902892897
 30
0.0
 40
5.2000000000000242
  0
CIRCLE
  5
6DA5
  8
0
 10
405.902770253218705
 20
180.0047352902892897
 30
0.0
 40
3.0000000000000249
  0
CIRCLE
  5
6DA6
  8
0
 10
405.902770253218705
 20
180.0047352902892897
 30
0.0
 40
4.8500000000000236
  0
LINE
  5
6DA7
  8
3
 10
388.0027702532187845
 20
184.2877352902893904
 30
0.0
 11
392.1027702532188073
 21
184.2877352902893904
 31
0.0
  0
LINE
  5
6DA8
  8
3
 10
388.0027702532187845
 20
175.7217352902893026
 30
0.0
 11
392.1027702532188073
 21
175.7217352902893026
 31
0.0
  0
LINE
  5
6DA9
  8
1
 10
405.902770253218705
 20
188.204735290289392
 30
0.0
 11
405.902770253218705
 21
171.804735290289301
 31
0.0
  0
LINE
  5
6DAA
  8
1
 10
414.1027702532188073
 20
180.0047352902892897
 30
0.0
 11
385.0027702532188982
 21
180.0047352902892897
 31
0.0
  0
LINE
  5
6DAB
  8
0
 10
450.0668718683564862
 20
186.0047352902894033
 30
0.0
 11
443.1386686380810147
 21
186.0047352902894033
 31
0.0
  0
LINE
  5
6DAC
  8
0
 10
443.1386686380810147
 20
186.0047352902894033
 30
0.0
 11
442.4399211831154162
 21
184.7944691966297057
 31
0.0
  0
LINE
  5
6DAD
  8
0
 10
442.4399236111336222
 20
175.2149971784984075
 30
0.0
 11
443.1386686380810147
 21
174.0047352902892897
 31
0.0
  0
LINE
  5
6DAE
  8
0
 10
443.1386686380810147
 20
174.0047352902892897
 30
0.0
 11
450.0668718683564862
 21
174.0047352902892897
 31
0.0
  0
LINE
  5
6DAF
  8
0
 10
450.0668718683564862
 20
174.0047352902892897
 30
0.0
 11
453.5309734834942219
 21
180.0047352902894033
 31
0.0
  0
LINE
  5
6DB0
  8
0
 10
453.5309734834942219
 20
180.0047352902894033
 30
0.0
 11
450.0668718683564862
 21
186.0047352902894033
 31
0.0
  0
ARC
  5
6DB1
  8
0
 10
446.6027702532188073
 20
180.0047352902894033
 30
0.0
 40
6.0
 50
228.5903778907307924
 51
131.4096221092692076
  0
ARC
  5
6DB2
  8
0
 10
446.6027702532188073
 20
180.0047352902894033
 30
0.0
 40
5.0
 50
244.1580672368353078
 51
115.8419327631617932
  0
LINE
  5
6DB3
  8
0
 10
433.5027702532187845
 20
183.404735290289409
 30
0.0
 11
432.6027702532186936
 21
183.404735290289409
 31
0.0
  0
LINE
  5
6DB4
  8
0
 10
432.6027702532186936
 20
176.6047352902893977
 30
0.0
 11
433.5027702532187845
 21
176.6047352902893977
 31
0.0
  0
ARC
  5
6DB5
  8
0
 10
446.6027702532188073
 20
180.0047352902894033
 30
0.0
 40
4.5000000000000018
 50
270.0
 51
90.0
  0
LINE
  5
6DB6
  8
0
 10
446.6027702532188073
 20
184.5047352902894033
 30
0.0
 11
442.6069154416516085
 21
184.5047352902894033
 31
0.0
  0
LINE
  5
6DB7
  8
0
 10
442.6069154416516085
 20
175.5047352902892897
 30
0.0
 11
446.6027702532188073
 21
175.5047352902892897
 31
0.0
  0
LINE
  5
6DB8
  8
0
 10
431.1027702532188073
 20
175.1547352902892953
 30
0.0
 11
431.1027702532188073
 21
184.8547352902893977
 31
0.0
  0
LINE
  5
6DB9
  8
0
 10
432.6027702532186936
 20
175.1547352902892953
 30
0.0
 11
432.6027702532186936
 21
184.8547352902893977
 31
0.0
  0
LINE
  5
6DBA
  8
0
 10
432.6027702532186936
 20
184.8547352902893977
 30
0.0
 11
431.1027702532188073
 21
184.8547352902893977
 31
0.0
  0
LINE
  5
6DBB
  8
0
 10
431.1027702532188073
 20
175.1547352902892953
 30
0.0
 11
432.6027702532186936
 21
175.1547352902892953
 31
0.0
  0
LINE
  5
6DBC
  8
0
 10
433.5027702532187845
 20
174.8047352902893863
 30
0.0
 11
433.5027702532187845
 21
185.204735290289392
 31
0.0
  0
LINE
  5
6DBD
  8
0
 10
442.2027702532187732
 20
185.204735290289392
 30
0.0
 11
433.5027702532187845
 21
185.204735290289392
 31
0.0
  0
LINE
  5
6DBE
  8
0
 10
433.5027702532187845
 20
174.8047352902893863
 30
0.0
 11
442.2027702532187732
 21
174.8047352902893863
 31
0.0
  0
LINE
  5
6DBF
  8
0
 10
442.6069154416516085
 20
184.5047352902894033
 30
0.0
 11
442.2027702532187732
 21
185.204735290289392
 31
0.0
  0
LINE
  5
6DC0
  8
0
 10
442.2027702532187732
 20
174.8047352902893863
 30
0.0
 11
442.6069154416516085
 21
175.5047352902892897
 31
0.0
  0
LINE
  5
6DC1
  8
0
 10
442.2027702532187732
 20
174.8047352902893863
 30
0.0
 11
442.2027702532187732
 21
185.204735290289392
 31
0.0
  0
LINE
  5
6DC2
  8
0
 10
442.6069154416516085
 20
175.5047352902892897
 30
0.0
 11
442.6069154416516085
 21
184.5047352902894033
 31
0.0
  0
LINE
  5
6DC3
  8
1
 10
456.5309734834942788
 20
180.0047352902894033
 30
0.0
 11
428.1027702532186936
 21
180.0047352902894033
 31
0.0
  0
LINE
  5
6DC4
  8
1
 10
446.6027702532188073
 20
189.0047352902894033
 30
0.0
 11
446.6027702532188073
 21
171.0047352902894033
 31
0.0
  0
ENDSEC
  0
EOF
