  0
SECTION
  2
HEADER
  9
$ACADVER
  1
AC1009
  9
$INSBASE
 10
0.0
 20
0.0
 30
0.0
  9
$EXTMIN
 10
0.0
 20
-2.960436562073669
 30
0.0
  9
$EXTMAX
 10
591.3000000000116643
 20
317.4999999999998863
 30
0.0
  9
$LIMMIN
 10
0.0
 20
0.0
  9
$LIMMAX
 10
375.0
 20
270.0
  9
$ORTHOMODE
 70
     1
  9
$REGENMODE
 70
     1
  9
$FILLMODE
 70
     1
  9
$QTEXTMODE
 70
     0
  9
$MIRRTEXT
 70
     0
  9
$DRAGMODE
 70
     2
  9
$LTSCALE
 40
10.0
  9
$OSMODE
 70
    37
  9
$ATTMODE
 70
     1
  9
$TEXTSIZE
 40
0.2
  9
$TRACEWID
 40
0.05
  9
$TEXTSTYLE
  7
K90
  9
$CLAYER
  8
0
  9
$CELTYPE
  6
BYLAYER
  9
$CECOLOR
 62
   256
  9
$DIMSCALE
 40
1.0
  9
$DIMASZ
 40
3.0
  9
$DIMEXO
 40
2.0
  9
$DIMDLI
 40
0.38
  9
$DIMRND
 40
0.0
  9
$DIMDLE
 40
0.0
  9
$DIMEXE
 40
2.0
  9
$DIMTP
 40
0.0
  9
$DIMTM
 40
0.0
  9
$DIMTXT
 40
3.2000000000000002
  9
$DIMCEN
 40
0.0
  9
$DIMTSZ
 40
0.0
  9
$DIMTOL
 70
     0
  9
$DIMLIM
 70
     0
  9
$DIMTIH
 70
     0
  9
$DIMTOH
 70
     0
  9
$DIMSE1
 70
     0
  9
$DIMSE2
 70
     0
  9
$DIMTAD
 70
     1
  9
$DIMZIN
 70
     8
  9
$DIMBLK
  1

  9
$DIMASO
 70
     1
  9
$DIMSHO
 70
     0
  9
$DIMPOST
  1

  9
$DIMAPOST
  1

  9
$DIMALT
 70
     0
  9
$DIMALTD
 70
     2
  9
$DIMALTF
 40
25.3999999999999986
  9
$DIMLFAC
 40
1.0
  9
$DIMTOFL
 70
     1
  9
$DIMTVP
 40
1.6000000000000001
  9
$DIMTIX
 70
     0
  9
$DIMSOXD
 70
     0
  9
$DIMSAH
 70
     0
  9
$DIMBLK1
  1

  9
$DIMBLK2
  1

  9
$DIMSTYLE
  2
STANDARD
  9
$DIMCLRD
 70
     0
  9
$DIMCLRE
 70
     0
  9
$DIMCLRT
 70
     0
  9
$DIMTFAC
 40
1.0
  9
$DIMGAP
 40
0.09
  9
$LUNITS
 70
     2
  9
$LUPREC
 70
     1
  9
$SKETCHINC
 40
0.1
  9
$FILLETRAD
 40
0.0
  9
$AUNITS
 70
     0
  9
$AUPREC
 70
     0
  9
$MENU
  1
E:\r13\win\SUPPORT\ACAD
  9
$ELEVATION
 40
0.0
  9
$PELEVATION
 40
0.0
  9
$THICKNESS
 40
0.0
  9
$LIMCHECK
 70
     0
  9
$BLIPMODE
 70
     0
  9
$CHAMFERA
 40
0.0
  9
$CHAMFERB
 40
0.0
  9
$SKPOLY
 70
     0
  9
$TDCREATE
 40
2449840.6031828699633479
  9
$TDUPDATE
 40
2460381.4557523149996996
  9
$TDINDWG
 40
0.3861737269
  9
$TDUSRTIMER
 40
0.3861737269
  9
$USRTIMER
 70
     1
  9
$ANGBASE
 50
0.0
  9
$ANGDIR
 70
     0
  9
$PDMODE
 70
     0
  9
$PDSIZE
 40
0.0
  9
$PLINEWID
 40
0.0
  9
$COORDS
 70
     1
  9
$SPLFRAME
 70
     0
  9
$SPLINETYPE
 70
     6
  9
$SPLINESEGS
 70
     8
  9
$ATTDIA
 70
     1
  9
$ATTREQ
 70
     1
  9
$HANDLING
 70
     1
  9
$HANDSEED
  5
6050
  9
$SURFTAB1
 70
     6
  9
$SURFTAB2
 70
     6
  9
$SURFTYPE
 70
     6
  9
$SURFU
 70
     6
  9
$SURFV
 70
     6
  9
$UCSNAME
  2

  9
$UCSORG
 10
0.0
 20
0.0
 30
0.0
  9
$UCSXDIR
 10
1.0
 20
0.0
 30
0.0
  9
$UCSYDIR
 10
0.0
 20
1.0
 30
0.0
  9
$PUCSNAME
  2

  9
$PUCSORG
 10
0.0
 20
0.0
 30
0.0
  9
$PUCSXDIR
 10
1.0
 20
0.0
 30
0.0
  9
$PUCSYDIR
 10
0.0
 20
1.0
 30
0.0
  9
$USERI1
 70
     0
  9
$USERI2
 70
     1
  9
$USERI3
 70
     1
  9
$USERI4
 70
     0
  9
$USERI5
 70
     0
  9
$USERR1
 40
0.0
  9
$USERR2
 40
0.0
  9
$USERR3
 40
0.0
  9
$USERR4
 40
0.0
  9
$USERR5
 40
0.0
  9
$WORLDVIEW
 70
     1
  9
$SHADEDGE
 70
     3
  9
$SHADEDIF
 70
    70
  9
$TILEMODE
 70
     1
  9
$MAXACTVP
 70
    16
  9
$PLIMCHECK
 70
     0
  9
$PEXTMIN
 10
1.0000000000000000E+20
 20
1.0000000000000000E+20
 30
1.0000000000000000E+20
  9
$PEXTMAX
 10
-1.0000000000000000E+20
 20
-1.0000000000000000E+20
 30
-1.0000000000000000E+20
  9
$PLIMMIN
 10
0.0
 20
0.0
  9
$PLIMMAX
 10
12.0
 20
9.0
  9
$UNITMODE
 70
     0
  9
$VISRETAIN
 70
     0
  9
$PLINEGEN
 70
     0
  9
$PSLTSCALE
 70
     0
  0
ENDSEC
  0
SECTION
  2
TABLES
  0
TABLE
  2
VPORT
 70
     1
  0
VPORT
  2
*ACTIVE
 70
     0
 10
0.0
 20
0.0
 11
1.0
 21
1.0
 12
587.130541871921082
 22
250.0
 13
0.0
 23
0.0
 14
10.0
 24
10.0
 15
10.0
 25
10.0
 16
0.0
 26
0.0
 36
1.0
 17
0.0
 27
0.0
 37
0.0
 40
500.0
 41
2.3485221674876842
 42
50.0
 43
0.0
 44
0.0
 50
0.0
 51
0.0
 71
     0
 72
   500
 73
     1
 74
     0
 75
     0
 76
     0
 77
     0
 78
     0
  0
ENDTAB
  0
TABLE
  2
LTYPE
 70
     4
  0
LTYPE
  2
CONTINUOUS
 70
     0
  3
Solid Line
 72
    65
 73
     0
 40
0.0
  0
LTYPE
  2
CENTER
 70
     0
  3
____ _ ____ _ ____ _ ____ _ ____ _ ____ _ ____
 72
    65
 73
     4
 40
2.0
 49
1.25
 49
-0.25
 49
0.25
 49
-0.25
  0
LTYPE
  2
HIDDEN
 70
     0
  3
_ _ _ _ _ _ _ _ _ _ _ _ _ _ _ _ _ _ _ _ _ _ _
 72
    65
 73
     2
 40
0.375
 49
0.25
 49
-0.125
  0
LTYPE
  2
PHANTOM2
 70
     0
  3
___ _ _ ___ _ _ ___ _ _ ___ _ _
 72
    65
 73
     6
 40
1.25
 49
0.625
 49
-0.125
 49
0.125
 49
-0.125
 49
0.125
 49
-0.125
  0
ENDTAB
  0
TABLE
  2
LAYER
 70
     5
  0
LAYER
  2
0
 70
     0
 62
     7
  6
CONTINUOUS
  0
LAYER
  2
1
 70
     0
 62
     1
  6
CENTER
  0
LAYER
  2
2
 70
     0
 62
     2
  6
HIDDEN
  0
LAYER
  2
DEFPOINTS
 70
     0
 62
     7
  6
CONTINUOUS
  0
LAYER
  2
3
 70
     0
 62
     3
  6
CONTINUOUS
  0
ENDTAB
  0
TABLE
  2
STYLE
 70
     3
  0
STYLE
  2
STANDARD
 70
     0
 40
0.0
 41
1.0
 50
0.0
 71
     0
 42
0.2
  3
romans.shx
  4

  0
STYLE
  2
K90
 70
     0
 40
0.0
 41
1.0
 50
0.0
 71
     0
 42
0.2
  3
romans.shx
  4

  0
STYLE
  2
STANDARD1
 70
     0
 40
0.0
 41
1.0
 50
0.0
 71
     0
 42
3.0
  3
txt
  4

  0
ENDTAB
  0
TABLE
  2
VIEW
 70
     1
  0
VIEW
  2
ALL
 70
     0
 40
179.538466448915301
 10
135.0
 20
89.7692332244576647
 41
0.0
 11
0.0
 21
0.0
 31
1.0
 12
0.0
 22
0.0
 32
0.0
 42
0.0
 43
0.0
 44
0.0
 50
0.0
 71
     0
  0
ENDTAB
  0
TABLE
  2
UCS
 70
     0
  0
ENDTAB
  0
TABLE
  2
APPID
 70
     8
  0
APPID
  2
ACAD
 70
     0
  0
APPID
  2
ACAD_MLEADERVER
 70
     0
  0
APPID
  2
ACAD_NAV_VCDISPLAY
 70
     0
  0
APPID
  2
ACAD_EXEMPT_FROM_CAD_STANDARDS
 70
     0
  0
APPID
  2
ACAD_DSTYLE_DIMRADIAL_EXTENSION
 70
     0
  0
APPID
  2
ACAD_DSTYLE_DIMJAG
 70
     0
  0
APPID
  2
ACAD_DSTYLE_DIMTALN
 70
     0
  0
APPID
  2
ACAD_PSEXT
 70
     0
  0
ENDTAB
  0
TABLE
  2
DIMSTYLE
 70
     1
  0
DIMSTYLE
  2
STANDARD
 70
     0
  3

  4

  5

  6

  7

 40
1.0
 41
0.18
 42
0.0625
 43
0.38
 44
0.18
 45
0.0
 46
0.0
 47
0.0
 48
0.0
140
0.18
141
0.09
142
0.0
143
25.3999999999999986
144
1.0
145
0.0
146
1.0
147
0.09
 71
     0
 72
     0
 73
     1
 74
     1
 75
     0
 76
     0
 77
     0
 78
     0
170
     0
171
     2
172
     0
173
     0
174
     0
175
     0
176
     0
177
     0
178
     0
  0
ENDTAB
  0
ENDSEC
  0
SECTION
  2
BLOCKS
  0
BLOCK
  8
0
  2
$MODEL_SPACE
 70
     0
 10
0.0
 20
0.0
 30
0.0
  3
$MODEL_SPACE
  1

  0
ENDBLK
  5
2DF
  8
0
  0
BLOCK
 67
     1
  8
0
  2
$PAPER_SPACE
 70
     0
 10
0.0
 20
0.0
 30
0.0
  3
$PAPER_SPACE
  1

  0
ENDBLK
  5
2DB
 67
     1
  8
0
  0
ENDSEC
  0
SECTION
  2
ENTITIES
  0
TEXT
  5
67C
  8
0
 62
     3
 10
0.0
 20
0.0
 30
0.0
 40
10.0
  1
SSR-RM1120
  7
STANDARD1
  0
LINE
  5
53A9
  8
0
 10
275.9999999999997726
 20
172.4890586085043935
 30
0.0
 11
275.9999999999997726
 21
168.9999999999998863
 31
0.0
  0
LINE
  5
53AA
  8
0
 10
275.9999999999997726
 20
193.9999999999998863
 30
0.0
 11
275.9999999999997726
 21
185.5290213066656122
 31
0.0
  0
LINE
  5
53AB
  8
0
 10
338.9999999999997726
 20
185.5109413914950949
 30
0.0
 11
338.9999999999997726
 21
193.9999999999998863
 31
0.0
  0
LINE
  5
53AC
  8
0
 10
338.9999999999997726
 20
168.9999999999998863
 30
0.0
 11
338.9999999999997726
 21
172.4709786933341888
 31
0.0
  0
LINE
  5
53AD
  8
0
 10
291.7499999999997726
 20
199.4999999999998863
 30
0.0
 11
291.7499999999997726
 21
193.9999999999998863
 31
0.0
  0
LINE
  5
53AE
  8
0
 10
323.2499999999997726
 20
193.9999999999998863
 30
0.0
 11
323.2499999999997726
 21
199.4999999999998863
 31
0.0
  0
LINE
  5
53AF
  8
0
 10
275.9999999999997726
 20
193.9999999999998863
 30
0.0
 11
338.9999999999997726
 21
193.9999999999998863
 31
0.0
  0
LINE
  5
53B2
  8
0
 10
329.6990903406568236
 20
162.9999999999998863
 30
0.0
 11
285.3009096593360141
 21
163.0000000000003979
 31
0.0
  0
LINE
  5
53B5
  8
0
 10
320.1776695296634898
 20
168.9999999999998863
 30
0.0
 11
338.9999999999997726
 21
168.9999999999998863
 31
0.0
  0
LINE
  5
53B6
  8
0
 10
320.1776695296634898
 20
162.9999999999998863
 30
0.0
 11
320.1776695296634898
 21
168.9999999999998863
 31
0.0
  0
LINE
  5
53B7
  8
0
 10
294.8223304703361123
 20
168.9999999999998863
 30
0.0
 11
294.8223304703361123
 21
162.9999999999998863
 31
0.0
  0
LINE
  5
53B8
  8
0
 10
275.9999999999997726
 20
168.9999999999998863
 30
0.0
 11
294.8223304703361123
 21
168.9999999999998863
 31
0.0
  0
ARC
  5
53B9
  8
0
 10
418.9696081794323845
 20
178.9909600424147129
 30
0.0
 40
80.2349574011499698
 50
175.3389421987544097
 51
184.6610578012455051
  0
ARC
  5
53BA
  8
0
 10
196.0303917968556107
 20
179.0090399575850881
 30
0.0
 40
80.2349574247830049
 50
355.3389422001304752
 51
4.6610577998694831
  0
LINE
  5
53BB
  8
0
 10
323.2499999999997726
 20
199.4999999999998863
 30
0.0
 11
291.7499999999997726
 21
199.4999999999998863
 31
0.0
  0
LINE
  5
53BC
  8
0
 10
285.3009096593355025
 20
162.9999999999998863
 30
0.0
 11
288.9823713588904752
 21
168.9999999999998863
 31
0.0
  0
LINE
  5
53BD
  8
0
 10
326.0176286411020214
 20
168.9999999999998863
 30
0.0
 11
329.6990903406568236
 21
162.9999999999998863
 31
0.0
  0
LINE
  5
540B
  8
0
 10
86.8878160210617807
 20
112.5358089716247036
 30
0.0
 11
89.2446176757225658
 21
109.0
 31
0.0
  0
LINE
  5
540C
  8
0
 10
73.7553823242785711
 20
109.0
 30
0.0
 11
89.2446176757225658
 21
109.0
 31
0.0
  0
LINE
  5
540D
  8
0
 10
76.112183978938674
 20
112.5358089716248031
 30
0.0
 11
73.7553823242785711
 21
109.0
 31
0.0
  0
LINE
  5
540F
  8
0
 10
59.3009096593430129
 20
68.8223304703362828
 30
0.0
 11
73.7553823242785711
 21
109.0
 31
0.0
  0
LINE
  5
5410
  8
0
 10
89.2446176757225658
 20
109.0
 30
0.0
 11
103.6990903406641991
 21
68.822330470336226
 31
0.0
  0
LINE
  5
5414
  8
0
 10
94.1776695296637172
 20
63.8223304703362828
 30
0.0
 11
94.1776695296637172
 21
52.6637954075672496
 31
0.0
  0
LINE
  5
5415
  8
0
 10
68.8223304703362828
 20
52.6637954075672496
 30
0.0
 11
68.8223304703362828
 21
63.8223304703362828
 31
0.0
  0
LINE
  5
5417
  8
0
 10
59.3009096593430129
 20
68.8223304703362828
 30
0.0
 11
63.8223304703362828
 21
68.8223304703362828
 31
0.0
  0
LINE
  5
5418
  8
0
 10
99.1776695296637172
 20
68.822330470336226
 30
0.0
 11
103.6990903406641991
 21
68.822330470336226
 31
0.0
  0
POLYLINE
  5
541A
  8
0
 10
85.0164343138953882
 20
53.6000000000076895
 30
0.0
 66
     1
 70
     8
  0
VERTEX
  8
0
  5
5ABA
 10
85.0164
 20
53.6000
 30
0.00000
  70
    32
  0
VERTEX
  8
0
  5
5ABB
 10
85.0532
 20
53.6002
 30
0.00000
  70
    32
  0
VERTEX
  8
0
  5
5ABC
 10
85.0899
 20
53.6009
 30
0.00000
  70
    32
  0
VERTEX
  8
0
  5
5ABD
 10
85.1267
 20
53.6020
 30
0.00000
  70
    32
  0
VERTEX
  8
0
  5
5ABE
 10
85.1634
 20
53.6036
 30
0.00000
  70
    32
  0
VERTEX
  8
0
  5
5ABF
 10
85.2001
 20
53.6056
 30
0.00000
  70
    32
  0
VERTEX
  8
0
  5
5AC0
 10
85.2367
 20
53.6081
 30
0.00000
  70
    32
  0
VERTEX
  8
0
  5
5AC1
 10
85.2733
 20
53.6110
 30
0.00000
  70
    32
  0
VERTEX
  8
0
  5
5AC2
 10
85.3099
 20
53.6143
 30
0.00000
  70
    32
  0
VERTEX
  8
0
  5
5AC3
 10
85.3464
 20
53.6181
 30
0.00000
  70
    32
  0
VERTEX
  8
0
  5
5AC4
 10
85.3829
 20
53.6224
 30
0.00000
  70
    32
  0
VERTEX
  8
0
  5
5AC5
 10
85.4193
 20
53.6271
 30
0.00000
  70
    32
  0
VERTEX
  8
0
  5
5AC6
 10
85.4556
 20
53.6322
 30
0.00000
  70
    32
  0
VERTEX
  8
0
  5
5AC7
 10
85.4919
 20
53.6378
 30
0.00000
  70
    32
  0
VERTEX
  8
0
  5
5AC8
 10
85.5281
 20
53.6438
 30
0.00000
  70
    32
  0
VERTEX
  8
0
  5
5AC9
 10
85.5642
 20
53.6503
 30
0.00000
  70
    32
  0
VERTEX
  8
0
  5
5ACA
 10
85.6002
 20
53.6572
 30
0.00000
  70
    32
  0
VERTEX
  8
0
  5
5ACB
 10
85.6362
 20
53.6645
 30
0.00000
  70
    32
  0
VERTEX
  8
0
  5
5ACC
 10
85.6720
 20
53.6723
 30
0.00000
  70
    32
  0
VERTEX
  8
0
  5
5ACD
 10
85.7077
 20
53.6805
 30
0.00000
  70
    32
  0
VERTEX
  8
0
  5
5ACE
 10
85.7434
 20
53.6892
 30
0.00000
  70
    32
  0
VERTEX
  8
0
  5
5ACF
 10
85.7789
 20
53.6982
 30
0.00000
  70
    32
  0
VERTEX
  8
0
  5
5AD0
 10
85.8143
 20
53.7078
 30
0.00000
  70
    32
  0
VERTEX
  8
0
  5
5AD1
 10
85.8496
 20
53.7177
 30
0.00000
  70
    32
  0
VERTEX
  8
0
  5
5AD2
 10
85.8847
 20
53.7281
 30
0.00000
  70
    32
  0
VERTEX
  8
0
  5
5AD3
 10
85.9197
 20
53.7389
 30
0.00000
  70
    32
  0
VERTEX
  8
0
  5
5AD4
 10
85.9546
 20
53.7502
 30
0.00000
  70
    32
  0
VERTEX
  8
0
  5
5AD5
 10
85.9893
 20
53.7618
 30
0.00000
  70
    32
  0
VERTEX
  8
0
  5
5AD6
 10
86.0239
 20
53.7739
 30
0.00000
  70
    32
  0
VERTEX
  8
0
  5
5AD7
 10
86.0583
 20
53.7864
 30
0.00000
  70
    32
  0
VERTEX
  8
0
  5
5AD8
 10
86.0926
 20
53.7994
 30
0.00000
  70
    32
  0
VERTEX
  8
0
  5
5AD9
 10
86.1267
 20
53.8127
 30
0.00000
  70
    32
  0
VERTEX
  8
0
  5
5ADA
 10
86.1606
 20
53.8265
 30
0.00000
  70
    32
  0
VERTEX
  8
0
  5
5ADB
 10
86.1944
 20
53.8407
 30
0.00000
  70
    32
  0
VERTEX
  8
0
  5
5ADC
 10
86.2280
 20
53.8553
 30
0.00000
  70
    32
  0
VERTEX
  8
0
  5
5ADD
 10
86.2614
 20
53.8703
 30
0.00000
  70
    32
  0
VERTEX
  8
0
  5
5ADE
 10
86.2946
 20
53.8857
 30
0.00000
  70
    32
  0
VERTEX
  8
0
  5
5ADF
 10
86.3276
 20
53.9015
 30
0.00000
  70
    32
  0
VERTEX
  8
0
  5
5AE0
 10
86.3604
 20
53.9177
 30
0.00000
  70
    32
  0
VERTEX
  8
0
  5
5AE1
 10
86.3930
 20
53.9343
 30
0.00000
  70
    32
  0
VERTEX
  8
0
  5
5AE2
 10
86.4254
 20
53.9513
 30
0.00000
  70
    32
  0
VERTEX
  8
0
  5
5AE3
 10
86.4576
 20
53.9688
 30
0.00000
  70
    32
  0
VERTEX
  8
0
  5
5AE4
 10
86.4895
 20
53.9866
 30
0.00000
  70
    32
  0
VERTEX
  8
0
  5
5AE5
 10
86.5213
 20
54.0048
 30
0.00000
  70
    32
  0
VERTEX
  8
0
  5
5AE6
 10
86.5528
 20
54.0234
 30
0.00000
  70
    32
  0
VERTEX
  8
0
  5
5AE7
 10
86.5841
 20
54.0423
 30
0.00000
  70
    32
  0
VERTEX
  8
0
  5
5AE8
 10
86.6151
 20
54.0617
 30
0.00000
  70
    32
  0
VERTEX
  8
0
  5
5AE9
 10
86.6459
 20
54.0814
 30
0.00000
  70
    32
  0
VERTEX
  8
0
  5
5AEA
 10
86.6765
 20
54.1015
 30
0.00000
  70
    32
  0
VERTEX
  8
0
  5
5AEB
 10
86.7068
 20
54.1220
 30
0.00000
  70
    32
  0
VERTEX
  8
0
  5
5AEC
 10
86.7368
 20
54.1429
 30
0.00000
  70
    32
  0
VERTEX
  8
0
  5
5AED
 10
86.7666
 20
54.1641
 30
0.00000
  70
    32
  0
VERTEX
  8
0
  5
5AEE
 10
86.7961
 20
54.1857
 30
0.00000
  70
    32
  0
VERTEX
  8
0
  5
5AEF
 10
86.8253
 20
54.2076
 30
0.00000
  70
    32
  0
VERTEX
  8
0
  5
5AF0
 10
86.8543
 20
54.2299
 30
0.00000
  70
    32
  0
VERTEX
  8
0
  5
5AF1
 10
86.8830
 20
54.2526
 30
0.00000
  70
    32
  0
VERTEX
  8
0
  5
5AF2
 10
86.9114
 20
54.2756
 30
0.00000
  70
    32
  0
VERTEX
  8
0
  5
5AF3
 10
86.9396
 20
54.2990
 30
0.00000
  70
    32
  0
VERTEX
  8
0
  5
5AF4
 10
86.9674
 20
54.3227
 30
0.00000
  70
    32
  0
VERTEX
  8
0
  5
5AF5
 10
86.9949
 20
54.3467
 30
0.00000
  70
    32
  0
VERTEX
  8
0
  5
5AF6
 10
87.0222
 20
54.3711
 30
0.00000
  70
    32
  0
VERTEX
  8
0
  5
5AF7
 10
87.0491
 20
54.3958
 30
0.00000
  70
    32
  0
VERTEX
  8
0
  5
5AF8
 10
87.0758
 20
54.4208
 30
0.00000
  70
    32
  0
VERTEX
  8
0
  5
5AF9
 10
87.1021
 20
54.4462
 30
0.00000
  70
    32
  0
VERTEX
  8
0
  5
5AFA
 10
87.1281
 20
54.4719
 30
0.00000
  70
    32
  0
VERTEX
  8
0
  5
5AFB
 10
87.1538
 20
54.4979
 30
0.00000
  70
    32
  0
VERTEX
  8
0
  5
5AFC
 10
87.1792
 20
54.5242
 30
0.00000
  70
    32
  0
VERTEX
  8
0
  5
5AFD
 10
87.2042
 20
54.5509
 30
0.00000
  70
    32
  0
VERTEX
  8
0
  5
5AFE
 10
87.2289
 20
54.5778
 30
0.00000
  70
    32
  0
VERTEX
  8
0
  5
5AFF
 10
87.2533
 20
54.6051
 30
0.00000
  70
    32
  0
VERTEX
  8
0
  5
5B00
 10
87.2773
 20
54.6326
 30
0.00000
  70
    32
  0
VERTEX
  8
0
  5
5B01
 10
87.3010
 20
54.6604
 30
0.00000
  70
    32
  0
VERTEX
  8
0
  5
5B02
 10
87.3244
 20
54.6886
 30
0.00000
  70
    32
  0
VERTEX
  8
0
  5
5B03
 10
87.3474
 20
54.7170
 30
0.00000
  70
    32
  0
VERTEX
  8
0
  5
5B04
 10
87.3701
 20
54.7457
 30
0.00000
  70
    32
  0
VERTEX
  8
0
  5
5B05
 10
87.3924
 20
54.7747
 30
0.00000
  70
    32
  0
VERTEX
  8
0
  5
5B06
 10
87.4143
 20
54.8039
 30
0.00000
  70
    32
  0
VERTEX
  8
0
  5
5B07
 10
87.4359
 20
54.8334
 30
0.00000
  70
    32
  0
VERTEX
  8
0
  5
5B08
 10
87.4571
 20
54.8632
 30
0.00000
  70
    32
  0
VERTEX
  8
0
  5
5B09
 10
87.4780
 20
54.8932
 30
0.00000
  70
    32
  0
VERTEX
  8
0
  5
5B0A
 10
87.4985
 20
54.9235
 30
0.00000
  70
    32
  0
VERTEX
  8
0
  5
5B0B
 10
87.5186
 20
54.9541
 30
0.00000
  70
    32
  0
VERTEX
  8
0
  5
5B0C
 10
87.5383
 20
54.9849
 30
0.00000
  70
    32
  0
VERTEX
  8
0
  5
5B0D
 10
87.5577
 20
55.0159
 30
0.00000
  70
    32
  0
VERTEX
  8
0
  5
5B0E
 10
87.5766
 20
55.0472
 30
0.00000
  70
    32
  0
VERTEX
  8
0
  5
5B0F
 10
87.5952
 20
55.0787
 30
0.00000
  70
    32
  0
VERTEX
  8
0
  5
5B10
 10
87.6134
 20
55.1105
 30
0.00000
  70
    32
  0
VERTEX
  8
0
  5
5B11
 10
87.6312
 20
55.1424
 30
0.00000
  70
    32
  0
VERTEX
  8
0
  5
5B12
 10
87.6487
 20
55.1746
 30
0.00000
  70
    32
  0
VERTEX
  8
0
  5
5B13
 10
87.6657
 20
55.2070
 30
0.00000
  70
    32
  0
VERTEX
  8
0
  5
5B14
 10
87.6823
 20
55.2396
 30
0.00000
  70
    32
  0
VERTEX
  8
0
  5
5B15
 10
87.6985
 20
55.2724
 30
0.00000
  70
    32
  0
VERTEX
  8
0
  5
5B16
 10
87.7143
 20
55.3054
 30
0.00000
  70
    32
  0
VERTEX
  8
0
  5
5B17
 10
87.7297
 20
55.3386
 30
0.00000
  70
    32
  0
VERTEX
  8
0
  5
5B18
 10
87.7447
 20
55.3720
 30
0.00000
  70
    32
  0
VERTEX
  8
0
  5
5B19
 10
87.7593
 20
55.4056
 30
0.00000
  70
    32
  0
VERTEX
  8
0
  5
5B1A
 10
87.7735
 20
55.4394
 30
0.00000
  70
    32
  0
VERTEX
  8
0
  5
5B1B
 10
87.7873
 20
55.4733
 30
0.00000
  70
    32
  0
VERTEX
  8
0
  5
5B1C
 10
87.8006
 20
55.5074
 30
0.00000
  70
    32
  0
VERTEX
  8
0
  5
5B1D
 10
87.8136
 20
55.5417
 30
0.00000
  70
    32
  0
VERTEX
  8
0
  5
5B1E
 10
87.8261
 20
55.5761
 30
0.00000
  70
    32
  0
VERTEX
  8
0
  5
5B1F
 10
87.8382
 20
55.6107
 30
0.00000
  70
    32
  0
VERTEX
  8
0
  5
5B20
 10
87.8498
 20
55.6454
 30
0.00000
  70
    32
  0
VERTEX
  8
0
  5
5B21
 10
87.8611
 20
55.6803
 30
0.00000
  70
    32
  0
VERTEX
  8
0
  5
5B22
 10
87.8719
 20
55.7153
 30
0.00000
  70
    32
  0
VERTEX
  8
0
  5
5B23
 10
87.8823
 20
55.7504
 30
0.00000
  70
    32
  0
VERTEX
  8
0
  5
5B24
 10
87.8922
 20
55.7857
 30
0.00000
  70
    32
  0
VERTEX
  8
0
  5
5B25
 10
87.9018
 20
55.8211
 30
0.00000
  70
    32
  0
VERTEX
  8
0
  5
5B26
 10
87.9108
 20
55.8566
 30
0.00000
  70
    32
  0
VERTEX
  8
0
  5
5B27
 10
87.9195
 20
55.8923
 30
0.00000
  70
    32
  0
VERTEX
  8
0
  5
5B28
 10
87.9277
 20
55.9280
 30
0.00000
  70
    32
  0
VERTEX
  8
0
  5
5B29
 10
87.9355
 20
55.9638
 30
0.00000
  70
    32
  0
VERTEX
  8
0
  5
5B2A
 10
87.9428
 20
55.9998
 30
0.00000
  70
    32
  0
VERTEX
  8
0
  5
5B2B
 10
87.9497
 20
56.0358
 30
0.00000
  70
    32
  0
VERTEX
  8
0
  5
5B2C
 10
87.9562
 20
56.0719
 30
0.00000
  70
    32
  0
VERTEX
  8
0
  5
5B2D
 10
87.9622
 20
56.1081
 30
0.00000
  70
    32
  0
VERTEX
  8
0
  5
5B2E
 10
87.9678
 20
56.1444
 30
0.00000
  70
    32
  0
VERTEX
  8
0
  5
5B2F
 10
87.9729
 20
56.1807
 30
0.00000
  70
    32
  0
VERTEX
  8
0
  5
5B30
 10
87.9776
 20
56.2171
 30
0.00000
  70
    32
  0
VERTEX
  8
0
  5
5B31
 10
87.9819
 20
56.2536
 30
0.00000
  70
    32
  0
VERTEX
  8
0
  5
5B32
 10
87.9857
 20
56.2901
 30
0.00000
  70
    32
  0
VERTEX
  8
0
  5
5B33
 10
87.9890
 20
56.3267
 30
0.00000
  70
    32
  0
VERTEX
  8
0
  5
5B34
 10
87.9919
 20
56.3633
 30
0.00000
  70
    32
  0
VERTEX
  8
0
  5
5B35
 10
87.9944
 20
56.3999
 30
0.00000
  70
    32
  0
VERTEX
  8
0
  5
5B36
 10
87.9964
 20
56.4366
 30
0.00000
  70
    32
  0
VERTEX
  8
0
  5
5B37
 10
87.9980
 20
56.4733
 30
0.00000
  70
    32
  0
VERTEX
  8
0
  5
5B38
 10
87.9991
 20
56.5101
 30
0.00000
  70
    32
  0
VERTEX
  8
0
  5
5B39
 10
87.9998
 20
56.5468
 30
0.00000
  70
    32
  0
VERTEX
  8
0
  5
5B3A
 10
88.0000
 20
56.5836
 30
0.00000
  70
    32
  0
SEQEND
  8
0
  5
5B3B
  0
LINE
  5
541B
  8
0
 10
88.0000000000002274
 20
56.5835656861124789
 30
0.0
 11
88.0000000000002274
 21
61.1164343139028006
 31
0.0
  0
POLYLINE
  5
541C
  8
0
 10
88.0000000000001563
 20
61.1164343139027935
 30
0.0
 66
     1
 70
     8
  0
VERTEX
  8
0
  5
5B3C
 10
88.0000
 20
61.1164
 30
0.00000
  70
    32
  0
VERTEX
  8
0
  5
5B3D
 10
87.9998
 20
61.1532
 30
0.00000
  70
    32
  0
VERTEX
  8
0
  5
5B3E
 10
87.9991
 20
61.1899
 30
0.00000
  70
    32
  0
VERTEX
  8
0
  5
5B3F
 10
87.9980
 20
61.2267
 30
0.00000
  70
    32
  0
VERTEX
  8
0
  5
5B40
 10
87.9964
 20
61.2634
 30
0.00000
  70
    32
  0
VERTEX
  8
0
  5
5B41
 10
87.9944
 20
61.3001
 30
0.00000
  70
    32
  0
VERTEX
  8
0
  5
5B42
 10
87.9919
 20
61.3367
 30
0.00000
  70
    32
  0
VERTEX
  8
0
  5
5B43
 10
87.9890
 20
61.3733
 30
0.00000
  70
    32
  0
VERTEX
  8
0
  5
5B44
 10
87.9857
 20
61.4099
 30
0.00000
  70
    32
  0
VERTEX
  8
0
  5
5B45
 10
87.9819
 20
61.4464
 30
0.00000
  70
    32
  0
VERTEX
  8
0
  5
5B46
 10
87.9776
 20
61.4829
 30
0.00000
  70
    32
  0
VERTEX
  8
0
  5
5B47
 10
87.9729
 20
61.5193
 30
0.00000
  70
    32
  0
VERTEX
  8
0
  5
5B48
 10
87.9678
 20
61.5556
 30
0.00000
  70
    32
  0
VERTEX
  8
0
  5
5B49
 10
87.9622
 20
61.5919
 30
0.00000
  70
    32
  0
VERTEX
  8
0
  5
5B4A
 10
87.9562
 20
61.6281
 30
0.00000
  70
    32
  0
VERTEX
  8
0
  5
5B4B
 10
87.9497
 20
61.6642
 30
0.00000
  70
    32
  0
VERTEX
  8
0
  5
5B4C
 10
87.9428
 20
61.7002
 30
0.00000
  70
    32
  0
VERTEX
  8
0
  5
5B4D
 10
87.9355
 20
61.7362
 30
0.00000
  70
    32
  0
VERTEX
  8
0
  5
5B4E
 10
87.9277
 20
61.7720
 30
0.00000
  70
    32
  0
VERTEX
  8
0
  5
5B4F
 10
87.9195
 20
61.8077
 30
0.00000
  70
    32
  0
VERTEX
  8
0
  5
5B50
 10
87.9108
 20
61.8434
 30
0.00000
  70
    32
  0
VERTEX
  8
0
  5
5B51
 10
87.9018
 20
61.8789
 30
0.00000
  70
    32
  0
VERTEX
  8
0
  5
5B52
 10
87.8922
 20
61.9143
 30
0.00000
  70
    32
  0
VERTEX
  8
0
  5
5B53
 10
87.8823
 20
61.9496
 30
0.00000
  70
    32
  0
VERTEX
  8
0
  5
5B54
 10
87.8719
 20
61.9847
 30
0.00000
  70
    32
  0
VERTEX
  8
0
  5
5B55
 10
87.8611
 20
62.0197
 30
0.00000
  70
    32
  0
VERTEX
  8
0
  5
5B56
 10
87.8498
 20
62.0546
 30
0.00000
  70
    32
  0
VERTEX
  8
0
  5
5B57
 10
87.8382
 20
62.0893
 30
0.00000
  70
    32
  0
VERTEX
  8
0
  5
5B58
 10
87.8261
 20
62.1239
 30
0.00000
  70
    32
  0
VERTEX
  8
0
  5
5B59
 10
87.8136
 20
62.1583
 30
0.00000
  70
    32
  0
VERTEX
  8
0
  5
5B5A
 10
87.8006
 20
62.1926
 30
0.00000
  70
    32
  0
VERTEX
  8
0
  5
5B5B
 10
87.7873
 20
62.2267
 30
0.00000
  70
    32
  0
VERTEX
  8
0
  5
5B5C
 10
87.7735
 20
62.2606
 30
0.00000
  70
    32
  0
VERTEX
  8
0
  5
5B5D
 10
87.7593
 20
62.2944
 30
0.00000
  70
    32
  0
VERTEX
  8
0
  5
5B5E
 10
87.7447
 20
62.3280
 30
0.00000
  70
    32
  0
VERTEX
  8
0
  5
5B5F
 10
87.7297
 20
62.3614
 30
0.00000
  70
    32
  0
VERTEX
  8
0
  5
5B60
 10
87.7143
 20
62.3946
 30
0.00000
  70
    32
  0
VERTEX
  8
0
  5
5B61
 10
87.6985
 20
62.4276
 30
0.00000
  70
    32
  0
VERTEX
  8
0
  5
5B62
 10
87.6823
 20
62.4604
 30
0.00000
  70
    32
  0
VERTEX
  8
0
  5
5B63
 10
87.6657
 20
62.4930
 30
0.00000
  70
    32
  0
VERTEX
  8
0
  5
5B64
 10
87.6487
 20
62.5254
 30
0.00000
  70
    32
  0
VERTEX
  8
0
  5
5B65
 10
87.6312
 20
62.5576
 30
0.00000
  70
    32
  0
VERTEX
  8
0
  5
5B66
 10
87.6134
 20
62.5895
 30
0.00000
  70
    32
  0
VERTEX
  8
0
  5
5B67
 10
87.5952
 20
62.6213
 30
0.00000
  70
    32
  0
VERTEX
  8
0
  5
5B68
 10
87.5766
 20
62.6528
 30
0.00000
  70
    32
  0
VERTEX
  8
0
  5
5B69
 10
87.5577
 20
62.6841
 30
0.00000
  70
    32
  0
VERTEX
  8
0
  5
5B6A
 10
87.5383
 20
62.7151
 30
0.00000
  70
    32
  0
VERTEX
  8
0
  5
5B6B
 10
87.5186
 20
62.7459
 30
0.00000
  70
    32
  0
VERTEX
  8
0
  5
5B6C
 10
87.4985
 20
62.7765
 30
0.00000
  70
    32
  0
VERTEX
  8
0
  5
5B6D
 10
87.4780
 20
62.8068
 30
0.00000
  70
    32
  0
VERTEX
  8
0
  5
5B6E
 10
87.4571
 20
62.8368
 30
0.00000
  70
    32
  0
VERTEX
  8
0
  5
5B6F
 10
87.4359
 20
62.8666
 30
0.00000
  70
    32
  0
VERTEX
  8
0
  5
5B70
 10
87.4143
 20
62.8961
 30
0.00000
  70
    32
  0
VERTEX
  8
0
  5
5B71
 10
87.3924
 20
62.9253
 30
0.00000
  70
    32
  0
VERTEX
  8
0
  5
5B72
 10
87.3701
 20
62.9543
 30
0.00000
  70
    32
  0
VERTEX
  8
0
  5
5B73
 10
87.3474
 20
62.9830
 30
0.00000
  70
    32
  0
VERTEX
  8
0
  5
5B74
 10
87.3244
 20
63.0114
 30
0.00000
  70
    32
  0
VERTEX
  8
0
  5
5B75
 10
87.3010
 20
63.0396
 30
0.00000
  70
    32
  0
VERTEX
  8
0
  5
5B76
 10
87.2773
 20
63.0674
 30
0.00000
  70
    32
  0
VERTEX
  8
0
  5
5B77
 10
87.2533
 20
63.0949
 30
0.00000
  70
    32
  0
VERTEX
  8
0
  5
5B78
 10
87.2289
 20
63.1222
 30
0.00000
  70
    32
  0
VERTEX
  8
0
  5
5B79
 10
87.2042
 20
63.1491
 30
0.00000
  70
    32
  0
VERTEX
  8
0
  5
5B7A
 10
87.1792
 20
63.1758
 30
0.00000
  70
    32
  0
VERTEX
  8
0
  5
5B7B
 10
87.1538
 20
63.2021
 30
0.00000
  70
    32
  0
VERTEX
  8
0
  5
5B7C
 10
87.1281
 20
63.2281
 30
0.00000
  70
    32
  0
VERTEX
  8
0
  5
5B7D
 10
87.1021
 20
63.2538
 30
0.00000
  70
    32
  0
VERTEX
  8
0
  5
5B7E
 10
87.0758
 20
63.2792
 30
0.00000
  70
    32
  0
VERTEX
  8
0
  5
5B7F
 10
87.0491
 20
63.3042
 30
0.00000
  70
    32
  0
VERTEX
  8
0
  5
5B80
 10
87.0222
 20
63.3289
 30
0.00000
  70
    32
  0
VERTEX
  8
0
  5
5B81
 10
86.9949
 20
63.3533
 30
0.00000
  70
    32
  0
VERTEX
  8
0
  5
5B82
 10
86.9674
 20
63.3773
 30
0.00000
  70
    32
  0
VERTEX
  8
0
  5
5B83
 10
86.9396
 20
63.4010
 30
0.00000
  70
    32
  0
VERTEX
  8
0
  5
5B84
 10
86.9114
 20
63.4244
 30
0.00000
  70
    32
  0
VERTEX
  8
0
  5
5B85
 10
86.8830
 20
63.4474
 30
0.00000
  70
    32
  0
VERTEX
  8
0
  5
5B86
 10
86.8543
 20
63.4701
 30
0.00000
  70
    32
  0
VERTEX
  8
0
  5
5B87
 10
86.8253
 20
63.4924
 30
0.00000
  70
    32
  0
VERTEX
  8
0
  5
5B88
 10
86.7961
 20
63.5143
 30
0.00000
  70
    32
  0
VERTEX
  8
0
  5
5B89
 10
86.7666
 20
63.5359
 30
0.00000
  70
    32
  0
VERTEX
  8
0
  5
5B8A
 10
86.7368
 20
63.5571
 30
0.00000
  70
    32
  0
VERTEX
  8
0
  5
5B8B
 10
86.7068
 20
63.5780
 30
0.00000
  70
    32
  0
VERTEX
  8
0
  5
5B8C
 10
86.6765
 20
63.5985
 30
0.00000
  70
    32
  0
VERTEX
  8
0
  5
5B8D
 10
86.6459
 20
63.6186
 30
0.00000
  70
    32
  0
VERTEX
  8
0
  5
5B8E
 10
86.6151
 20
63.6383
 30
0.00000
  70
    32
  0
VERTEX
  8
0
  5
5B8F
 10
86.5841
 20
63.6577
 30
0.00000
  70
    32
  0
VERTEX
  8
0
  5
5B90
 10
86.5528
 20
63.6766
 30
0.00000
  70
    32
  0
VERTEX
  8
0
  5
5B91
 10
86.5213
 20
63.6952
 30
0.00000
  70
    32
  0
VERTEX
  8
0
  5
5B92
 10
86.4895
 20
63.7134
 30
0.00000
  70
    32
  0
VERTEX
  8
0
  5
5B93
 10
86.4576
 20
63.7312
 30
0.00000
  70
    32
  0
VERTEX
  8
0
  5
5B94
 10
86.4254
 20
63.7487
 30
0.00000
  70
    32
  0
VERTEX
  8
0
  5
5B95
 10
86.3930
 20
63.7657
 30
0.00000
  70
    32
  0
VERTEX
  8
0
  5
5B96
 10
86.3604
 20
63.7823
 30
0.00000
  70
    32
  0
VERTEX
  8
0
  5
5B97
 10
86.3276
 20
63.7985
 30
0.00000
  70
    32
  0
VERTEX
  8
0
  5
5B98
 10
86.2946
 20
63.8143
 30
0.00000
  70
    32
  0
VERTEX
  8
0
  5
5B99
 10
86.2614
 20
63.8297
 30
0.00000
  70
    32
  0
VERTEX
  8
0
  5
5B9A
 10
86.2280
 20
63.8447
 30
0.00000
  70
    32
  0
VERTEX
  8
0
  5
5B9B
 10
86.1944
 20
63.8593
 30
0.00000
  70
    32
  0
VERTEX
  8
0
  5
5B9C
 10
86.1606
 20
63.8735
 30
0.00000
  70
    32
  0
VERTEX
  8
0
  5
5B9D
 10
86.1267
 20
63.8873
 30
0.00000
  70
    32
  0
VERTEX
  8
0
  5
5B9E
 10
86.0926
 20
63.9006
 30
0.00000
  70
    32
  0
VERTEX
  8
0
  5
5B9F
 10
86.0583
 20
63.9136
 30
0.00000
  70
    32
  0
VERTEX
  8
0
  5
5BA0
 10
86.0239
 20
63.9261
 30
0.00000
  70
    32
  0
VERTEX
  8
0
  5
5BA1
 10
85.9893
 20
63.9382
 30
0.00000
  70
    32
  0
VERTEX
  8
0
  5
5BA2
 10
85.9546
 20
63.9498
 30
0.00000
  70
    32
  0
VERTEX
  8
0
  5
5BA3
 10
85.9197
 20
63.9611
 30
0.00000
  70
    32
  0
VERTEX
  8
0
  5
5BA4
 10
85.8847
 20
63.9719
 30
0.00000
  70
    32
  0
VERTEX
  8
0
  5
5BA5
 10
85.8496
 20
63.9823
 30
0.00000
  70
    32
  0
VERTEX
  8
0
  5
5BA6
 10
85.8143
 20
63.9922
 30
0.00000
  70
    32
  0
VERTEX
  8
0
  5
5BA7
 10
85.7789
 20
64.0018
 30
0.00000
  70
    32
  0
VERTEX
  8
0
  5
5BA8
 10
85.7434
 20
64.0108
 30
0.00000
  70
    32
  0
VERTEX
  8
0
  5
5BA9
 10
85.7077
 20
64.0195
 30
0.00000
  70
    32
  0
VERTEX
  8
0
  5
5BAA
 10
85.6720
 20
64.0277
 30
0.00000
  70
    32
  0
VERTEX
  8
0
  5
5BAB
 10
85.6362
 20
64.0355
 30
0.00000
  70
    32
  0
VERTEX
  8
0
  5
5BAC
 10
85.6002
 20
64.0428
 30
0.00000
  70
    32
  0
VERTEX
  8
0
  5
5BAD
 10
85.5642
 20
64.0497
 30
0.00000
  70
    32
  0
VERTEX
  8
0
  5
5BAE
 10
85.5281
 20
64.0562
 30
0.00000
  70
    32
  0
VERTEX
  8
0
  5
5BAF
 10
85.4919
 20
64.0622
 30
0.00000
  70
    32
  0
VERTEX
  8
0
  5
5BB0
 10
85.4556
 20
64.0678
 30
0.00000
  70
    32
  0
VERTEX
  8
0
  5
5BB1
 10
85.4193
 20
64.0729
 30
0.00000
  70
    32
  0
VERTEX
  8
0
  5
5BB2
 10
85.3829
 20
64.0776
 30
0.00000
  70
    32
  0
VERTEX
  8
0
  5
5BB3
 10
85.3464
 20
64.0819
 30
0.00000
  70
    32
  0
VERTEX
  8
0
  5
5BB4
 10
85.3099
 20
64.0857
 30
0.00000
  70
    32
  0
VERTEX
  8
0
  5
5BB5
 10
85.2733
 20
64.0890
 30
0.00000
  70
    32
  0
VERTEX
  8
0
  5
5BB6
 10
85.2367
 20
64.0919
 30
0.00000
  70
    32
  0
VERTEX
  8
0
  5
5BB7
 10
85.2001
 20
64.0944
 30
0.00000
  70
    32
  0
VERTEX
  8
0
  5
5BB8
 10
85.1634
 20
64.0964
 30
0.00000
  70
    32
  0
VERTEX
  8
0
  5
5BB9
 10
85.1267
 20
64.0980
 30
0.00000
  70
    32
  0
VERTEX
  8
0
  5
5BBA
 10
85.0899
 20
64.0991
 30
0.00000
  70
    32
  0
VERTEX
  8
0
  5
5BBB
 10
85.0532
 20
64.0998
 30
0.00000
  70
    32
  0
VERTEX
  8
0
  5
5BBC
 10
85.0164
 20
64.1000
 30
0.00000
  70
    32
  0
SEQEND
  8
0
  5
5BBD
  0
LINE
  5
541D
  8
0
 10
85.016434313895374
 20
64.1000000000077534
 30
0.0
 11
77.9835656861050666
 21
64.1000000000077534
 31
0.0
  0
POLYLINE
  5
541E
  8
0
 10
77.9835656861051518
 20
64.1000000000077108
 30
0.0
 66
     1
 70
     8
  0
VERTEX
  8
0
  5
5BBE
 10
77.9836
 20
64.1000
 30
0.00000
  70
    32
  0
VERTEX
  8
0
  5
5BBF
 10
77.9468
 20
64.0998
 30
0.00000
  70
    32
  0
VERTEX
  8
0
  5
5BC0
 10
77.9101
 20
64.0991
 30
0.00000
  70
    32
  0
VERTEX
  8
0
  5
5BC1
 10
77.8733
 20
64.0980
 30
0.00000
  70
    32
  0
VERTEX
  8
0
  5
5BC2
 10
77.8366
 20
64.0964
 30
0.00000
  70
    32
  0
VERTEX
  8
0
  5
5BC3
 10
77.7999
 20
64.0944
 30
0.00000
  70
    32
  0
VERTEX
  8
0
  5
5BC4
 10
77.7633
 20
64.0919
 30
0.00000
  70
    32
  0
VERTEX
  8
0
  5
5BC5
 10
77.7267
 20
64.0890
 30
0.00000
  70
    32
  0
VERTEX
  8
0
  5
5BC6
 10
77.6901
 20
64.0857
 30
0.00000
  70
    32
  0
VERTEX
  8
0
  5
5BC7
 10
77.6536
 20
64.0819
 30
0.00000
  70
    32
  0
VERTEX
  8
0
  5
5BC8
 10
77.6171
 20
64.0776
 30
0.00000
  70
    32
  0
VERTEX
  8
0
  5
5BC9
 10
77.5807
 20
64.0729
 30
0.00000
  70
    32
  0
VERTEX
  8
0
  5
5BCA
 10
77.5444
 20
64.0678
 30
0.00000
  70
    32
  0
VERTEX
  8
0
  5
5BCB
 10
77.5081
 20
64.0622
 30
0.00000
  70
    32
  0
VERTEX
  8
0
  5
5BCC
 10
77.4719
 20
64.0562
 30
0.00000
  70
    32
  0
VERTEX
  8
0
  5
5BCD
 10
77.4358
 20
64.0497
 30
0.00000
  70
    32
  0
VERTEX
  8
0
  5
5BCE
 10
77.3998
 20
64.0428
 30
0.00000
  70
    32
  0
VERTEX
  8
0
  5
5BCF
 10
77.3638
 20
64.0355
 30
0.00000
  70
    32
  0
VERTEX
  8
0
  5
5BD0
 10
77.3280
 20
64.0277
 30
0.00000
  70
    32
  0
VERTEX
  8
0
  5
5BD1
 10
77.2923
 20
64.0195
 30
0.00000
  70
    32
  0
VERTEX
  8
0
  5
5BD2
 10
77.2566
 20
64.0108
 30
0.00000
  70
    32
  0
VERTEX
  8
0
  5
5BD3
 10
77.2211
 20
64.0018
 30
0.00000
  70
    32
  0
VERTEX
  8
0
  5
5BD4
 10
77.1857
 20
63.9922
 30
0.00000
  70
    32
  0
VERTEX
  8
0
  5
5BD5
 10
77.1504
 20
63.9823
 30
0.00000
  70
    32
  0
VERTEX
  8
0
  5
5BD6
 10
77.1153
 20
63.9719
 30
0.00000
  70
    32
  0
VERTEX
  8
0
  5
5BD7
 10
77.0803
 20
63.9611
 30
0.00000
  70
    32
  0
VERTEX
  8
0
  5
5BD8
 10
77.0454
 20
63.9498
 30
0.00000
  70
    32
  0
VERTEX
  8
0
  5
5BD9
 10
77.0107
 20
63.9382
 30
0.00000
  70
    32
  0
VERTEX
  8
0
  5
5BDA
 10
76.9761
 20
63.9261
 30
0.00000
  70
    32
  0
VERTEX
  8
0
  5
5BDB
 10
76.9417
 20
63.9136
 30
0.00000
  70
    32
  0
VERTEX
  8
0
  5
5BDC
 10
76.9074
 20
63.9006
 30
0.00000
  70
    32
  0
VERTEX
  8
0
  5
5BDD
 10
76.8733
 20
63.8873
 30
0.00000
  70
    32
  0
VERTEX
  8
0
  5
5BDE
 10
76.8394
 20
63.8735
 30
0.00000
  70
    32
  0
VERTEX
  8
0
  5
5BDF
 10
76.8056
 20
63.8593
 30
0.00000
  70
    32
  0
VERTEX
  8
0
  5
5BE0
 10
76.7720
 20
63.8447
 30
0.00000
  70
    32
  0
VERTEX
  8
0
  5
5BE1
 10
76.7386
 20
63.8297
 30
0.00000
  70
    32
  0
VERTEX
  8
0
  5
5BE2
 10
76.7054
 20
63.8143
 30
0.00000
  70
    32
  0
VERTEX
  8
0
  5
5BE3
 10
76.6724
 20
63.7985
 30
0.00000
  70
    32
  0
VERTEX
  8
0
  5
5BE4
 10
76.6396
 20
63.7823
 30
0.00000
  70
    32
  0
VERTEX
  8
0
  5
5BE5
 10
76.6070
 20
63.7657
 30
0.00000
  70
    32
  0
VERTEX
  8
0
  5
5BE6
 10
76.5746
 20
63.7487
 30
0.00000
  70
    32
  0
VERTEX
  8
0
  5
5BE7
 10
76.5424
 20
63.7312
 30
0.00000
  70
    32
  0
VERTEX
  8
0
  5
5BE8
 10
76.5105
 20
63.7134
 30
0.00000
  70
    32
  0
VERTEX
  8
0
  5
5BE9
 10
76.4787
 20
63.6952
 30
0.00000
  70
    32
  0
VERTEX
  8
0
  5
5BEA
 10
76.4472
 20
63.6766
 30
0.00000
  70
    32
  0
VERTEX
  8
0
  5
5BEB
 10
76.4159
 20
63.6577
 30
0.00000
  70
    32
  0
VERTEX
  8
0
  5
5BEC
 10
76.3849
 20
63.6383
 30
0.00000
  70
    32
  0
VERTEX
  8
0
  5
5BED
 10
76.3541
 20
63.6186
 30
0.00000
  70
    32
  0
VERTEX
  8
0
  5
5BEE
 10
76.3235
 20
63.5985
 30
0.00000
  70
    32
  0
VERTEX
  8
0
  5
5BEF
 10
76.2932
 20
63.5780
 30
0.00000
  70
    32
  0
VERTEX
  8
0
  5
5BF0
 10
76.2632
 20
63.5571
 30
0.00000
  70
    32
  0
VERTEX
  8
0
  5
5BF1
 10
76.2334
 20
63.5359
 30
0.00000
  70
    32
  0
VERTEX
  8
0
  5
5BF2
 10
76.2039
 20
63.5143
 30
0.00000
  70
    32
  0
VERTEX
  8
0
  5
5BF3
 10
76.1747
 20
63.4924
 30
0.00000
  70
    32
  0
VERTEX
  8
0
  5
5BF4
 10
76.1457
 20
63.4701
 30
0.00000
  70
    32
  0
VERTEX
  8
0
  5
5BF5
 10
76.1170
 20
63.4474
 30
0.00000
  70
    32
  0
VERTEX
  8
0
  5
5BF6
 10
76.0886
 20
63.4244
 30
0.00000
  70
    32
  0
VERTEX
  8
0
  5
5BF7
 10
76.0604
 20
63.4010
 30
0.00000
  70
    32
  0
VERTEX
  8
0
  5
5BF8
 10
76.0326
 20
63.3773
 30
0.00000
  70
    32
  0
VERTEX
  8
0
  5
5BF9
 10
76.0051
 20
63.3533
 30
0.00000
  70
    32
  0
VERTEX
  8
0
  5
5BFA
 10
75.9778
 20
63.3289
 30
0.00000
  70
    32
  0
VERTEX
  8
0
  5
5BFB
 10
75.9509
 20
63.3042
 30
0.00000
  70
    32
  0
VERTEX
  8
0
  5
5BFC
 10
75.9242
 20
63.2792
 30
0.00000
  70
    32
  0
VERTEX
  8
0
  5
5BFD
 10
75.8979
 20
63.2538
 30
0.00000
  70
    32
  0
VERTEX
  8
0
  5
5BFE
 10
75.8719
 20
63.2281
 30
0.00000
  70
    32
  0
VERTEX
  8
0
  5
5BFF
 10
75.8462
 20
63.2021
 30
0.00000
  70
    32
  0
VERTEX
  8
0
  5
5C00
 10
75.8208
 20
63.1758
 30
0.00000
  70
    32
  0
VERTEX
  8
0
  5
5C01
 10
75.7958
 20
63.1491
 30
0.00000
  70
    32
  0
VERTEX
  8
0
  5
5C02
 10
75.7711
 20
63.1222
 30
0.00000
  70
    32
  0
VERTEX
  8
0
  5
5C03
 10
75.7467
 20
63.0949
 30
0.00000
  70
    32
  0
VERTEX
  8
0
  5
5C04
 10
75.7227
 20
63.0674
 30
0.00000
  70
    32
  0
VERTEX
  8
0
  5
5C05
 10
75.6990
 20
63.0396
 30
0.00000
  70
    32
  0
VERTEX
  8
0
  5
5C06
 10
75.6756
 20
63.0114
 30
0.00000
  70
    32
  0
VERTEX
  8
0
  5
5C07
 10
75.6526
 20
62.9830
 30
0.00000
  70
    32
  0
VERTEX
  8
0
  5
5C08
 10
75.6299
 20
62.9543
 30
0.00000
  70
    32
  0
VERTEX
  8
0
  5
5C09
 10
75.6076
 20
62.9253
 30
0.00000
  70
    32
  0
VERTEX
  8
0
  5
5C0A
 10
75.5857
 20
62.8961
 30
0.00000
  70
    32
  0
VERTEX
  8
0
  5
5C0B
 10
75.5641
 20
62.8666
 30
0.00000
  70
    32
  0
VERTEX
  8
0
  5
5C0C
 10
75.5429
 20
62.8368
 30
0.00000
  70
    32
  0
VERTEX
  8
0
  5
5C0D
 10
75.5220
 20
62.8068
 30
0.00000
  70
    32
  0
VERTEX
  8
0
  5
5C0E
 10
75.5015
 20
62.7765
 30
0.00000
  70
    32
  0
VERTEX
  8
0
  5
5C0F
 10
75.4814
 20
62.7459
 30
0.00000
  70
    32
  0
VERTEX
  8
0
  5
5C10
 10
75.4617
 20
62.7151
 30
0.00000
  70
    32
  0
VERTEX
  8
0
  5
5C11
 10
75.4423
 20
62.6841
 30
0.00000
  70
    32
  0
VERTEX
  8
0
  5
5C12
 10
75.4234
 20
62.6528
 30
0.00000
  70
    32
  0
VERTEX
  8
0
  5
5C13
 10
75.4048
 20
62.6213
 30
0.00000
  70
    32
  0
VERTEX
  8
0
  5
5C14
 10
75.3866
 20
62.5895
 30
0.00000
  70
    32
  0
VERTEX
  8
0
  5
5C15
 10
75.3688
 20
62.5576
 30
0.00000
  70
    32
  0
VERTEX
  8
0
  5
5C16
 10
75.3513
 20
62.5254
 30
0.00000
  70
    32
  0
VERTEX
  8
0
  5
5C17
 10
75.3343
 20
62.4930
 30
0.00000
  70
    32
  0
VERTEX
  8
0
  5
5C18
 10
75.3177
 20
62.4604
 30
0.00000
  70
    32
  0
VERTEX
  8
0
  5
5C19
 10
75.3015
 20
62.4276
 30
0.00000
  70
    32
  0
VERTEX
  8
0
  5
5C1A
 10
75.2857
 20
62.3946
 30
0.00000
  70
    32
  0
VERTEX
  8
0
  5
5C1B
 10
75.2703
 20
62.3614
 30
0.00000
  70
    32
  0
VERTEX
  8
0
  5
5C1C
 10
75.2553
 20
62.3280
 30
0.00000
  70
    32
  0
VERTEX
  8
0
  5
5C1D
 10
75.2407
 20
62.2944
 30
0.00000
  70
    32
  0
VERTEX
  8
0
  5
5C1E
 10
75.2265
 20
62.2606
 30
0.00000
  70
    32
  0
VERTEX
  8
0
  5
5C1F
 10
75.2127
 20
62.2267
 30
0.00000
  70
    32
  0
VERTEX
  8
0
  5
5C20
 10
75.1994
 20
62.1926
 30
0.00000
  70
    32
  0
VERTEX
  8
0
  5
5C21
 10
75.1864
 20
62.1583
 30
0.00000
  70
    32
  0
VERTEX
  8
0
  5
5C22
 10
75.1739
 20
62.1239
 30
0.00000
  70
    32
  0
VERTEX
  8
0
  5
5C23
 10
75.1618
 20
62.0893
 30
0.00000
  70
    32
  0
VERTEX
  8
0
  5
5C24
 10
75.1502
 20
62.0546
 30
0.00000
  70
    32
  0
VERTEX
  8
0
  5
5C25
 10
75.1389
 20
62.0197
 30
0.00000
  70
    32
  0
VERTEX
  8
0
  5
5C26
 10
75.1281
 20
61.9847
 30
0.00000
  70
    32
  0
VERTEX
  8
0
  5
5C27
 10
75.1177
 20
61.9496
 30
0.00000
  70
    32
  0
VERTEX
  8
0
  5
5C28
 10
75.1078
 20
61.9143
 30
0.00000
  70
    32
  0
VERTEX
  8
0
  5
5C29
 10
75.0982
 20
61.8789
 30
0.00000
  70
    32
  0
VERTEX
  8
0
  5
5C2A
 10
75.0892
 20
61.8434
 30
0.00000
  70
    32
  0
VERTEX
  8
0
  5
5C2B
 10
75.0805
 20
61.8077
 30
0.00000
  70
    32
  0
VERTEX
  8
0
  5
5C2C
 10
75.0723
 20
61.7720
 30
0.00000
  70
    32
  0
VERTEX
  8
0
  5
5C2D
 10
75.0645
 20
61.7362
 30
0.00000
  70
    32
  0
VERTEX
  8
0
  5
5C2E
 10
75.0572
 20
61.7002
 30
0.00000
  70
    32
  0
VERTEX
  8
0
  5
5C2F
 10
75.0503
 20
61.6642
 30
0.00000
  70
    32
  0
VERTEX
  8
0
  5
5C30
 10
75.0438
 20
61.6281
 30
0.00000
  70
    32
  0
VERTEX
  8
0
  5
5C31
 10
75.0378
 20
61.5919
 30
0.00000
  70
    32
  0
VERTEX
  8
0
  5
5C32
 10
75.0322
 20
61.5556
 30
0.00000
  70
    32
  0
VERTEX
  8
0
  5
5C33
 10
75.0271
 20
61.5193
 30
0.00000
  70
    32
  0
VERTEX
  8
0
  5
5C34
 10
75.0224
 20
61.4829
 30
0.00000
  70
    32
  0
VERTEX
  8
0
  5
5C35
 10
75.0181
 20
61.4464
 30
0.00000
  70
    32
  0
VERTEX
  8
0
  5
5C36
 10
75.0143
 20
61.4099
 30
0.00000
  70
    32
  0
VERTEX
  8
0
  5
5C37
 10
75.0110
 20
61.3733
 30
0.00000
  70
    32
  0
VERTEX
  8
0
  5
5C38
 10
75.0081
 20
61.3367
 30
0.00000
  70
    32
  0
VERTEX
  8
0
  5
5C39
 10
75.0056
 20
61.3001
 30
0.00000
  70
    32
  0
VERTEX
  8
0
  5
5C3A
 10
75.0036
 20
61.2634
 30
0.00000
  70
    32
  0
VERTEX
  8
0
  5
5C3B
 10
75.0020
 20
61.2267
 30
0.00000
  70
    32
  0
VERTEX
  8
0
  5
5C3C
 10
75.0009
 20
61.1899
 30
0.00000
  70
    32
  0
VERTEX
  8
0
  5
5C3D
 10
75.0002
 20
61.1532
 30
0.00000
  70
    32
  0
VERTEX
  8
0
  5
5C3E
 10
75.0000
 20
61.1164
 30
0.00000
  70
    32
  0
SEQEND
  8
0
  5
5C3F
  0
LINE
  5
541F
  8
0
 10
75.0000000000002274
 20
61.1164343139028006
 30
0.0
 11
75.0000000000002274
 21
56.5835656861124789
 31
0.0
  0
POLYLINE
  5
5420
  8
0
 10
75.0000000000002842
 20
56.5835656861125287
 30
0.0
 66
     1
 70
     8
  0
VERTEX
  8
0
  5
5C40
 10
75.0000
 20
56.5836
 30
0.00000
  70
    32
  0
VERTEX
  8
0
  5
5C41
 10
75.0002
 20
56.5468
 30
0.00000
  70
    32
  0
VERTEX
  8
0
  5
5C42
 10
75.0009
 20
56.5101
 30
0.00000
  70
    32
  0
VERTEX
  8
0
  5
5C43
 10
75.0020
 20
56.4733
 30
0.00000
  70
    32
  0
VERTEX
  8
0
  5
5C44
 10
75.0036
 20
56.4366
 30
0.00000
  70
    32
  0
VERTEX
  8
0
  5
5C45
 10
75.0056
 20
56.3999
 30
0.00000
  70
    32
  0
VERTEX
  8
0
  5
5C46
 10
75.0081
 20
56.3633
 30
0.00000
  70
    32
  0
VERTEX
  8
0
  5
5C47
 10
75.0110
 20
56.3267
 30
0.00000
  70
    32
  0
VERTEX
  8
0
  5
5C48
 10
75.0143
 20
56.2901
 30
0.00000
  70
    32
  0
VERTEX
  8
0
  5
5C49
 10
75.0181
 20
56.2536
 30
0.00000
  70
    32
  0
VERTEX
  8
0
  5
5C4A
 10
75.0224
 20
56.2171
 30
0.00000
  70
    32
  0
VERTEX
  8
0
  5
5C4B
 10
75.0271
 20
56.1807
 30
0.00000
  70
    32
  0
VERTEX
  8
0
  5
5C4C
 10
75.0322
 20
56.1444
 30
0.00000
  70
    32
  0
VERTEX
  8
0
  5
5C4D
 10
75.0378
 20
56.1081
 30
0.00000
  70
    32
  0
VERTEX
  8
0
  5
5C4E
 10
75.0438
 20
56.0719
 30
0.00000
  70
    32
  0
VERTEX
  8
0
  5
5C4F
 10
75.0503
 20
56.0358
 30
0.00000
  70
    32
  0
VERTEX
  8
0
  5
5C50
 10
75.0572
 20
55.9998
 30
0.00000
  70
    32
  0
VERTEX
  8
0
  5
5C51
 10
75.0645
 20
55.9638
 30
0.00000
  70
    32
  0
VERTEX
  8
0
  5
5C52
 10
75.0723
 20
55.9280
 30
0.00000
  70
    32
  0
VERTEX
  8
0
  5
5C53
 10
75.0805
 20
55.8923
 30
0.00000
  70
    32
  0
VERTEX
  8
0
  5
5C54
 10
75.0892
 20
55.8566
 30
0.00000
  70
    32
  0
VERTEX
  8
0
  5
5C55
 10
75.0982
 20
55.8211
 30
0.00000
  70
    32
  0
VERTEX
  8
0
  5
5C56
 10
75.1078
 20
55.7857
 30
0.00000
  70
    32
  0
VERTEX
  8
0
  5
5C57
 10
75.1177
 20
55.7504
 30
0.00000
  70
    32
  0
VERTEX
  8
0
  5
5C58
 10
75.1281
 20
55.7153
 30
0.00000
  70
    32
  0
VERTEX
  8
0
  5
5C59
 10
75.1389
 20
55.6803
 30
0.00000
  70
    32
  0
VERTEX
  8
0
  5
5C5A
 10
75.1502
 20
55.6454
 30
0.00000
  70
    32
  0
VERTEX
  8
0
  5
5C5B
 10
75.1618
 20
55.6107
 30
0.00000
  70
    32
  0
VERTEX
  8
0
  5
5C5C
 10
75.1739
 20
55.5761
 30
0.00000
  70
    32
  0
VERTEX
  8
0
  5
5C5D
 10
75.1864
 20
55.5417
 30
0.00000
  70
    32
  0
VERTEX
  8
0
  5
5C5E
 10
75.1994
 20
55.5074
 30
0.00000
  70
    32
  0
VERTEX
  8
0
  5
5C5F
 10
75.2127
 20
55.4733
 30
0.00000
  70
    32
  0
VERTEX
  8
0
  5
5C60
 10
75.2265
 20
55.4394
 30
0.00000
  70
    32
  0
VERTEX
  8
0
  5
5C61
 10
75.2407
 20
55.4056
 30
0.00000
  70
    32
  0
VERTEX
  8
0
  5
5C62
 10
75.2553
 20
55.3720
 30
0.00000
  70
    32
  0
VERTEX
  8
0
  5
5C63
 10
75.2703
 20
55.3386
 30
0.00000
  70
    32
  0
VERTEX
  8
0
  5
5C64
 10
75.2857
 20
55.3054
 30
0.00000
  70
    32
  0
VERTEX
  8
0
  5
5C65
 10
75.3015
 20
55.2724
 30
0.00000
  70
    32
  0
VERTEX
  8
0
  5
5C66
 10
75.3177
 20
55.2396
 30
0.00000
  70
    32
  0
VERTEX
  8
0
  5
5C67
 10
75.3343
 20
55.2070
 30
0.00000
  70
    32
  0
VERTEX
  8
0
  5
5C68
 10
75.3513
 20
55.1746
 30
0.00000
  70
    32
  0
VERTEX
  8
0
  5
5C69
 10
75.3688
 20
55.1424
 30
0.00000
  70
    32
  0
VERTEX
  8
0
  5
5C6A
 10
75.3866
 20
55.1105
 30
0.00000
  70
    32
  0
VERTEX
  8
0
  5
5C6B
 10
75.4048
 20
55.0787
 30
0.00000
  70
    32
  0
VERTEX
  8
0
  5
5C6C
 10
75.4234
 20
55.0472
 30
0.00000
  70
    32
  0
VERTEX
  8
0
  5
5C6D
 10
75.4423
 20
55.0159
 30
0.00000
  70
    32
  0
VERTEX
  8
0
  5
5C6E
 10
75.4617
 20
54.9849
 30
0.00000
  70
    32
  0
VERTEX
  8
0
  5
5C6F
 10
75.4814
 20
54.9541
 30
0.00000
  70
    32
  0
VERTEX
  8
0
  5
5C70
 10
75.5015
 20
54.9235
 30
0.00000
  70
    32
  0
VERTEX
  8
0
  5
5C71
 10
75.5220
 20
54.8932
 30
0.00000
  70
    32
  0
VERTEX
  8
0
  5
5C72
 10
75.5429
 20
54.8632
 30
0.00000
  70
    32
  0
VERTEX
  8
0
  5
5C73
 10
75.5641
 20
54.8334
 30
0.00000
  70
    32
  0
VERTEX
  8
0
  5
5C74
 10
75.5857
 20
54.8039
 30
0.00000
  70
    32
  0
VERTEX
  8
0
  5
5C75
 10
75.6076
 20
54.7747
 30
0.00000
  70
    32
  0
VERTEX
  8
0
  5
5C76
 10
75.6299
 20
54.7457
 30
0.00000
  70
    32
  0
VERTEX
  8
0
  5
5C77
 10
75.6526
 20
54.7170
 30
0.00000
  70
    32
  0
VERTEX
  8
0
  5
5C78
 10
75.6756
 20
54.6886
 30
0.00000
  70
    32
  0
VERTEX
  8
0
  5
5C79
 10
75.6990
 20
54.6604
 30
0.00000
  70
    32
  0
VERTEX
  8
0
  5
5C7A
 10
75.7227
 20
54.6326
 30
0.00000
  70
    32
  0
VERTEX
  8
0
  5
5C7B
 10
75.7467
 20
54.6051
 30
0.00000
  70
    32
  0
VERTEX
  8
0
  5
5C7C
 10
75.7711
 20
54.5778
 30
0.00000
  70
    32
  0
VERTEX
  8
0
  5
5C7D
 10
75.7958
 20
54.5509
 30
0.00000
  70
    32
  0
VERTEX
  8
0
  5
5C7E
 10
75.8208
 20
54.5242
 30
0.00000
  70
    32
  0
VERTEX
  8
0
  5
5C7F
 10
75.8462
 20
54.4979
 30
0.00000
  70
    32
  0
VERTEX
  8
0
  5
5C80
 10
75.8719
 20
54.4719
 30
0.00000
  70
    32
  0
VERTEX
  8
0
  5
5C81
 10
75.8979
 20
54.4462
 30
0.00000
  70
    32
  0
VERTEX
  8
0
  5
5C82
 10
75.9242
 20
54.4208
 30
0.00000
  70
    32
  0
VERTEX
  8
0
  5
5C83
 10
75.9509
 20
54.3958
 30
0.00000
  70
    32
  0
VERTEX
  8
0
  5
5C84
 10
75.9778
 20
54.3711
 30
0.00000
  70
    32
  0
VERTEX
  8
0
  5
5C85
 10
76.0051
 20
54.3467
 30
0.00000
  70
    32
  0
VERTEX
  8
0
  5
5C86
 10
76.0326
 20
54.3227
 30
0.00000
  70
    32
  0
VERTEX
  8
0
  5
5C87
 10
76.0604
 20
54.2990
 30
0.00000
  70
    32
  0
VERTEX
  8
0
  5
5C88
 10
76.0886
 20
54.2756
 30
0.00000
  70
    32
  0
VERTEX
  8
0
  5
5C89
 10
76.1170
 20
54.2526
 30
0.00000
  70
    32
  0
VERTEX
  8
0
  5
5C8A
 10
76.1457
 20
54.2299
 30
0.00000
  70
    32
  0
VERTEX
  8
0
  5
5C8B
 10
76.1747
 20
54.2076
 30
0.00000
  70
    32
  0
VERTEX
  8
0
  5
5C8C
 10
76.2039
 20
54.1857
 30
0.00000
  70
    32
  0
VERTEX
  8
0
  5
5C8D
 10
76.2334
 20
54.1641
 30
0.00000
  70
    32
  0
VERTEX
  8
0
  5
5C8E
 10
76.2632
 20
54.1429
 30
0.00000
  70
    32
  0
VERTEX
  8
0
  5
5C8F
 10
76.2932
 20
54.1220
 30
0.00000
  70
    32
  0
VERTEX
  8
0
  5
5C90
 10
76.3235
 20
54.1015
 30
0.00000
  70
    32
  0
VERTEX
  8
0
  5
5C91
 10
76.3541
 20
54.0814
 30
0.00000
  70
    32
  0
VERTEX
  8
0
  5
5C92
 10
76.3849
 20
54.0617
 30
0.00000
  70
    32
  0
VERTEX
  8
0
  5
5C93
 10
76.4159
 20
54.0423
 30
0.00000
  70
    32
  0
VERTEX
  8
0
  5
5C94
 10
76.4472
 20
54.0234
 30
0.00000
  70
    32
  0
VERTEX
  8
0
  5
5C95
 10
76.4787
 20
54.0048
 30
0.00000
  70
    32
  0
VERTEX
  8
0
  5
5C96
 10
76.5105
 20
53.9866
 30
0.00000
  70
    32
  0
VERTEX
  8
0
  5
5C97
 10
76.5424
 20
53.9688
 30
0.00000
  70
    32
  0
VERTEX
  8
0
  5
5C98
 10
76.5746
 20
53.9513
 30
0.00000
  70
    32
  0
VERTEX
  8
0
  5
5C99
 10
76.6070
 20
53.9343
 30
0.00000
  70
    32
  0
VERTEX
  8
0
  5
5C9A
 10
76.6396
 20
53.9177
 30
0.00000
  70
    32
  0
VERTEX
  8
0
  5
5C9B
 10
76.6724
 20
53.9015
 30
0.00000
  70
    32
  0
VERTEX
  8
0
  5
5C9C
 10
76.7054
 20
53.8857
 30
0.00000
  70
    32
  0
VERTEX
  8
0
  5
5C9D
 10
76.7386
 20
53.8703
 30
0.00000
  70
    32
  0
VERTEX
  8
0
  5
5C9E
 10
76.7720
 20
53.8553
 30
0.00000
  70
    32
  0
VERTEX
  8
0
  5
5C9F
 10
76.8056
 20
53.8407
 30
0.00000
  70
    32
  0
VERTEX
  8
0
  5
5CA0
 10
76.8394
 20
53.8265
 30
0.00000
  70
    32
  0
VERTEX
  8
0
  5
5CA1
 10
76.8733
 20
53.8127
 30
0.00000
  70
    32
  0
VERTEX
  8
0
  5
5CA2
 10
76.9074
 20
53.7994
 30
0.00000
  70
    32
  0
VERTEX
  8
0
  5
5CA3
 10
76.9417
 20
53.7864
 30
0.00000
  70
    32
  0
VERTEX
  8
0
  5
5CA4
 10
76.9761
 20
53.7739
 30
0.00000
  70
    32
  0
VERTEX
  8
0
  5
5CA5
 10
77.0107
 20
53.7618
 30
0.00000
  70
    32
  0
VERTEX
  8
0
  5
5CA6
 10
77.0454
 20
53.7502
 30
0.00000
  70
    32
  0
VERTEX
  8
0
  5
5CA7
 10
77.0803
 20
53.7389
 30
0.00000
  70
    32
  0
VERTEX
  8
0
  5
5CA8
 10
77.1153
 20
53.7281
 30
0.00000
  70
    32
  0
VERTEX
  8
0
  5
5CA9
 10
77.1504
 20
53.7177
 30
0.00000
  70
    32
  0
VERTEX
  8
0
  5
5CAA
 10
77.1857
 20
53.7078
 30
0.00000
  70
    32
  0
VERTEX
  8
0
  5
5CAB
 10
77.2211
 20
53.6982
 30
0.00000
  70
    32
  0
VERTEX
  8
0
  5
5CAC
 10
77.2566
 20
53.6892
 30
0.00000
  70
    32
  0
VERTEX
  8
0
  5
5CAD
 10
77.2923
 20
53.6805
 30
0.00000
  70
    32
  0
VERTEX
  8
0
  5
5CAE
 10
77.3280
 20
53.6723
 30
0.00000
  70
    32
  0
VERTEX
  8
0
  5
5CAF
 10
77.3638
 20
53.6645
 30
0.00000
  70
    32
  0
VERTEX
  8
0
  5
5CB0
 10
77.3998
 20
53.6572
 30
0.00000
  70
    32
  0
VERTEX
  8
0
  5
5CB1
 10
77.4358
 20
53.6503
 30
0.00000
  70
    32
  0
VERTEX
  8
0
  5
5CB2
 10
77.4719
 20
53.6438
 30
0.00000
  70
    32
  0
VERTEX
  8
0
  5
5CB3
 10
77.5081
 20
53.6378
 30
0.00000
  70
    32
  0
VERTEX
  8
0
  5
5CB4
 10
77.5444
 20
53.6322
 30
0.00000
  70
    32
  0
VERTEX
  8
0
  5
5CB5
 10
77.5807
 20
53.6271
 30
0.00000
  70
    32
  0
VERTEX
  8
0
  5
5CB6
 10
77.6171
 20
53.6224
 30
0.00000
  70
    32
  0
VERTEX
  8
0
  5
5CB7
 10
77.6536
 20
53.6181
 30
0.00000
  70
    32
  0
VERTEX
  8
0
  5
5CB8
 10
77.6901
 20
53.6143
 30
0.00000
  70
    32
  0
VERTEX
  8
0
  5
5CB9
 10
77.7267
 20
53.6110
 30
0.00000
  70
    32
  0
VERTEX
  8
0
  5
5CBA
 10
77.7633
 20
53.6081
 30
0.00000
  70
    32
  0
VERTEX
  8
0
  5
5CBB
 10
77.7999
 20
53.6056
 30
0.00000
  70
    32
  0
VERTEX
  8
0
  5
5CBC
 10
77.8366
 20
53.6036
 30
0.00000
  70
    32
  0
VERTEX
  8
0
  5
5CBD
 10
77.8733
 20
53.6020
 30
0.00000
  70
    32
  0
VERTEX
  8
0
  5
5CBE
 10
77.9101
 20
53.6009
 30
0.00000
  70
    32
  0
VERTEX
  8
0
  5
5CBF
 10
77.9468
 20
53.6002
 30
0.00000
  70
    32
  0
VERTEX
  8
0
  5
5CC0
 10
77.9836
 20
53.6000
 30
0.00000
  70
    32
  0
SEQEND
  8
0
  5
5CC1
  0
LINE
  5
5421
  8
0
 10
77.9835656861050666
 20
53.6000000000076398
 30
0.0
 11
85.016434313895374
 21
53.6000000000076398
 31
0.0
  0
LINE
  5
5424
  8
0
 10
84.2807046670354794
 20
63.3642703531479583
 30
0.0
 11
78.719295332964748
 21
63.3642703531479583
 31
0.0
  0
POLYLINE
  5
5425
  8
0
 10
78.7192953329645775
 20
63.3642703531479086
 30
0.0
 66
     1
 70
     8
  0
VERTEX
  8
0
  5
5CC2
 10
78.7193
 20
63.3643
 30
0.00000
  70
    32
  0
VERTEX
  8
0
  5
5CC3
 10
78.6825
 20
63.3640
 30
0.00000
  70
    32
  0
VERTEX
  8
0
  5
5CC4
 10
78.6458
 20
63.3634
 30
0.00000
  70
    32
  0
VERTEX
  8
0
  5
5CC5
 10
78.6091
 20
63.3623
 30
0.00000
  70
    32
  0
VERTEX
  8
0
  5
5CC6
 10
78.5724
 20
63.3607
 30
0.00000
  70
    32
  0
VERTEX
  8
0
  5
5CC7
 10
78.5357
 20
63.3587
 30
0.00000
  70
    32
  0
VERTEX
  8
0
  5
5CC8
 10
78.4990
 20
63.3562
 30
0.00000
  70
    32
  0
VERTEX
  8
0
  5
5CC9
 10
78.4624
 20
63.3533
 30
0.00000
  70
    32
  0
VERTEX
  8
0
  5
5CCA
 10
78.4258
 20
63.3499
 30
0.00000
  70
    32
  0
VERTEX
  8
0
  5
5CCB
 10
78.3893
 20
63.3461
 30
0.00000
  70
    32
  0
VERTEX
  8
0
  5
5CCC
 10
78.3529
 20
63.3419
 30
0.00000
  70
    32
  0
VERTEX
  8
0
  5
5CCD
 10
78.3165
 20
63.3372
 30
0.00000
  70
    32
  0
VERTEX
  8
0
  5
5CCE
 10
78.2801
 20
63.3321
 30
0.00000
  70
    32
  0
VERTEX
  8
0
  5
5CCF
 10
78.2438
 20
63.3265
 30
0.00000
  70
    32
  0
VERTEX
  8
0
  5
5CD0
 10
78.2076
 20
63.3205
 30
0.00000
  70
    32
  0
VERTEX
  8
0
  5
5CD1
 10
78.1715
 20
63.3140
 30
0.00000
  70
    32
  0
VERTEX
  8
0
  5
5CD2
 10
78.1355
 20
63.3071
 30
0.00000
  70
    32
  0
VERTEX
  8
0
  5
5CD3
 10
78.0996
 20
63.2998
 30
0.00000
  70
    32
  0
VERTEX
  8
0
  5
5CD4
 10
78.0637
 20
63.2920
 30
0.00000
  70
    32
  0
VERTEX
  8
0
  5
5CD5
 10
78.0280
 20
63.2838
 30
0.00000
  70
    32
  0
VERTEX
  8
0
  5
5CD6
 10
77.9924
 20
63.2751
 30
0.00000
  70
    32
  0
VERTEX
  8
0
  5
5CD7
 10
77.9568
 20
63.2660
 30
0.00000
  70
    32
  0
VERTEX
  8
0
  5
5CD8
 10
77.9214
 20
63.2565
 30
0.00000
  70
    32
  0
VERTEX
  8
0
  5
5CD9
 10
77.8862
 20
63.2466
 30
0.00000
  70
    32
  0
VERTEX
  8
0
  5
5CDA
 10
77.8510
 20
63.2362
 30
0.00000
  70
    32
  0
VERTEX
  8
0
  5
5CDB
 10
77.8160
 20
63.2254
 30
0.00000
  70
    32
  0
VERTEX
  8
0
  5
5CDC
 10
77.7811
 20
63.2141
 30
0.00000
  70
    32
  0
VERTEX
  8
0
  5
5CDD
 10
77.7464
 20
63.2024
 30
0.00000
  70
    32
  0
VERTEX
  8
0
  5
5CDE
 10
77.7118
 20
63.1904
 30
0.00000
  70
    32
  0
VERTEX
  8
0
  5
5CDF
 10
77.6774
 20
63.1778
 30
0.00000
  70
    32
  0
VERTEX
  8
0
  5
5CE0
 10
77.6431
 20
63.1649
 30
0.00000
  70
    32
  0
VERTEX
  8
0
  5
5CE1
 10
77.6090
 20
63.1516
 30
0.00000
  70
    32
  0
VERTEX
  8
0
  5
5CE2
 10
77.5751
 20
63.1378
 30
0.00000
  70
    32
  0
VERTEX
  8
0
  5
5CE3
 10
77.5413
 20
63.1236
 30
0.00000
  70
    32
  0
VERTEX
  8
0
  5
5CE4
 10
77.5077
 20
63.1090
 30
0.00000
  70
    32
  0
VERTEX
  8
0
  5
5CE5
 10
77.4744
 20
63.0940
 30
0.00000
  70
    32
  0
VERTEX
  8
0
  5
5CE6
 10
77.4411
 20
63.0786
 30
0.00000
  70
    32
  0
VERTEX
  8
0
  5
5CE7
 10
77.4081
 20
63.0628
 30
0.00000
  70
    32
  0
VERTEX
  8
0
  5
5CE8
 10
77.3753
 20
63.0466
 30
0.00000
  70
    32
  0
VERTEX
  8
0
  5
5CE9
 10
77.3427
 20
63.0299
 30
0.00000
  70
    32
  0
VERTEX
  8
0
  5
5CEA
 10
77.3103
 20
63.0129
 30
0.00000
  70
    32
  0
VERTEX
  8
0
  5
5CEB
 10
77.2781
 20
62.9955
 30
0.00000
  70
    32
  0
VERTEX
  8
0
  5
5CEC
 10
77.2462
 20
62.9777
 30
0.00000
  70
    32
  0
VERTEX
  8
0
  5
5CED
 10
77.2144
 20
62.9595
 30
0.00000
  70
    32
  0
VERTEX
  8
0
  5
5CEE
 10
77.1829
 20
62.9409
 30
0.00000
  70
    32
  0
VERTEX
  8
0
  5
5CEF
 10
77.1517
 20
62.9219
 30
0.00000
  70
    32
  0
VERTEX
  8
0
  5
5CF0
 10
77.1206
 20
62.9026
 30
0.00000
  70
    32
  0
VERTEX
  8
0
  5
5CF1
 10
77.0898
 20
62.8829
 30
0.00000
  70
    32
  0
VERTEX
  8
0
  5
5CF2
 10
77.0593
 20
62.8627
 30
0.00000
  70
    32
  0
VERTEX
  8
0
  5
5CF3
 10
77.0290
 20
62.8423
 30
0.00000
  70
    32
  0
VERTEX
  8
0
  5
5CF4
 10
76.9989
 20
62.8214
 30
0.00000
  70
    32
  0
VERTEX
  8
0
  5
5CF5
 10
76.9691
 20
62.8002
 30
0.00000
  70
    32
  0
VERTEX
  8
0
  5
5CF6
 10
76.9396
 20
62.7786
 30
0.00000
  70
    32
  0
VERTEX
  8
0
  5
5CF7
 10
76.9104
 20
62.7566
 30
0.00000
  70
    32
  0
VERTEX
  8
0
  5
5CF8
 10
76.8814
 20
62.7343
 30
0.00000
  70
    32
  0
VERTEX
  8
0
  5
5CF9
 10
76.8527
 20
62.7117
 30
0.00000
  70
    32
  0
VERTEX
  8
0
  5
5CFA
 10
76.8243
 20
62.6887
 30
0.00000
  70
    32
  0
VERTEX
  8
0
  5
5CFB
 10
76.7962
 20
62.6653
 30
0.00000
  70
    32
  0
VERTEX
  8
0
  5
5CFC
 10
76.7683
 20
62.6416
 30
0.00000
  70
    32
  0
VERTEX
  8
0
  5
5CFD
 10
76.7408
 20
62.6176
 30
0.00000
  70
    32
  0
VERTEX
  8
0
  5
5CFE
 10
76.7135
 20
62.5932
 30
0.00000
  70
    32
  0
VERTEX
  8
0
  5
5CFF
 10
76.6866
 20
62.5685
 30
0.00000
  70
    32
  0
VERTEX
  8
0
  5
5D00
 10
76.6600
 20
62.5434
 30
0.00000
  70
    32
  0
VERTEX
  8
0
  5
5D01
 10
76.6336
 20
62.5181
 30
0.00000
  70
    32
  0
VERTEX
  8
0
  5
5D02
 10
76.6076
 20
62.4924
 30
0.00000
  70
    32
  0
VERTEX
  8
0
  5
5D03
 10
76.5819
 20
62.4664
 30
0.00000
  70
    32
  0
VERTEX
  8
0
  5
5D04
 10
76.5566
 20
62.4400
 30
0.00000
  70
    32
  0
VERTEX
  8
0
  5
5D05
 10
76.5315
 20
62.4134
 30
0.00000
  70
    32
  0
VERTEX
  8
0
  5
5D06
 10
76.5068
 20
62.3865
 30
0.00000
  70
    32
  0
VERTEX
  8
0
  5
5D07
 10
76.4824
 20
62.3592
 30
0.00000
  70
    32
  0
VERTEX
  8
0
  5
5D08
 10
76.4584
 20
62.3317
 30
0.00000
  70
    32
  0
VERTEX
  8
0
  5
5D09
 10
76.4347
 20
62.3038
 30
0.00000
  70
    32
  0
VERTEX
  8
0
  5
5D0A
 10
76.4113
 20
62.2757
 30
0.00000
  70
    32
  0
VERTEX
  8
0
  5
5D0B
 10
76.3883
 20
62.2473
 30
0.00000
  70
    32
  0
VERTEX
  8
0
  5
5D0C
 10
76.3657
 20
62.2186
 30
0.00000
  70
    32
  0
VERTEX
  8
0
  5
5D0D
 10
76.3434
 20
62.1896
 30
0.00000
  70
    32
  0
VERTEX
  8
0
  5
5D0E
 10
76.3214
 20
62.1604
 30
0.00000
  70
    32
  0
VERTEX
  8
0
  5
5D0F
 10
76.2998
 20
62.1309
 30
0.00000
  70
    32
  0
VERTEX
  8
0
  5
5D10
 10
76.2786
 20
62.1011
 30
0.00000
  70
    32
  0
VERTEX
  8
0
  5
5D11
 10
76.2577
 20
62.0710
 30
0.00000
  70
    32
  0
VERTEX
  8
0
  5
5D12
 10
76.2373
 20
62.0407
 30
0.00000
  70
    32
  0
VERTEX
  8
0
  5
5D13
 10
76.2171
 20
62.0102
 30
0.00000
  70
    32
  0
VERTEX
  8
0
  5
5D14
 10
76.1974
 20
61.9794
 30
0.00000
  70
    32
  0
VERTEX
  8
0
  5
5D15
 10
76.1781
 20
61.9483
 30
0.00000
  70
    32
  0
VERTEX
  8
0
  5
5D16
 10
76.1591
 20
61.9171
 30
0.00000
  70
    32
  0
VERTEX
  8
0
  5
5D17
 10
76.1405
 20
61.8856
 30
0.00000
  70
    32
  0
VERTEX
  8
0
  5
5D18
 10
76.1223
 20
61.8538
 30
0.00000
  70
    32
  0
VERTEX
  8
0
  5
5D19
 10
76.1045
 20
61.8219
 30
0.00000
  70
    32
  0
VERTEX
  8
0
  5
5D1A
 10
76.0871
 20
61.7897
 30
0.00000
  70
    32
  0
VERTEX
  8
0
  5
5D1B
 10
76.0701
 20
61.7573
 30
0.00000
  70
    32
  0
VERTEX
  8
0
  5
5D1C
 10
76.0534
 20
61.7247
 30
0.00000
  70
    32
  0
VERTEX
  8
0
  5
5D1D
 10
76.0372
 20
61.6919
 30
0.00000
  70
    32
  0
VERTEX
  8
0
  5
5D1E
 10
76.0214
 20
61.6589
 30
0.00000
  70
    32
  0
VERTEX
  8
0
  5
5D1F
 10
76.0060
 20
61.6256
 30
0.00000
  70
    32
  0
VERTEX
  8
0
  5
5D20
 10
75.9910
 20
61.5923
 30
0.00000
  70
    32
  0
VERTEX
  8
0
  5
5D21
 10
75.9764
 20
61.5587
 30
0.00000
  70
    32
  0
VERTEX
  8
0
  5
5D22
 10
75.9622
 20
61.5249
 30
0.00000
  70
    32
  0
VERTEX
  8
0
  5
5D23
 10
75.9484
 20
61.4910
 30
0.00000
  70
    32
  0
VERTEX
  8
0
  5
5D24
 10
75.9351
 20
61.4569
 30
0.00000
  70
    32
  0
VERTEX
  8
0
  5
5D25
 10
75.9222
 20
61.4226
 30
0.00000
  70
    32
  0
VERTEX
  8
0
  5
5D26
 10
75.9096
 20
61.3882
 30
0.00000
  70
    32
  0
VERTEX
  8
0
  5
5D27
 10
75.8976
 20
61.3536
 30
0.00000
  70
    32
  0
VERTEX
  8
0
  5
5D28
 10
75.8859
 20
61.3189
 30
0.00000
  70
    32
  0
VERTEX
  8
0
  5
5D29
 10
75.8746
 20
61.2840
 30
0.00000
  70
    32
  0
VERTEX
  8
0
  5
5D2A
 10
75.8638
 20
61.2490
 30
0.00000
  70
    32
  0
VERTEX
  8
0
  5
5D2B
 10
75.8534
 20
61.2138
 30
0.00000
  70
    32
  0
VERTEX
  8
0
  5
5D2C
 10
75.8435
 20
61.1786
 30
0.00000
  70
    32
  0
VERTEX
  8
0
  5
5D2D
 10
75.8340
 20
61.1432
 30
0.00000
  70
    32
  0
VERTEX
  8
0
  5
5D2E
 10
75.8249
 20
61.1076
 30
0.00000
  70
    32
  0
VERTEX
  8
0
  5
5D2F
 10
75.8162
 20
61.0720
 30
0.00000
  70
    32
  0
VERTEX
  8
0
  5
5D30
 10
75.8080
 20
61.0363
 30
0.00000
  70
    32
  0
VERTEX
  8
0
  5
5D31
 10
75.8002
 20
61.0004
 30
0.00000
  70
    32
  0
VERTEX
  8
0
  5
5D32
 10
75.7929
 20
60.9645
 30
0.00000
  70
    32
  0
VERTEX
  8
0
  5
5D33
 10
75.7860
 20
60.9285
 30
0.00000
  70
    32
  0
VERTEX
  8
0
  5
5D34
 10
75.7795
 20
60.8924
 30
0.00000
  70
    32
  0
VERTEX
  8
0
  5
5D35
 10
75.7735
 20
60.8562
 30
0.00000
  70
    32
  0
VERTEX
  8
0
  5
5D36
 10
75.7679
 20
60.8199
 30
0.00000
  70
    32
  0
VERTEX
  8
0
  5
5D37
 10
75.7628
 20
60.7835
 30
0.00000
  70
    32
  0
VERTEX
  8
0
  5
5D38
 10
75.7581
 20
60.7471
 30
0.00000
  70
    32
  0
VERTEX
  8
0
  5
5D39
 10
75.7539
 20
60.7107
 30
0.00000
  70
    32
  0
VERTEX
  8
0
  5
5D3A
 10
75.7501
 20
60.6742
 30
0.00000
  70
    32
  0
VERTEX
  8
0
  5
5D3B
 10
75.7467
 20
60.6376
 30
0.00000
  70
    32
  0
VERTEX
  8
0
  5
5D3C
 10
75.7438
 20
60.6010
 30
0.00000
  70
    32
  0
VERTEX
  8
0
  5
5D3D
 10
75.7413
 20
60.5643
 30
0.00000
  70
    32
  0
VERTEX
  8
0
  5
5D3E
 10
75.7393
 20
60.5276
 30
0.00000
  70
    32
  0
VERTEX
  8
0
  5
5D3F
 10
75.7377
 20
60.4909
 30
0.00000
  70
    32
  0
VERTEX
  8
0
  5
5D40
 10
75.7366
 20
60.4542
 30
0.00000
  70
    32
  0
VERTEX
  8
0
  5
5D41
 10
75.7360
 20
60.4175
 30
0.00000
  70
    32
  0
VERTEX
  8
0
  5
5D42
 10
75.7357
 20
60.3807
 30
0.00000
  70
    32
  0
SEQEND
  8
0
  5
5D43
  0
POLYLINE
  5
5426
  8
0
 10
87.2642703531404891
 20
60.3807046670430836
 30
0.0
 66
     1
 70
     8
  0
VERTEX
  8
0
  5
5D44
 10
87.2643
 20
60.3807
 30
0.00000
  70
    32
  0
VERTEX
  8
0
  5
5D45
 10
87.2640
 20
60.4175
 30
0.00000
  70
    32
  0
VERTEX
  8
0
  5
5D46
 10
87.2634
 20
60.4542
 30
0.00000
  70
    32
  0
VERTEX
  8
0
  5
5D47
 10
87.2623
 20
60.4909
 30
0.00000
  70
    32
  0
VERTEX
  8
0
  5
5D48
 10
87.2607
 20
60.5276
 30
0.00000
  70
    32
  0
VERTEX
  8
0
  5
5D49
 10
87.2587
 20
60.5643
 30
0.00000
  70
    32
  0
VERTEX
  8
0
  5
5D4A
 10
87.2562
 20
60.6010
 30
0.00000
  70
    32
  0
VERTEX
  8
0
  5
5D4B
 10
87.2533
 20
60.6376
 30
0.00000
  70
    32
  0
VERTEX
  8
0
  5
5D4C
 10
87.2499
 20
60.6742
 30
0.00000
  70
    32
  0
VERTEX
  8
0
  5
5D4D
 10
87.2461
 20
60.7107
 30
0.00000
  70
    32
  0
VERTEX
  8
0
  5
5D4E
 10
87.2419
 20
60.7471
 30
0.00000
  70
    32
  0
VERTEX
  8
0
  5
5D4F
 10
87.2372
 20
60.7835
 30
0.00000
  70
    32
  0
VERTEX
  8
0
  5
5D50
 10
87.2321
 20
60.8199
 30
0.00000
  70
    32
  0
VERTEX
  8
0
  5
5D51
 10
87.2265
 20
60.8562
 30
0.00000
  70
    32
  0
VERTEX
  8
0
  5
5D52
 10
87.2205
 20
60.8924
 30
0.00000
  70
    32
  0
VERTEX
  8
0
  5
5D53
 10
87.2140
 20
60.9285
 30
0.00000
  70
    32
  0
VERTEX
  8
0
  5
5D54
 10
87.2071
 20
60.9645
 30
0.00000
  70
    32
  0
VERTEX
  8
0
  5
5D55
 10
87.1998
 20
61.0004
 30
0.00000
  70
    32
  0
VERTEX
  8
0
  5
5D56
 10
87.1920
 20
61.0363
 30
0.00000
  70
    32
  0
VERTEX
  8
0
  5
5D57
 10
87.1838
 20
61.0720
 30
0.00000
  70
    32
  0
VERTEX
  8
0
  5
5D58
 10
87.1751
 20
61.1076
 30
0.00000
  70
    32
  0
VERTEX
  8
0
  5
5D59
 10
87.1660
 20
61.1432
 30
0.00000
  70
    32
  0
VERTEX
  8
0
  5
5D5A
 10
87.1565
 20
61.1786
 30
0.00000
  70
    32
  0
VERTEX
  8
0
  5
5D5B
 10
87.1466
 20
61.2138
 30
0.00000
  70
    32
  0
VERTEX
  8
0
  5
5D5C
 10
87.1362
 20
61.2490
 30
0.00000
  70
    32
  0
VERTEX
  8
0
  5
5D5D
 10
87.1254
 20
61.2840
 30
0.00000
  70
    32
  0
VERTEX
  8
0
  5
5D5E
 10
87.1141
 20
61.3189
 30
0.00000
  70
    32
  0
VERTEX
  8
0
  5
5D5F
 10
87.1024
 20
61.3536
 30
0.00000
  70
    32
  0
VERTEX
  8
0
  5
5D60
 10
87.0904
 20
61.3882
 30
0.00000
  70
    32
  0
VERTEX
  8
0
  5
5D61
 10
87.0778
 20
61.4226
 30
0.00000
  70
    32
  0
VERTEX
  8
0
  5
5D62
 10
87.0649
 20
61.4569
 30
0.00000
  70
    32
  0
VERTEX
  8
0
  5
5D63
 10
87.0516
 20
61.4910
 30
0.00000
  70
    32
  0
VERTEX
  8
0
  5
5D64
 10
87.0378
 20
61.5249
 30
0.00000
  70
    32
  0
VERTEX
  8
0
  5
5D65
 10
87.0236
 20
61.5587
 30
0.00000
  70
    32
  0
VERTEX
  8
0
  5
5D66
 10
87.0090
 20
61.5923
 30
0.00000
  70
    32
  0
VERTEX
  8
0
  5
5D67
 10
86.9940
 20
61.6256
 30
0.00000
  70
    32
  0
VERTEX
  8
0
  5
5D68
 10
86.9786
 20
61.6589
 30
0.00000
  70
    32
  0
VERTEX
  8
0
  5
5D69
 10
86.9628
 20
61.6919
 30
0.00000
  70
    32
  0
VERTEX
  8
0
  5
5D6A
 10
86.9466
 20
61.7247
 30
0.00000
  70
    32
  0
VERTEX
  8
0
  5
5D6B
 10
86.9299
 20
61.7573
 30
0.00000
  70
    32
  0
VERTEX
  8
0
  5
5D6C
 10
86.9129
 20
61.7897
 30
0.00000
  70
    32
  0
VERTEX
  8
0
  5
5D6D
 10
86.8955
 20
61.8219
 30
0.00000
  70
    32
  0
VERTEX
  8
0
  5
5D6E
 10
86.8777
 20
61.8538
 30
0.00000
  70
    32
  0
VERTEX
  8
0
  5
5D6F
 10
86.8595
 20
61.8856
 30
0.00000
  70
    32
  0
VERTEX
  8
0
  5
5D70
 10
86.8409
 20
61.9171
 30
0.00000
  70
    32
  0
VERTEX
  8
0
  5
5D71
 10
86.8219
 20
61.9483
 30
0.00000
  70
    32
  0
VERTEX
  8
0
  5
5D72
 10
86.8026
 20
61.9794
 30
0.00000
  70
    32
  0
VERTEX
  8
0
  5
5D73
 10
86.7829
 20
62.0102
 30
0.00000
  70
    32
  0
VERTEX
  8
0
  5
5D74
 10
86.7627
 20
62.0407
 30
0.00000
  70
    32
  0
VERTEX
  8
0
  5
5D75
 10
86.7423
 20
62.0710
 30
0.00000
  70
    32
  0
VERTEX
  8
0
  5
5D76
 10
86.7214
 20
62.1011
 30
0.00000
  70
    32
  0
VERTEX
  8
0
  5
5D77
 10
86.7002
 20
62.1309
 30
0.00000
  70
    32
  0
VERTEX
  8
0
  5
5D78
 10
86.6786
 20
62.1604
 30
0.00000
  70
    32
  0
VERTEX
  8
0
  5
5D79
 10
86.6566
 20
62.1896
 30
0.00000
  70
    32
  0
VERTEX
  8
0
  5
5D7A
 10
86.6343
 20
62.2186
 30
0.00000
  70
    32
  0
VERTEX
  8
0
  5
5D7B
 10
86.6117
 20
62.2473
 30
0.00000
  70
    32
  0
VERTEX
  8
0
  5
5D7C
 10
86.5887
 20
62.2757
 30
0.00000
  70
    32
  0
VERTEX
  8
0
  5
5D7D
 10
86.5653
 20
62.3038
 30
0.00000
  70
    32
  0
VERTEX
  8
0
  5
5D7E
 10
86.5416
 20
62.3317
 30
0.00000
  70
    32
  0
VERTEX
  8
0
  5
5D7F
 10
86.5176
 20
62.3592
 30
0.00000
  70
    32
  0
VERTEX
  8
0
  5
5D80
 10
86.4932
 20
62.3865
 30
0.00000
  70
    32
  0
VERTEX
  8
0
  5
5D81
 10
86.4685
 20
62.4134
 30
0.00000
  70
    32
  0
VERTEX
  8
0
  5
5D82
 10
86.4434
 20
62.4400
 30
0.00000
  70
    32
  0
VERTEX
  8
0
  5
5D83
 10
86.4181
 20
62.4664
 30
0.00000
  70
    32
  0
VERTEX
  8
0
  5
5D84
 10
86.3924
 20
62.4924
 30
0.00000
  70
    32
  0
VERTEX
  8
0
  5
5D85
 10
86.3664
 20
62.5181
 30
0.00000
  70
    32
  0
VERTEX
  8
0
  5
5D86
 10
86.3400
 20
62.5434
 30
0.00000
  70
    32
  0
VERTEX
  8
0
  5
5D87
 10
86.3134
 20
62.5685
 30
0.00000
  70
    32
  0
VERTEX
  8
0
  5
5D88
 10
86.2865
 20
62.5932
 30
0.00000
  70
    32
  0
VERTEX
  8
0
  5
5D89
 10
86.2592
 20
62.6176
 30
0.00000
  70
    32
  0
VERTEX
  8
0
  5
5D8A
 10
86.2317
 20
62.6416
 30
0.00000
  70
    32
  0
VERTEX
  8
0
  5
5D8B
 10
86.2038
 20
62.6653
 30
0.00000
  70
    32
  0
VERTEX
  8
0
  5
5D8C
 10
86.1757
 20
62.6887
 30
0.00000
  70
    32
  0
VERTEX
  8
0
  5
5D8D
 10
86.1473
 20
62.7117
 30
0.00000
  70
    32
  0
VERTEX
  8
0
  5
5D8E
 10
86.1186
 20
62.7343
 30
0.00000
  70
    32
  0
VERTEX
  8
0
  5
5D8F
 10
86.0896
 20
62.7566
 30
0.00000
  70
    32
  0
VERTEX
  8
0
  5
5D90
 10
86.0604
 20
62.7786
 30
0.00000
  70
    32
  0
VERTEX
  8
0
  5
5D91
 10
86.0309
 20
62.8002
 30
0.00000
  70
    32
  0
VERTEX
  8
0
  5
5D92
 10
86.0011
 20
62.8214
 30
0.00000
  70
    32
  0
VERTEX
  8
0
  5
5D93
 10
85.9710
 20
62.8423
 30
0.00000
  70
    32
  0
VERTEX
  8
0
  5
5D94
 10
85.9407
 20
62.8627
 30
0.00000
  70
    32
  0
VERTEX
  8
0
  5
5D95
 10
85.9102
 20
62.8829
 30
0.00000
  70
    32
  0
VERTEX
  8
0
  5
5D96
 10
85.8794
 20
62.9026
 30
0.00000
  70
    32
  0
VERTEX
  8
0
  5
5D97
 10
85.8483
 20
62.9219
 30
0.00000
  70
    32
  0
VERTEX
  8
0
  5
5D98
 10
85.8171
 20
62.9409
 30
0.00000
  70
    32
  0
VERTEX
  8
0
  5
5D99
 10
85.7856
 20
62.9595
 30
0.00000
  70
    32
  0
VERTEX
  8
0
  5
5D9A
 10
85.7538
 20
62.9777
 30
0.00000
  70
    32
  0
VERTEX
  8
0
  5
5D9B
 10
85.7219
 20
62.9955
 30
0.00000
  70
    32
  0
VERTEX
  8
0
  5
5D9C
 10
85.6897
 20
63.0129
 30
0.00000
  70
    32
  0
VERTEX
  8
0
  5
5D9D
 10
85.6573
 20
63.0299
 30
0.00000
  70
    32
  0
VERTEX
  8
0
  5
5D9E
 10
85.6247
 20
63.0466
 30
0.00000
  70
    32
  0
VERTEX
  8
0
  5
5D9F
 10
85.5919
 20
63.0628
 30
0.00000
  70
    32
  0
VERTEX
  8
0
  5
5DA0
 10
85.5589
 20
63.0786
 30
0.00000
  70
    32
  0
VERTEX
  8
0
  5
5DA1
 10
85.5256
 20
63.0940
 30
0.00000
  70
    32
  0
VERTEX
  8
0
  5
5DA2
 10
85.4923
 20
63.1090
 30
0.00000
  70
    32
  0
VERTEX
  8
0
  5
5DA3
 10
85.4587
 20
63.1236
 30
0.00000
  70
    32
  0
VERTEX
  8
0
  5
5DA4
 10
85.4249
 20
63.1378
 30
0.00000
  70
    32
  0
VERTEX
  8
0
  5
5DA5
 10
85.3910
 20
63.1516
 30
0.00000
  70
    32
  0
VERTEX
  8
0
  5
5DA6
 10
85.3569
 20
63.1649
 30
0.00000
  70
    32
  0
VERTEX
  8
0
  5
5DA7
 10
85.3226
 20
63.1778
 30
0.00000
  70
    32
  0
VERTEX
  8
0
  5
5DA8
 10
85.2882
 20
63.1904
 30
0.00000
  70
    32
  0
VERTEX
  8
0
  5
5DA9
 10
85.2536
 20
63.2024
 30
0.00000
  70
    32
  0
VERTEX
  8
0
  5
5DAA
 10
85.2189
 20
63.2141
 30
0.00000
  70
    32
  0
VERTEX
  8
0
  5
5DAB
 10
85.1840
 20
63.2254
 30
0.00000
  70
    32
  0
VERTEX
  8
0
  5
5DAC
 10
85.1490
 20
63.2362
 30
0.00000
  70
    32
  0
VERTEX
  8
0
  5
5DAD
 10
85.1138
 20
63.2466
 30
0.00000
  70
    32
  0
VERTEX
  8
0
  5
5DAE
 10
85.0786
 20
63.2565
 30
0.00000
  70
    32
  0
VERTEX
  8
0
  5
5DAF
 10
85.0432
 20
63.2660
 30
0.00000
  70
    32
  0
VERTEX
  8
0
  5
5DB0
 10
85.0076
 20
63.2751
 30
0.00000
  70
    32
  0
VERTEX
  8
0
  5
5DB1
 10
84.9720
 20
63.2838
 30
0.00000
  70
    32
  0
VERTEX
  8
0
  5
5DB2
 10
84.9363
 20
63.2920
 30
0.00000
  70
    32
  0
VERTEX
  8
0
  5
5DB3
 10
84.9004
 20
63.2998
 30
0.00000
  70
    32
  0
VERTEX
  8
0
  5
5DB4
 10
84.8645
 20
63.3071
 30
0.00000
  70
    32
  0
VERTEX
  8
0
  5
5DB5
 10
84.8285
 20
63.3140
 30
0.00000
  70
    32
  0
VERTEX
  8
0
  5
5DB6
 10
84.7924
 20
63.3205
 30
0.00000
  70
    32
  0
VERTEX
  8
0
  5
5DB7
 10
84.7562
 20
63.3265
 30
0.00000
  70
    32
  0
VERTEX
  8
0
  5
5DB8
 10
84.7199
 20
63.3321
 30
0.00000
  70
    32
  0
VERTEX
  8
0
  5
5DB9
 10
84.6835
 20
63.3372
 30
0.00000
  70
    32
  0
VERTEX
  8
0
  5
5DBA
 10
84.6471
 20
63.3419
 30
0.00000
  70
    32
  0
VERTEX
  8
0
  5
5DBB
 10
84.6107
 20
63.3461
 30
0.00000
  70
    32
  0
VERTEX
  8
0
  5
5DBC
 10
84.5742
 20
63.3499
 30
0.00000
  70
    32
  0
VERTEX
  8
0
  5
5DBD
 10
84.5376
 20
63.3533
 30
0.00000
  70
    32
  0
VERTEX
  8
0
  5
5DBE
 10
84.5010
 20
63.3562
 30
0.00000
  70
    32
  0
VERTEX
  8
0
  5
5DBF
 10
84.4643
 20
63.3587
 30
0.00000
  70
    32
  0
VERTEX
  8
0
  5
5DC0
 10
84.4276
 20
63.3607
 30
0.00000
  70
    32
  0
VERTEX
  8
0
  5
5DC1
 10
84.3909
 20
63.3623
 30
0.00000
  70
    32
  0
VERTEX
  8
0
  5
5DC2
 10
84.3542
 20
63.3634
 30
0.00000
  70
    32
  0
VERTEX
  8
0
  5
5DC3
 10
84.3175
 20
63.3640
 30
0.00000
  70
    32
  0
VERTEX
  8
0
  5
5DC4
 10
84.2807
 20
63.3643
 30
0.00000
  70
    32
  0
SEQEND
  8
0
  5
5DC5
  0
LINE
  5
5427
  8
0
 10
87.2642703531403043
 20
57.319295332972267
 30
0.0
 11
87.2642703531403043
 21
60.380704667043112
 31
0.0
  0
LINE
  5
5428
  8
0
 10
75.7357296468599088
 20
60.380704667043112
 30
0.0
 11
75.7357296468599088
 21
57.319295332972267
 31
0.0
  0
POLYLINE
  5
5429
  8
0
 10
84.2807046670354367
 20
54.3357296468673709
 30
0.0
 66
     1
 70
     8
  0
VERTEX
  8
0
  5
5DC6
 10
84.2807
 20
54.3357
 30
0.00000
  70
    32
  0
VERTEX
  8
0
  5
5DC7
 10
84.3175
 20
54.3360
 30
0.00000
  70
    32
  0
VERTEX
  8
0
  5
5DC8
 10
84.3542
 20
54.3366
 30
0.00000
  70
    32
  0
VERTEX
  8
0
  5
5DC9
 10
84.3909
 20
54.3377
 30
0.00000
  70
    32
  0
VERTEX
  8
0
  5
5DCA
 10
84.4276
 20
54.3393
 30
0.00000
  70
    32
  0
VERTEX
  8
0
  5
5DCB
 10
84.4643
 20
54.3413
 30
0.00000
  70
    32
  0
VERTEX
  8
0
  5
5DCC
 10
84.5010
 20
54.3438
 30
0.00000
  70
    32
  0
VERTEX
  8
0
  5
5DCD
 10
84.5376
 20
54.3467
 30
0.00000
  70
    32
  0
VERTEX
  8
0
  5
5DCE
 10
84.5742
 20
54.3501
 30
0.00000
  70
    32
  0
VERTEX
  8
0
  5
5DCF
 10
84.6107
 20
54.3539
 30
0.00000
  70
    32
  0
VERTEX
  8
0
  5
5DD0
 10
84.6471
 20
54.3581
 30
0.00000
  70
    32
  0
VERTEX
  8
0
  5
5DD1
 10
84.6835
 20
54.3628
 30
0.00000
  70
    32
  0
VERTEX
  8
0
  5
5DD2
 10
84.7199
 20
54.3679
 30
0.00000
  70
    32
  0
VERTEX
  8
0
  5
5DD3
 10
84.7562
 20
54.3735
 30
0.00000
  70
    32
  0
VERTEX
  8
0
  5
5DD4
 10
84.7924
 20
54.3795
 30
0.00000
  70
    32
  0
VERTEX
  8
0
  5
5DD5
 10
84.8285
 20
54.3860
 30
0.00000
  70
    32
  0
VERTEX
  8
0
  5
5DD6
 10
84.8645
 20
54.3929
 30
0.00000
  70
    32
  0
VERTEX
  8
0
  5
5DD7
 10
84.9004
 20
54.4002
 30
0.00000
  70
    32
  0
VERTEX
  8
0
  5
5DD8
 10
84.9363
 20
54.4080
 30
0.00000
  70
    32
  0
VERTEX
  8
0
  5
5DD9
 10
84.9720
 20
54.4162
 30
0.00000
  70
    32
  0
VERTEX
  8
0
  5
5DDA
 10
85.0076
 20
54.4249
 30
0.00000
  70
    32
  0
VERTEX
  8
0
  5
5DDB
 10
85.0432
 20
54.4340
 30
0.00000
  70
    32
  0
VERTEX
  8
0
  5
5DDC
 10
85.0786
 20
54.4435
 30
0.00000
  70
    32
  0
VERTEX
  8
0
  5
5DDD
 10
85.1138
 20
54.4534
 30
0.00000
  70
    32
  0
VERTEX
  8
0
  5
5DDE
 10
85.1490
 20
54.4638
 30
0.00000
  70
    32
  0
VERTEX
  8
0
  5
5DDF
 10
85.1840
 20
54.4746
 30
0.00000
  70
    32
  0
VERTEX
  8
0
  5
5DE0
 10
85.2189
 20
54.4859
 30
0.00000
  70
    32
  0
VERTEX
  8
0
  5
5DE1
 10
85.2536
 20
54.4976
 30
0.00000
  70
    32
  0
VERTEX
  8
0
  5
5DE2
 10
85.2882
 20
54.5096
 30
0.00000
  70
    32
  0
VERTEX
  8
0
  5
5DE3
 10
85.3226
 20
54.5222
 30
0.00000
  70
    32
  0
VERTEX
  8
0
  5
5DE4
 10
85.3569
 20
54.5351
 30
0.00000
  70
    32
  0
VERTEX
  8
0
  5
5DE5
 10
85.3910
 20
54.5484
 30
0.00000
  70
    32
  0
VERTEX
  8
0
  5
5DE6
 10
85.4249
 20
54.5622
 30
0.00000
  70
    32
  0
VERTEX
  8
0
  5
5DE7
 10
85.4587
 20
54.5764
 30
0.00000
  70
    32
  0
VERTEX
  8
0
  5
5DE8
 10
85.4923
 20
54.5910
 30
0.00000
  70
    32
  0
VERTEX
  8
0
  5
5DE9
 10
85.5256
 20
54.6060
 30
0.00000
  70
    32
  0
VERTEX
  8
0
  5
5DEA
 10
85.5589
 20
54.6214
 30
0.00000
  70
    32
  0
VERTEX
  8
0
  5
5DEB
 10
85.5919
 20
54.6372
 30
0.00000
  70
    32
  0
VERTEX
  8
0
  5
5DEC
 10
85.6247
 20
54.6534
 30
0.00000
  70
    32
  0
VERTEX
  8
0
  5
5DED
 10
85.6573
 20
54.6701
 30
0.00000
  70
    32
  0
VERTEX
  8
0
  5
5DEE
 10
85.6897
 20
54.6871
 30
0.00000
  70
    32
  0
VERTEX
  8
0
  5
5DEF
 10
85.7219
 20
54.7045
 30
0.00000
  70
    32
  0
VERTEX
  8
0
  5
5DF0
 10
85.7538
 20
54.7223
 30
0.00000
  70
    32
  0
VERTEX
  8
0
  5
5DF1
 10
85.7856
 20
54.7405
 30
0.00000
  70
    32
  0
VERTEX
  8
0
  5
5DF2
 10
85.8171
 20
54.7591
 30
0.00000
  70
    32
  0
VERTEX
  8
0
  5
5DF3
 10
85.8483
 20
54.7781
 30
0.00000
  70
    32
  0
VERTEX
  8
0
  5
5DF4
 10
85.8794
 20
54.7974
 30
0.00000
  70
    32
  0
VERTEX
  8
0
  5
5DF5
 10
85.9102
 20
54.8171
 30
0.00000
  70
    32
  0
VERTEX
  8
0
  5
5DF6
 10
85.9407
 20
54.8373
 30
0.00000
  70
    32
  0
VERTEX
  8
0
  5
5DF7
 10
85.9710
 20
54.8577
 30
0.00000
  70
    32
  0
VERTEX
  8
0
  5
5DF8
 10
86.0011
 20
54.8786
 30
0.00000
  70
    32
  0
VERTEX
  8
0
  5
5DF9
 10
86.0309
 20
54.8998
 30
0.00000
  70
    32
  0
VERTEX
  8
0
  5
5DFA
 10
86.0604
 20
54.9214
 30
0.00000
  70
    32
  0
VERTEX
  8
0
  5
5DFB
 10
86.0896
 20
54.9434
 30
0.00000
  70
    32
  0
VERTEX
  8
0
  5
5DFC
 10
86.1186
 20
54.9657
 30
0.00000
  70
    32
  0
VERTEX
  8
0
  5
5DFD
 10
86.1473
 20
54.9883
 30
0.00000
  70
    32
  0
VERTEX
  8
0
  5
5DFE
 10
86.1757
 20
55.0113
 30
0.00000
  70
    32
  0
VERTEX
  8
0
  5
5DFF
 10
86.2038
 20
55.0347
 30
0.00000
  70
    32
  0
VERTEX
  8
0
  5
5E00
 10
86.2317
 20
55.0584
 30
0.00000
  70
    32
  0
VERTEX
  8
0
  5
5E01
 10
86.2592
 20
55.0824
 30
0.00000
  70
    32
  0
VERTEX
  8
0
  5
5E02
 10
86.2865
 20
55.1068
 30
0.00000
  70
    32
  0
VERTEX
  8
0
  5
5E03
 10
86.3134
 20
55.1315
 30
0.00000
  70
    32
  0
VERTEX
  8
0
  5
5E04
 10
86.3400
 20
55.1566
 30
0.00000
  70
    32
  0
VERTEX
  8
0
  5
5E05
 10
86.3664
 20
55.1819
 30
0.00000
  70
    32
  0
VERTEX
  8
0
  5
5E06
 10
86.3924
 20
55.2076
 30
0.00000
  70
    32
  0
VERTEX
  8
0
  5
5E07
 10
86.4181
 20
55.2336
 30
0.00000
  70
    32
  0
VERTEX
  8
0
  5
5E08
 10
86.4434
 20
55.2600
 30
0.00000
  70
    32
  0
VERTEX
  8
0
  5
5E09
 10
86.4685
 20
55.2866
 30
0.00000
  70
    32
  0
VERTEX
  8
0
  5
5E0A
 10
86.4932
 20
55.3135
 30
0.00000
  70
    32
  0
VERTEX
  8
0
  5
5E0B
 10
86.5176
 20
55.3408
 30
0.00000
  70
    32
  0
VERTEX
  8
0
  5
5E0C
 10
86.5416
 20
55.3683
 30
0.00000
  70
    32
  0
VERTEX
  8
0
  5
5E0D
 10
86.5653
 20
55.3962
 30
0.00000
  70
    32
  0
VERTEX
  8
0
  5
5E0E
 10
86.5887
 20
55.4243
 30
0.00000
  70
    32
  0
VERTEX
  8
0
  5
5E0F
 10
86.6117
 20
55.4527
 30
0.00000
  70
    32
  0
VERTEX
  8
0
  5
5E10
 10
86.6343
 20
55.4814
 30
0.00000
  70
    32
  0
VERTEX
  8
0
  5
5E11
 10
86.6566
 20
55.5104
 30
0.00000
  70
    32
  0
VERTEX
  8
0
  5
5E12
 10
86.6786
 20
55.5396
 30
0.00000
  70
    32
  0
VERTEX
  8
0
  5
5E13
 10
86.7002
 20
55.5691
 30
0.00000
  70
    32
  0
VERTEX
  8
0
  5
5E14
 10
86.7214
 20
55.5989
 30
0.00000
  70
    32
  0
VERTEX
  8
0
  5
5E15
 10
86.7423
 20
55.6290
 30
0.00000
  70
    32
  0
VERTEX
  8
0
  5
5E16
 10
86.7627
 20
55.6593
 30
0.00000
  70
    32
  0
VERTEX
  8
0
  5
5E17
 10
86.7829
 20
55.6898
 30
0.00000
  70
    32
  0
VERTEX
  8
0
  5
5E18
 10
86.8026
 20
55.7206
 30
0.00000
  70
    32
  0
VERTEX
  8
0
  5
5E19
 10
86.8219
 20
55.7517
 30
0.00000
  70
    32
  0
VERTEX
  8
0
  5
5E1A
 10
86.8409
 20
55.7829
 30
0.00000
  70
    32
  0
VERTEX
  8
0
  5
5E1B
 10
86.8595
 20
55.8144
 30
0.00000
  70
    32
  0
VERTEX
  8
0
  5
5E1C
 10
86.8777
 20
55.8462
 30
0.00000
  70
    32
  0
VERTEX
  8
0
  5
5E1D
 10
86.8955
 20
55.8781
 30
0.00000
  70
    32
  0
VERTEX
  8
0
  5
5E1E
 10
86.9129
 20
55.9103
 30
0.00000
  70
    32
  0
VERTEX
  8
0
  5
5E1F
 10
86.9299
 20
55.9427
 30
0.00000
  70
    32
  0
VERTEX
  8
0
  5
5E20
 10
86.9466
 20
55.9753
 30
0.00000
  70
    32
  0
VERTEX
  8
0
  5
5E21
 10
86.9628
 20
56.0081
 30
0.00000
  70
    32
  0
VERTEX
  8
0
  5
5E22
 10
86.9786
 20
56.0411
 30
0.00000
  70
    32
  0
VERTEX
  8
0
  5
5E23
 10
86.9940
 20
56.0744
 30
0.00000
  70
    32
  0
VERTEX
  8
0
  5
5E24
 10
87.0090
 20
56.1077
 30
0.00000
  70
    32
  0
VERTEX
  8
0
  5
5E25
 10
87.0236
 20
56.1413
 30
0.00000
  70
    32
  0
VERTEX
  8
0
  5
5E26
 10
87.0378
 20
56.1751
 30
0.00000
  70
    32
  0
VERTEX
  8
0
  5
5E27
 10
87.0516
 20
56.2090
 30
0.00000
  70
    32
  0
VERTEX
  8
0
  5
5E28
 10
87.0649
 20
56.2431
 30
0.00000
  70
    32
  0
VERTEX
  8
0
  5
5E29
 10
87.0778
 20
56.2774
 30
0.00000
  70
    32
  0
VERTEX
  8
0
  5
5E2A
 10
87.0904
 20
56.3118
 30
0.00000
  70
    32
  0
VERTEX
  8
0
  5
5E2B
 10
87.1024
 20
56.3464
 30
0.00000
  70
    32
  0
VERTEX
  8
0
  5
5E2C
 10
87.1141
 20
56.3811
 30
0.00000
  70
    32
  0
VERTEX
  8
0
  5
5E2D
 10
87.1254
 20
56.4160
 30
0.00000
  70
    32
  0
VERTEX
  8
0
  5
5E2E
 10
87.1362
 20
56.4510
 30
0.00000
  70
    32
  0
VERTEX
  8
0
  5
5E2F
 10
87.1466
 20
56.4862
 30
0.00000
  70
    32
  0
VERTEX
  8
0
  5
5E30
 10
87.1565
 20
56.5214
 30
0.00000
  70
    32
  0
VERTEX
  8
0
  5
5E31
 10
87.1660
 20
56.5568
 30
0.00000
  70
    32
  0
VERTEX
  8
0
  5
5E32
 10
87.1751
 20
56.5924
 30
0.00000
  70
    32
  0
VERTEX
  8
0
  5
5E33
 10
87.1838
 20
56.6280
 30
0.00000
  70
    32
  0
VERTEX
  8
0
  5
5E34
 10
87.1920
 20
56.6637
 30
0.00000
  70
    32
  0
VERTEX
  8
0
  5
5E35
 10
87.1998
 20
56.6996
 30
0.00000
  70
    32
  0
VERTEX
  8
0
  5
5E36
 10
87.2071
 20
56.7355
 30
0.00000
  70
    32
  0
VERTEX
  8
0
  5
5E37
 10
87.2140
 20
56.7715
 30
0.00000
  70
    32
  0
VERTEX
  8
0
  5
5E38
 10
87.2205
 20
56.8076
 30
0.00000
  70
    32
  0
VERTEX
  8
0
  5
5E39
 10
87.2265
 20
56.8438
 30
0.00000
  70
    32
  0
VERTEX
  8
0
  5
5E3A
 10
87.2321
 20
56.8801
 30
0.00000
  70
    32
  0
VERTEX
  8
0
  5
5E3B
 10
87.2372
 20
56.9165
 30
0.00000
  70
    32
  0
VERTEX
  8
0
  5
5E3C
 10
87.2419
 20
56.9529
 30
0.00000
  70
    32
  0
VERTEX
  8
0
  5
5E3D
 10
87.2461
 20
56.9893
 30
0.00000
  70
    32
  0
VERTEX
  8
0
  5
5E3E
 10
87.2499
 20
57.0258
 30
0.00000
  70
    32
  0
VERTEX
  8
0
  5
5E3F
 10
87.2533
 20
57.0624
 30
0.00000
  70
    32
  0
VERTEX
  8
0
  5
5E40
 10
87.2562
 20
57.0990
 30
0.00000
  70
    32
  0
VERTEX
  8
0
  5
5E41
 10
87.2587
 20
57.1357
 30
0.00000
  70
    32
  0
VERTEX
  8
0
  5
5E42
 10
87.2607
 20
57.1724
 30
0.00000
  70
    32
  0
VERTEX
  8
0
  5
5E43
 10
87.2623
 20
57.2091
 30
0.00000
  70
    32
  0
VERTEX
  8
0
  5
5E44
 10
87.2634
 20
57.2458
 30
0.00000
  70
    32
  0
VERTEX
  8
0
  5
5E45
 10
87.2640
 20
57.2825
 30
0.00000
  70
    32
  0
VERTEX
  8
0
  5
5E46
 10
87.2643
 20
57.3193
 30
0.00000
  70
    32
  0
SEQEND
  8
0
  5
5E47
  0
POLYLINE
  5
542A
  8
0
 10
75.7357296468596957
 20
57.3192953329722457
 30
0.0
 66
     1
 70
     8
  0
VERTEX
  8
0
  5
5E48
 10
75.7357
 20
57.3193
 30
0.00000
  70
    32
  0
VERTEX
  8
0
  5
5E49
 10
75.7360
 20
57.2825
 30
0.00000
  70
    32
  0
VERTEX
  8
0
  5
5E4A
 10
75.7366
 20
57.2458
 30
0.00000
  70
    32
  0
VERTEX
  8
0
  5
5E4B
 10
75.7377
 20
57.2091
 30
0.00000
  70
    32
  0
VERTEX
  8
0
  5
5E4C
 10
75.7393
 20
57.1724
 30
0.00000
  70
    32
  0
VERTEX
  8
0
  5
5E4D
 10
75.7413
 20
57.1357
 30
0.00000
  70
    32
  0
VERTEX
  8
0
  5
5E4E
 10
75.7438
 20
57.0990
 30
0.00000
  70
    32
  0
VERTEX
  8
0
  5
5E4F
 10
75.7467
 20
57.0624
 30
0.00000
  70
    32
  0
VERTEX
  8
0
  5
5E50
 10
75.7501
 20
57.0258
 30
0.00000
  70
    32
  0
VERTEX
  8
0
  5
5E51
 10
75.7539
 20
56.9893
 30
0.00000
  70
    32
  0
VERTEX
  8
0
  5
5E52
 10
75.7581
 20
56.9529
 30
0.00000
  70
    32
  0
VERTEX
  8
0
  5
5E53
 10
75.7628
 20
56.9165
 30
0.00000
  70
    32
  0
VERTEX
  8
0
  5
5E54
 10
75.7679
 20
56.8801
 30
0.00000
  70
    32
  0
VERTEX
  8
0
  5
5E55
 10
75.7735
 20
56.8438
 30
0.00000
  70
    32
  0
VERTEX
  8
0
  5
5E56
 10
75.7795
 20
56.8076
 30
0.00000
  70
    32
  0
VERTEX
  8
0
  5
5E57
 10
75.7860
 20
56.7715
 30
0.00000
  70
    32
  0
VERTEX
  8
0
  5
5E58
 10
75.7929
 20
56.7355
 30
0.00000
  70
    32
  0
VERTEX
  8
0
  5
5E59
 10
75.8002
 20
56.6996
 30
0.00000
  70
    32
  0
VERTEX
  8
0
  5
5E5A
 10
75.8080
 20
56.6637
 30
0.00000
  70
    32
  0
VERTEX
  8
0
  5
5E5B
 10
75.8162
 20
56.6280
 30
0.00000
  70
    32
  0
VERTEX
  8
0
  5
5E5C
 10
75.8249
 20
56.5924
 30
0.00000
  70
    32
  0
VERTEX
  8
0
  5
5E5D
 10
75.8340
 20
56.5568
 30
0.00000
  70
    32
  0
VERTEX
  8
0
  5
5E5E
 10
75.8435
 20
56.5214
 30
0.00000
  70
    32
  0
VERTEX
  8
0
  5
5E5F
 10
75.8534
 20
56.4862
 30
0.00000
  70
    32
  0
VERTEX
  8
0
  5
5E60
 10
75.8638
 20
56.4510
 30
0.00000
  70
    32
  0
VERTEX
  8
0
  5
5E61
 10
75.8746
 20
56.4160
 30
0.00000
  70
    32
  0
VERTEX
  8
0
  5
5E62
 10
75.8859
 20
56.3811
 30
0.00000
  70
    32
  0
VERTEX
  8
0
  5
5E63
 10
75.8976
 20
56.3464
 30
0.00000
  70
    32
  0
VERTEX
  8
0
  5
5E64
 10
75.9096
 20
56.3118
 30
0.00000
  70
    32
  0
VERTEX
  8
0
  5
5E65
 10
75.9222
 20
56.2774
 30
0.00000
  70
    32
  0
VERTEX
  8
0
  5
5E66
 10
75.9351
 20
56.2431
 30
0.00000
  70
    32
  0
VERTEX
  8
0
  5
5E67
 10
75.9484
 20
56.2090
 30
0.00000
  70
    32
  0
VERTEX
  8
0
  5
5E68
 10
75.9622
 20
56.1751
 30
0.00000
  70
    32
  0
VERTEX
  8
0
  5
5E69
 10
75.9764
 20
56.1413
 30
0.00000
  70
    32
  0
VERTEX
  8
0
  5
5E6A
 10
75.9910
 20
56.1077
 30
0.00000
  70
    32
  0
VERTEX
  8
0
  5
5E6B
 10
76.0060
 20
56.0744
 30
0.00000
  70
    32
  0
VERTEX
  8
0
  5
5E6C
 10
76.0214
 20
56.0411
 30
0.00000
  70
    32
  0
VERTEX
  8
0
  5
5E6D
 10
76.0372
 20
56.0081
 30
0.00000
  70
    32
  0
VERTEX
  8
0
  5
5E6E
 10
76.0534
 20
55.9753
 30
0.00000
  70
    32
  0
VERTEX
  8
0
  5
5E6F
 10
76.0701
 20
55.9427
 30
0.00000
  70
    32
  0
VERTEX
  8
0
  5
5E70
 10
76.0871
 20
55.9103
 30
0.00000
  70
    32
  0
VERTEX
  8
0
  5
5E71
 10
76.1045
 20
55.8781
 30
0.00000
  70
    32
  0
VERTEX
  8
0
  5
5E72
 10
76.1223
 20
55.8462
 30
0.00000
  70
    32
  0
VERTEX
  8
0
  5
5E73
 10
76.1405
 20
55.8144
 30
0.00000
  70
    32
  0
VERTEX
  8
0
  5
5E74
 10
76.1591
 20
55.7829
 30
0.00000
  70
    32
  0
VERTEX
  8
0
  5
5E75
 10
76.1781
 20
55.7517
 30
0.00000
  70
    32
  0
VERTEX
  8
0
  5
5E76
 10
76.1974
 20
55.7206
 30
0.00000
  70
    32
  0
VERTEX
  8
0
  5
5E77
 10
76.2171
 20
55.6898
 30
0.00000
  70
    32
  0
VERTEX
  8
0
  5
5E78
 10
76.2373
 20
55.6593
 30
0.00000
  70
    32
  0
VERTEX
  8
0
  5
5E79
 10
76.2577
 20
55.6290
 30
0.00000
  70
    32
  0
VERTEX
  8
0
  5
5E7A
 10
76.2786
 20
55.5989
 30
0.00000
  70
    32
  0
VERTEX
  8
0
  5
5E7B
 10
76.2998
 20
55.5691
 30
0.00000
  70
    32
  0
VERTEX
  8
0
  5
5E7C
 10
76.3214
 20
55.5396
 30
0.00000
  70
    32
  0
VERTEX
  8
0
  5
5E7D
 10
76.3434
 20
55.5104
 30
0.00000
  70
    32
  0
VERTEX
  8
0
  5
5E7E
 10
76.3657
 20
55.4814
 30
0.00000
  70
    32
  0
VERTEX
  8
0
  5
5E7F
 10
76.3883
 20
55.4527
 30
0.00000
  70
    32
  0
VERTEX
  8
0
  5
5E80
 10
76.4113
 20
55.4243
 30
0.00000
  70
    32
  0
VERTEX
  8
0
  5
5E81
 10
76.4347
 20
55.3962
 30
0.00000
  70
    32
  0
VERTEX
  8
0
  5
5E82
 10
76.4584
 20
55.3683
 30
0.00000
  70
    32
  0
VERTEX
  8
0
  5
5E83
 10
76.4824
 20
55.3408
 30
0.00000
  70
    32
  0
VERTEX
  8
0
  5
5E84
 10
76.5068
 20
55.3135
 30
0.00000
  70
    32
  0
VERTEX
  8
0
  5
5E85
 10
76.5315
 20
55.2866
 30
0.00000
  70
    32
  0
VERTEX
  8
0
  5
5E86
 10
76.5566
 20
55.2600
 30
0.00000
  70
    32
  0
VERTEX
  8
0
  5
5E87
 10
76.5819
 20
55.2336
 30
0.00000
  70
    32
  0
VERTEX
  8
0
  5
5E88
 10
76.6076
 20
55.2076
 30
0.00000
  70
    32
  0
VERTEX
  8
0
  5
5E89
 10
76.6336
 20
55.1819
 30
0.00000
  70
    32
  0
VERTEX
  8
0
  5
5E8A
 10
76.6600
 20
55.1566
 30
0.00000
  70
    32
  0
VERTEX
  8
0
  5
5E8B
 10
76.6866
 20
55.1315
 30
0.00000
  70
    32
  0
VERTEX
  8
0
  5
5E8C
 10
76.7135
 20
55.1068
 30
0.00000
  70
    32
  0
VERTEX
  8
0
  5
5E8D
 10
76.7408
 20
55.0824
 30
0.00000
  70
    32
  0
VERTEX
  8
0
  5
5E8E
 10
76.7683
 20
55.0584
 30
0.00000
  70
    32
  0
VERTEX
  8
0
  5
5E8F
 10
76.7962
 20
55.0347
 30
0.00000
  70
    32
  0
VERTEX
  8
0
  5
5E90
 10
76.8243
 20
55.0113
 30
0.00000
  70
    32
  0
VERTEX
  8
0
  5
5E91
 10
76.8527
 20
54.9883
 30
0.00000
  70
    32
  0
VERTEX
  8
0
  5
5E92
 10
76.8814
 20
54.9657
 30
0.00000
  70
    32
  0
VERTEX
  8
0
  5
5E93
 10
76.9104
 20
54.9434
 30
0.00000
  70
    32
  0
VERTEX
  8
0
  5
5E94
 10
76.9396
 20
54.9214
 30
0.00000
  70
    32
  0
VERTEX
  8
0
  5
5E95
 10
76.9691
 20
54.8998
 30
0.00000
  70
    32
  0
VERTEX
  8
0
  5
5E96
 10
76.9989
 20
54.8786
 30
0.00000
  70
    32
  0
VERTEX
  8
0
  5
5E97
 10
77.0290
 20
54.8577
 30
0.00000
  70
    32
  0
VERTEX
  8
0
  5
5E98
 10
77.0593
 20
54.8373
 30
0.00000
  70
    32
  0
VERTEX
  8
0
  5
5E99
 10
77.0898
 20
54.8171
 30
0.00000
  70
    32
  0
VERTEX
  8
0
  5
5E9A
 10
77.1206
 20
54.7974
 30
0.00000
  70
    32
  0
VERTEX
  8
0
  5
5E9B
 10
77.1517
 20
54.7781
 30
0.00000
  70
    32
  0
VERTEX
  8
0
  5
5E9C
 10
77.1829
 20
54.7591
 30
0.00000
  70
    32
  0
VERTEX
  8
0
  5
5E9D
 10
77.2144
 20
54.7405
 30
0.00000
  70
    32
  0
VERTEX
  8
0
  5
5E9E
 10
77.2462
 20
54.7223
 30
0.00000
  70
    32
  0
VERTEX
  8
0
  5
5E9F
 10
77.2781
 20
54.7045
 30
0.00000
  70
    32
  0
VERTEX
  8
0
  5
5EA0
 10
77.3103
 20
54.6871
 30
0.00000
  70
    32
  0
VERTEX
  8
0
  5
5EA1
 10
77.3427
 20
54.6701
 30
0.00000
  70
    32
  0
VERTEX
  8
0
  5
5EA2
 10
77.3753
 20
54.6534
 30
0.00000
  70
    32
  0
VERTEX
  8
0
  5
5EA3
 10
77.4081
 20
54.6372
 30
0.00000
  70
    32
  0
VERTEX
  8
0
  5
5EA4
 10
77.4411
 20
54.6214
 30
0.00000
  70
    32
  0
VERTEX
  8
0
  5
5EA5
 10
77.4744
 20
54.6060
 30
0.00000
  70
    32
  0
VERTEX
  8
0
  5
5EA6
 10
77.5077
 20
54.5910
 30
0.00000
  70
    32
  0
VERTEX
  8
0
  5
5EA7
 10
77.5413
 20
54.5764
 30
0.00000
  70
    32
  0
VERTEX
  8
0
  5
5EA8
 10
77.5751
 20
54.5622
 30
0.00000
  70
    32
  0
VERTEX
  8
0
  5
5EA9
 10
77.6090
 20
54.5484
 30
0.00000
  70
    32
  0
VERTEX
  8
0
  5
5EAA
 10
77.6431
 20
54.5351
 30
0.00000
  70
    32
  0
VERTEX
  8
0
  5
5EAB
 10
77.6774
 20
54.5222
 30
0.00000
  70
    32
  0
VERTEX
  8
0
  5
5EAC
 10
77.7118
 20
54.5096
 30
0.00000
  70
    32
  0
VERTEX
  8
0
  5
5EAD
 10
77.7464
 20
54.4976
 30
0.00000
  70
    32
  0
VERTEX
  8
0
  5
5EAE
 10
77.7811
 20
54.4859
 30
0.00000
  70
    32
  0
VERTEX
  8
0
  5
5EAF
 10
77.8160
 20
54.4746
 30
0.00000
  70
    32
  0
VERTEX
  8
0
  5
5EB0
 10
77.8510
 20
54.4638
 30
0.00000
  70
    32
  0
VERTEX
  8
0
  5
5EB1
 10
77.8862
 20
54.4534
 30
0.00000
  70
    32
  0
VERTEX
  8
0
  5
5EB2
 10
77.9214
 20
54.4435
 30
0.00000
  70
    32
  0
VERTEX
  8
0
  5
5EB3
 10
77.9568
 20
54.4340
 30
0.00000
  70
    32
  0
VERTEX
  8
0
  5
5EB4
 10
77.9924
 20
54.4249
 30
0.00000
  70
    32
  0
VERTEX
  8
0
  5
5EB5
 10
78.0280
 20
54.4162
 30
0.00000
  70
    32
  0
VERTEX
  8
0
  5
5EB6
 10
78.0637
 20
54.4080
 30
0.00000
  70
    32
  0
VERTEX
  8
0
  5
5EB7
 10
78.0996
 20
54.4002
 30
0.00000
  70
    32
  0
VERTEX
  8
0
  5
5EB8
 10
78.1355
 20
54.3929
 30
0.00000
  70
    32
  0
VERTEX
  8
0
  5
5EB9
 10
78.1715
 20
54.3860
 30
0.00000
  70
    32
  0
VERTEX
  8
0
  5
5EBA
 10
78.2076
 20
54.3795
 30
0.00000
  70
    32
  0
VERTEX
  8
0
  5
5EBB
 10
78.2438
 20
54.3735
 30
0.00000
  70
    32
  0
VERTEX
  8
0
  5
5EBC
 10
78.2801
 20
54.3679
 30
0.00000
  70
    32
  0
VERTEX
  8
0
  5
5EBD
 10
78.3165
 20
54.3628
 30
0.00000
  70
    32
  0
VERTEX
  8
0
  5
5EBE
 10
78.3529
 20
54.3581
 30
0.00000
  70
    32
  0
VERTEX
  8
0
  5
5EBF
 10
78.3893
 20
54.3539
 30
0.00000
  70
    32
  0
VERTEX
  8
0
  5
5EC0
 10
78.4258
 20
54.3501
 30
0.00000
  70
    32
  0
VERTEX
  8
0
  5
5EC1
 10
78.4624
 20
54.3467
 30
0.00000
  70
    32
  0
VERTEX
  8
0
  5
5EC2
 10
78.4990
 20
54.3438
 30
0.00000
  70
    32
  0
VERTEX
  8
0
  5
5EC3
 10
78.5357
 20
54.3413
 30
0.00000
  70
    32
  0
VERTEX
  8
0
  5
5EC4
 10
78.5724
 20
54.3393
 30
0.00000
  70
    32
  0
VERTEX
  8
0
  5
5EC5
 10
78.6091
 20
54.3377
 30
0.00000
  70
    32
  0
VERTEX
  8
0
  5
5EC6
 10
78.6458
 20
54.3366
 30
0.00000
  70
    32
  0
VERTEX
  8
0
  5
5EC7
 10
78.6825
 20
54.3360
 30
0.00000
  70
    32
  0
VERTEX
  8
0
  5
5EC8
 10
78.7193
 20
54.3357
 30
0.00000
  70
    32
  0
SEQEND
  8
0
  5
5EC9
  0
LINE
  5
542B
  8
0
 10
78.719295332964748
 20
54.3357296468674278
 30
0.0
 11
84.2807046670354794
 21
54.3357296468674278
 31
0.0
  0
CIRCLE
  5
542C
  8
0
 10
59.5
 20
84.0
 30
0.0
 40
2.0
  0
CIRCLE
  5
542D
  8
0
 10
63.8223304703362828
 20
99.1776695296636035
 30
0.0
 40
5.0
  0
CIRCLE
  5
542E
  8
0
 10
103.5
 20
83.9999999999999432
 30
0.0
 40
2.0
  0
CIRCLE
  5
542F
  8
0
 10
99.1776695296637172
 20
99.1776695296635467
 30
0.0
 40
5.0
  0
CIRCLE
  5
5431
  8
0
 10
99.1776695296637172
 20
99.1776695296635467
 30
0.0
 40
3.1999999999999882
  0
CIRCLE
  5
5432
  8
0
 10
63.8223304703362828
 20
99.1776695296636035
 30
0.0
 40
3.2000000000000171
  0
CIRCLE
  5
5433
  8
0
 10
99.1776695296637172
 20
63.8223304703362189
 30
0.0
 40
3.1999999999999882
  0
CIRCLE
  5
5434
  8
0
 10
63.8223304703362828
 20
63.8223304703362828
 30
0.0
 40
3.2000000000000171
  0
CIRCLE
  5
5449
  8
0
 10
81.5
 20
281.0
 30
0.0
 40
15.7500000000000107
  0
CIRCLE
  5
544A
  8
0
 10
81.5
 20
281.0
 30
0.0
 40
31.5
  0
CIRCLE
  5
544C
  8
0
 10
81.5
 20
256.0
 30
0.0
 40
3.0
  0
CIRCLE
  5
544D
  8
0
 10
63.8223304703362828
 20
263.3223304703362828
 30
0.0
 40
3.1999999999999948
  0
CIRCLE
  5
544E
  8
0
 10
99.1776695296637172
 20
298.6776695296637172
 30
0.0
 40
3.200000000000002
  0
CIRCLE
  5
544F
  8
0
 10
99.1776695296637172
 20
263.3223304703362828
 30
0.0
 40
3.1999999999999882
  0
CIRCLE
  5
5450
  8
0
 10
63.8223304703362828
 20
298.6776695296637172
 30
0.0
 40
3.2000000000000171
  0
LINE
  5
54B6
  8
0
 10
162.9999999999996874
 20
193.9999999999998863
 30
0.0
 11
162.9999999999996874
 21
164.9999999999998863
 31
0.0
  0
LINE
  5
54B7
  8
0
 10
225.999999999999801
 20
162.9999999999998863
 30
0.0
 11
225.999999999999801
 21
193.9999999999998863
 31
0.0
  0
LINE
  5
54BA
  8
0
 10
178.749999999999801
 20
199.4999999999998863
 30
0.0
 11
178.749999999999801
 21
193.9999999999998863
 31
0.0
  0
LINE
  5
54BB
  8
0
 10
210.249999999999801
 20
193.9999999999998863
 30
0.0
 11
210.249999999999801
 21
199.4999999999998863
 31
0.0
  0
LINE
  5
54BC
  8
0
 10
162.9999999999996874
 20
193.9999999999998863
 30
0.0
 11
225.999999999999801
 21
193.9999999999998863
 31
0.0
  0
LINE
  5
54BD
  8
0
 10
163.1129126228449877
 20
168.9999999999998863
 30
0.0
 11
223.3362045924324946
 21
168.9999999999998863
 31
0.0
  0
POLYLINE
  5
54BE
  8
0
 10
163.112912622844874
 20
168.9999999999992895
 30
0.0
 66
     1
 70
     8
  0
VERTEX
  8
0
  5
5ECA
 10
163.113
 20
169.000
 30
0.00000
  70
    32
  0
VERTEX
  8
0
  5
5ECB
 10
163.115
 20
168.966
 30
0.00000
  70
    32
  0
VERTEX
  8
0
  5
5ECC
 10
163.117
 20
168.932
 30
0.00000
  70
    32
  0
VERTEX
  8
0
  5
5ECD
 10
163.118
 20
168.899
 30
0.00000
  70
    32
  0
VERTEX
  8
0
  5
5ECE
 10
163.120
 20
168.865
 30
0.00000
  70
    32
  0
VERTEX
  8
0
  5
5ECF
 10
163.122
 20
168.831
 30
0.00000
  70
    32
  0
VERTEX
  8
0
  5
5ED0
 10
163.124
 20
168.798
 30
0.00000
  70
    32
  0
VERTEX
  8
0
  5
5ED1
 10
163.126
 20
168.764
 30
0.00000
  70
    32
  0
VERTEX
  8
0
  5
5ED2
 10
163.128
 20
168.730
 30
0.00000
  70
    32
  0
VERTEX
  8
0
  5
5ED3
 10
163.130
 20
168.696
 30
0.00000
  70
    32
  0
VERTEX
  8
0
  5
5ED4
 10
163.132
 20
168.663
 30
0.00000
  70
    32
  0
VERTEX
  8
0
  5
5ED5
 10
163.134
 20
168.629
 30
0.00000
  70
    32
  0
VERTEX
  8
0
  5
5ED6
 10
163.136
 20
168.595
 30
0.00000
  70
    32
  0
VERTEX
  8
0
  5
5ED7
 10
163.138
 20
168.562
 30
0.00000
  70
    32
  0
VERTEX
  8
0
  5
5ED8
 10
163.140
 20
168.528
 30
0.00000
  70
    32
  0
VERTEX
  8
0
  5
5ED9
 10
163.142
 20
168.494
 30
0.00000
  70
    32
  0
VERTEX
  8
0
  5
5EDA
 10
163.144
 20
168.461
 30
0.00000
  70
    32
  0
VERTEX
  8
0
  5
5EDB
 10
163.146
 20
168.427
 30
0.00000
  70
    32
  0
VERTEX
  8
0
  5
5EDC
 10
163.148
 20
168.394
 30
0.00000
  70
    32
  0
VERTEX
  8
0
  5
5EDD
 10
163.150
 20
168.360
 30
0.00000
  70
    32
  0
VERTEX
  8
0
  5
5EDE
 10
163.152
 20
168.327
 30
0.00000
  70
    32
  0
VERTEX
  8
0
  5
5EDF
 10
163.154
 20
168.293
 30
0.00000
  70
    32
  0
VERTEX
  8
0
  5
5EE0
 10
163.156
 20
168.259
 30
0.00000
  70
    32
  0
VERTEX
  8
0
  5
5EE1
 10
163.159
 20
168.226
 30
0.00000
  70
    32
  0
VERTEX
  8
0
  5
5EE2
 10
163.161
 20
168.192
 30
0.00000
  70
    32
  0
VERTEX
  8
0
  5
5EE3
 10
163.163
 20
168.159
 30
0.00000
  70
    32
  0
VERTEX
  8
0
  5
5EE4
 10
163.165
 20
168.125
 30
0.00000
  70
    32
  0
VERTEX
  8
0
  5
5EE5
 10
163.167
 20
168.092
 30
0.00000
  70
    32
  0
VERTEX
  8
0
  5
5EE6
 10
163.169
 20
168.058
 30
0.00000
  70
    32
  0
VERTEX
  8
0
  5
5EE7
 10
163.172
 20
168.025
 30
0.00000
  70
    32
  0
VERTEX
  8
0
  5
5EE8
 10
163.174
 20
167.991
 30
0.00000
  70
    32
  0
VERTEX
  8
0
  5
5EE9
 10
163.176
 20
167.958
 30
0.00000
  70
    32
  0
VERTEX
  8
0
  5
5EEA
 10
163.178
 20
167.924
 30
0.00000
  70
    32
  0
VERTEX
  8
0
  5
5EEB
 10
163.181
 20
167.891
 30
0.00000
  70
    32
  0
VERTEX
  8
0
  5
5EEC
 10
163.183
 20
167.858
 30
0.00000
  70
    32
  0
VERTEX
  8
0
  5
5EED
 10
163.185
 20
167.824
 30
0.00000
  70
    32
  0
VERTEX
  8
0
  5
5EEE
 10
163.188
 20
167.791
 30
0.00000
  70
    32
  0
VERTEX
  8
0
  5
5EEF
 10
163.190
 20
167.757
 30
0.00000
  70
    32
  0
VERTEX
  8
0
  5
5EF0
 10
163.192
 20
167.724
 30
0.00000
  70
    32
  0
VERTEX
  8
0
  5
5EF1
 10
163.195
 20
167.691
 30
0.00000
  70
    32
  0
VERTEX
  8
0
  5
5EF2
 10
163.197
 20
167.657
 30
0.00000
  70
    32
  0
VERTEX
  8
0
  5
5EF3
 10
163.200
 20
167.624
 30
0.00000
  70
    32
  0
VERTEX
  8
0
  5
5EF4
 10
163.202
 20
167.591
 30
0.00000
  70
    32
  0
VERTEX
  8
0
  5
5EF5
 10
163.204
 20
167.557
 30
0.00000
  70
    32
  0
VERTEX
  8
0
  5
5EF6
 10
163.207
 20
167.524
 30
0.00000
  70
    32
  0
VERTEX
  8
0
  5
5EF7
 10
163.209
 20
167.491
 30
0.00000
  70
    32
  0
VERTEX
  8
0
  5
5EF8
 10
163.212
 20
167.457
 30
0.00000
  70
    32
  0
VERTEX
  8
0
  5
5EF9
 10
163.214
 20
167.424
 30
0.00000
  70
    32
  0
VERTEX
  8
0
  5
5EFA
 10
163.217
 20
167.391
 30
0.00000
  70
    32
  0
VERTEX
  8
0
  5
5EFB
 10
163.219
 20
167.358
 30
0.00000
  70
    32
  0
VERTEX
  8
0
  5
5EFC
 10
163.222
 20
167.324
 30
0.00000
  70
    32
  0
VERTEX
  8
0
  5
5EFD
 10
163.224
 20
167.291
 30
0.00000
  70
    32
  0
VERTEX
  8
0
  5
5EFE
 10
163.227
 20
167.258
 30
0.00000
  70
    32
  0
VERTEX
  8
0
  5
5EFF
 10
163.230
 20
167.225
 30
0.00000
  70
    32
  0
VERTEX
  8
0
  5
5F00
 10
163.232
 20
167.192
 30
0.00000
  70
    32
  0
VERTEX
  8
0
  5
5F01
 10
163.235
 20
167.158
 30
0.00000
  70
    32
  0
VERTEX
  8
0
  5
5F02
 10
163.237
 20
167.125
 30
0.00000
  70
    32
  0
VERTEX
  8
0
  5
5F03
 10
163.240
 20
167.092
 30
0.00000
  70
    32
  0
VERTEX
  8
0
  5
5F04
 10
163.243
 20
167.059
 30
0.00000
  70
    32
  0
VERTEX
  8
0
  5
5F05
 10
163.245
 20
167.026
 30
0.00000
  70
    32
  0
VERTEX
  8
0
  5
5F06
 10
163.248
 20
166.993
 30
0.00000
  70
    32
  0
VERTEX
  8
0
  5
5F07
 10
163.251
 20
166.960
 30
0.00000
  70
    32
  0
VERTEX
  8
0
  5
5F08
 10
163.253
 20
166.926
 30
0.00000
  70
    32
  0
VERTEX
  8
0
  5
5F09
 10
163.256
 20
166.893
 30
0.00000
  70
    32
  0
VERTEX
  8
0
  5
5F0A
 10
163.259
 20
166.860
 30
0.00000
  70
    32
  0
VERTEX
  8
0
  5
5F0B
 10
163.262
 20
166.827
 30
0.00000
  70
    32
  0
VERTEX
  8
0
  5
5F0C
 10
163.264
 20
166.794
 30
0.00000
  70
    32
  0
VERTEX
  8
0
  5
5F0D
 10
163.267
 20
166.761
 30
0.00000
  70
    32
  0
VERTEX
  8
0
  5
5F0E
 10
163.270
 20
166.728
 30
0.00000
  70
    32
  0
VERTEX
  8
0
  5
5F0F
 10
163.273
 20
166.695
 30
0.00000
  70
    32
  0
VERTEX
  8
0
  5
5F10
 10
163.276
 20
166.662
 30
0.00000
  70
    32
  0
VERTEX
  8
0
  5
5F11
 10
163.278
 20
166.629
 30
0.00000
  70
    32
  0
VERTEX
  8
0
  5
5F12
 10
163.281
 20
166.596
 30
0.00000
  70
    32
  0
VERTEX
  8
0
  5
5F13
 10
163.284
 20
166.563
 30
0.00000
  70
    32
  0
VERTEX
  8
0
  5
5F14
 10
163.287
 20
166.530
 30
0.00000
  70
    32
  0
VERTEX
  8
0
  5
5F15
 10
163.290
 20
166.497
 30
0.00000
  70
    32
  0
VERTEX
  8
0
  5
5F16
 10
163.293
 20
166.464
 30
0.00000
  70
    32
  0
VERTEX
  8
0
  5
5F17
 10
163.296
 20
166.431
 30
0.00000
  70
    32
  0
VERTEX
  8
0
  5
5F18
 10
163.299
 20
166.398
 30
0.00000
  70
    32
  0
VERTEX
  8
0
  5
5F19
 10
163.302
 20
166.366
 30
0.00000
  70
    32
  0
VERTEX
  8
0
  5
5F1A
 10
163.305
 20
166.333
 30
0.00000
  70
    32
  0
VERTEX
  8
0
  5
5F1B
 10
163.308
 20
166.300
 30
0.00000
  70
    32
  0
VERTEX
  8
0
  5
5F1C
 10
163.311
 20
166.267
 30
0.00000
  70
    32
  0
VERTEX
  8
0
  5
5F1D
 10
163.314
 20
166.234
 30
0.00000
  70
    32
  0
VERTEX
  8
0
  5
5F1E
 10
163.317
 20
166.201
 30
0.00000
  70
    32
  0
VERTEX
  8
0
  5
5F1F
 10
163.320
 20
166.168
 30
0.00000
  70
    32
  0
VERTEX
  8
0
  5
5F20
 10
163.323
 20
166.136
 30
0.00000
  70
    32
  0
VERTEX
  8
0
  5
5F21
 10
163.326
 20
166.103
 30
0.00000
  70
    32
  0
VERTEX
  8
0
  5
5F22
 10
163.329
 20
166.070
 30
0.00000
  70
    32
  0
VERTEX
  8
0
  5
5F23
 10
163.332
 20
166.037
 30
0.00000
  70
    32
  0
VERTEX
  8
0
  5
5F24
 10
163.335
 20
166.004
 30
0.00000
  70
    32
  0
VERTEX
  8
0
  5
5F25
 10
163.338
 20
165.972
 30
0.00000
  70
    32
  0
VERTEX
  8
0
  5
5F26
 10
163.341
 20
165.939
 30
0.00000
  70
    32
  0
VERTEX
  8
0
  5
5F27
 10
163.345
 20
165.906
 30
0.00000
  70
    32
  0
VERTEX
  8
0
  5
5F28
 10
163.348
 20
165.873
 30
0.00000
  70
    32
  0
VERTEX
  8
0
  5
5F29
 10
163.351
 20
165.841
 30
0.00000
  70
    32
  0
VERTEX
  8
0
  5
5F2A
 10
163.354
 20
165.808
 30
0.00000
  70
    32
  0
VERTEX
  8
0
  5
5F2B
 10
163.357
 20
165.775
 30
0.00000
  70
    32
  0
VERTEX
  8
0
  5
5F2C
 10
163.361
 20
165.743
 30
0.00000
  70
    32
  0
VERTEX
  8
0
  5
5F2D
 10
163.364
 20
165.710
 30
0.00000
  70
    32
  0
VERTEX
  8
0
  5
5F2E
 10
163.367
 20
165.677
 30
0.00000
  70
    32
  0
VERTEX
  8
0
  5
5F2F
 10
163.370
 20
165.645
 30
0.00000
  70
    32
  0
VERTEX
  8
0
  5
5F30
 10
163.374
 20
165.612
 30
0.00000
  70
    32
  0
VERTEX
  8
0
  5
5F31
 10
163.377
 20
165.579
 30
0.00000
  70
    32
  0
VERTEX
  8
0
  5
5F32
 10
163.380
 20
165.547
 30
0.00000
  70
    32
  0
VERTEX
  8
0
  5
5F33
 10
163.384
 20
165.514
 30
0.00000
  70
    32
  0
VERTEX
  8
0
  5
5F34
 10
163.387
 20
165.482
 30
0.00000
  70
    32
  0
VERTEX
  8
0
  5
5F35
 10
163.390
 20
165.449
 30
0.00000
  70
    32
  0
VERTEX
  8
0
  5
5F36
 10
163.394
 20
165.416
 30
0.00000
  70
    32
  0
VERTEX
  8
0
  5
5F37
 10
163.397
 20
165.384
 30
0.00000
  70
    32
  0
VERTEX
  8
0
  5
5F38
 10
163.400
 20
165.351
 30
0.00000
  70
    32
  0
VERTEX
  8
0
  5
5F39
 10
163.404
 20
165.319
 30
0.00000
  70
    32
  0
VERTEX
  8
0
  5
5F3A
 10
163.407
 20
165.286
 30
0.00000
  70
    32
  0
VERTEX
  8
0
  5
5F3B
 10
163.411
 20
165.254
 30
0.00000
  70
    32
  0
VERTEX
  8
0
  5
5F3C
 10
163.414
 20
165.221
 30
0.00000
  70
    32
  0
VERTEX
  8
0
  5
5F3D
 10
163.418
 20
165.189
 30
0.00000
  70
    32
  0
VERTEX
  8
0
  5
5F3E
 10
163.421
 20
165.156
 30
0.00000
  70
    32
  0
VERTEX
  8
0
  5
5F3F
 10
163.425
 20
165.124
 30
0.00000
  70
    32
  0
VERTEX
  8
0
  5
5F40
 10
163.428
 20
165.092
 30
0.00000
  70
    32
  0
VERTEX
  8
0
  5
5F41
 10
163.432
 20
165.059
 30
0.00000
  70
    32
  0
VERTEX
  8
0
  5
5F42
 10
163.435
 20
165.027
 30
0.00000
  70
    32
  0
VERTEX
  8
0
  5
5F43
 10
163.439
 20
164.994
 30
0.00000
  70
    32
  0
VERTEX
  8
0
  5
5F44
 10
163.442
 20
164.962
 30
0.00000
  70
    32
  0
VERTEX
  8
0
  5
5F45
 10
163.446
 20
164.930
 30
0.00000
  70
    32
  0
VERTEX
  8
0
  5
5F46
 10
163.450
 20
164.897
 30
0.00000
  70
    32
  0
VERTEX
  8
0
  5
5F47
 10
163.453
 20
164.865
 30
0.00000
  70
    32
  0
VERTEX
  8
0
  5
5F48
 10
163.457
 20
164.833
 30
0.00000
  70
    32
  0
VERTEX
  8
0
  5
5F49
 10
163.461
 20
164.800
 30
0.00000
  70
    32
  0
VERTEX
  8
0
  5
5F4A
 10
163.464
 20
164.768
 30
0.00000
  70
    32
  0
SEQEND
  8
0
  5
5F4B
  0
LINE
  5
54C1
  8
0
 10
223.3362045924324946
 20
168.9999999999998863
 30
0.0
 11
223.3362045924324946
 21
162.9999999999998863
 31
0.0
  0
ARC
  5
54C2
  8
0
 10
191.9999999999996874
 20
178.9999999999998863
 30
0.0
 40
7.0000000000000639
 50
202.7373654357172086
 51
157.2626345642827914
  0
LINE
  5
54C3
  8
0
 10
185.5439964269768893
 20
176.2944468467397883
 30
0.0
 11
185.5439964269768893
 21
181.7055531532598991
 31
0.0
  0
POLYLINE
  5
54C4
  8
0
 66
     1
 10
0.0
 20
0.0
 30
0.0
 70
   128
  0
VERTEX
  5
59F0
  8
0
 10
167.0093695306098027
 20
179.000034961722406
 30
0.0
  0
VERTEX
  5
59F1
  8
0
 10
167.02980799935699
 20
179.3405412945438968
 30
0.0
  0
VERTEX
  5
59F2
  8
0
 10
167.0907830683078998
 20
179.6704498774365106
 30
0.0
  0
VERTEX
  5
59F3
  8
0
 10
167.1850453772333083
 20
179.9553985834920979
 30
0.0
  0
VERTEX
  5
59F4
  8
0
 10
167.3110275482754048
 20
180.1982004880788111
 30
0.0
  0
VERTEX
  5
59F5
  8
0
 10
167.6297385013506016
 20
180.5229955988378947
 30
0.0
  0
VERTEX
  5
59F6
  8
0
 10
167.9957461135522863
 20
180.6231594543596941
 30
0.0
  0
VERTEX
  5
59F7
  8
0
 10
168.3752996155764947
 20
180.5086893189771899
 30
0.0
  0
VERTEX
  5
59F8
  8
0
 10
168.7281931161219006
 20
180.1830560616301966
 30
0.0
  0
VERTEX
  5
59F9
  8
0
 10
168.8775076406872984
 20
179.9429245781338125
 30
0.0
  0
VERTEX
  5
59FA
  8
0
 10
168.9923211605106985
 20
179.6647587405726085
 30
0.0
  0
VERTEX
  5
59FB
  8
0
 10
169.0697270166589874
 20
179.3389352287314011
 30
0.0
  0
VERTEX
  5
59FC
  8
0
 10
169.096311920372699
 20
179.000034961722406
 30
0.0
  0
VERTEX
  5
59FD
  8
0
 10
169.0697270166589874
 20
178.6611346947134962
 30
0.0
  0
VERTEX
  5
59FE
  8
0
 10
168.9923211605106985
 20
178.3353111828722035
 30
0.0
  0
VERTEX
  5
59FF
  8
0
 10
168.8775452761404097
 20
178.0572170063097133
 30
0.0
  0
VERTEX
  5
5A00
  8
0
 10
168.7281931161219006
 20
177.817013861814587
 30
0.0
  0
VERTEX
  5
5A01
  8
0
 10
168.3752996155764947
 20
177.4913806044677926
 30
0.0
  0
VERTEX
  5
5A02
  8
0
 10
167.9957461135522863
 20
177.3769104690852032
 30
0.0
  0
VERTEX
  5
5A03
  8
0
 10
167.6297385013506016
 20
177.4770743246070879
 30
0.0
  0
VERTEX
  5
5A04
  8
0
 10
167.3110275482754048
 20
177.8018694353661999
 30
0.0
  0
VERTEX
  5
5A05
  8
0
 10
167.1850764646461869
 20
178.0445986715023139
 30
0.0
  0
VERTEX
  5
5A06
  8
0
 10
167.0907830683078998
 20
178.3296200460083867
 30
0.0
  0
VERTEX
  5
5A07
  8
0
 10
167.02980799935699
 20
178.6595286289008868
 30
0.0
  0
VERTEX
  5
5A08
  8
0
 10
167.0093695306098027
 20
179.000034961722406
 30
0.0
  0
SEQEND
  5
5A09
  8
0
  0
CIRCLE
  5
54C5
  8
3
 10
191.9999999999996874
 20
178.9999999999998863
 30
0.0
 40
4.8639999999999191
  0
LINE
  5
54C8
  8
0
 10
207.1776695296634898
 20
162.9999999999998863
 30
0.0
 11
207.1776695296634898
 21
168.9999999999998863
 31
0.0
  0
LINE
  5
54C9
  8
0
 10
166.9999999999996874
 20
162.9999999999998863
 30
0.0
 11
226.0
 21
162.9999999999998863
 31
0.0
  0
LINE
  5
54CA
  8
0
 10
162.9999999999996874
 20
165.0
 30
0.0
 11
166.9999999999996874
 21
162.9999999999998863
 31
0.0
  0
LINE
  5
54CC
  8
0
 10
210.249999999999801
 20
199.4999999999998863
 30
0.0
 11
178.749999999999801
 21
199.4999999999998863
 31
0.0
  0
LINE
  5
54ED
  8
0
 10
50.0
 20
172.4226753480647005
 30
0.0
 11
50.0
 21
168.9999999999998863
 31
0.0
  0
LINE
  5
54EE
  8
0
 10
50.0
 20
193.9999999999998863
 30
0.0
 11
50.0000000000002274
 21
185.5242050708343982
 31
0.0
  0
LINE
  5
54EF
  8
0
 10
112.9999999999997016
 20
185.5772961089587056
 30
0.0
 11
113.0
 21
193.9999999999998863
 31
0.0
  0
LINE
  5
54F0
  8
0
 10
113.0
 20
168.9999999999998863
 30
0.0
 11
113.0
 21
172.4757949291656018
 31
0.0
  0
LINE
  5
54F1
  8
0
 10
65.75
 20
199.4999999999998863
 30
0.0
 11
65.75
 21
193.9999999999998863
 31
0.0
  0
LINE
  5
54F2
  8
0
 10
97.2500000000000142
 20
193.9999999999998863
 30
0.0
 11
97.2500000000000142
 21
199.4999999999998863
 31
0.0
  0
POLYLINE
  5
54F3
  8
0
 10
84.1647224956535354
 20
168.9999999999993463
 30
0.0
 66
     1
 70
     8
  0
VERTEX
  8
0
  5
5F4C
 10
84.1647
 20
169.000
 30
0.00000
  70
    32
  0
VERTEX
  8
0
  5
5F4D
 10
84.1861
 20
168.966
 30
0.00000
  70
    32
  0
VERTEX
  8
0
  5
5F4E
 10
84.2075
 20
168.932
 30
0.00000
  70
    32
  0
VERTEX
  8
0
  5
5F4F
 10
84.2289
 20
168.899
 30
0.00000
  70
    32
  0
VERTEX
  8
0
  5
5F50
 10
84.2502
 20
168.865
 30
0.00000
  70
    32
  0
VERTEX
  8
0
  5
5F51
 10
84.2716
 20
168.831
 30
0.00000
  70
    32
  0
VERTEX
  8
0
  5
5F52
 10
84.2930
 20
168.798
 30
0.00000
  70
    32
  0
VERTEX
  8
0
  5
5F53
 10
84.3144
 20
168.764
 30
0.00000
  70
    32
  0
VERTEX
  8
0
  5
5F54
 10
84.3357
 20
168.730
 30
0.00000
  70
    32
  0
VERTEX
  8
0
  5
5F55
 10
84.3571
 20
168.696
 30
0.00000
  70
    32
  0
VERTEX
  8
0
  5
5F56
 10
84.3785
 20
168.663
 30
0.00000
  70
    32
  0
VERTEX
  8
0
  5
5F57
 10
84.3998
 20
168.629
 30
0.00000
  70
    32
  0
VERTEX
  8
0
  5
5F58
 10
84.4212
 20
168.595
 30
0.00000
  70
    32
  0
VERTEX
  8
0
  5
5F59
 10
84.4426
 20
168.562
 30
0.00000
  70
    32
  0
VERTEX
  8
0
  5
5F5A
 10
84.4639
 20
168.528
 30
0.00000
  70
    32
  0
VERTEX
  8
0
  5
5F5B
 10
84.4853
 20
168.494
 30
0.00000
  70
    32
  0
VERTEX
  8
0
  5
5F5C
 10
84.5066
 20
168.461
 30
0.00000
  70
    32
  0
VERTEX
  8
0
  5
5F5D
 10
84.5280
 20
168.427
 30
0.00000
  70
    32
  0
VERTEX
  8
0
  5
5F5E
 10
84.5494
 20
168.394
 30
0.00000
  70
    32
  0
VERTEX
  8
0
  5
5F5F
 10
84.5707
 20
168.360
 30
0.00000
  70
    32
  0
VERTEX
  8
0
  5
5F60
 10
84.5921
 20
168.327
 30
0.00000
  70
    32
  0
VERTEX
  8
0
  5
5F61
 10
84.6134
 20
168.293
 30
0.00000
  70
    32
  0
VERTEX
  8
0
  5
5F62
 10
84.6348
 20
168.259
 30
0.00000
  70
    32
  0
VERTEX
  8
0
  5
5F63
 10
84.6561
 20
168.226
 30
0.00000
  70
    32
  0
VERTEX
  8
0
  5
5F64
 10
84.6775
 20
168.192
 30
0.00000
  70
    32
  0
VERTEX
  8
0
  5
5F65
 10
84.6988
 20
168.159
 30
0.00000
  70
    32
  0
VERTEX
  8
0
  5
5F66
 10
84.7202
 20
168.125
 30
0.00000
  70
    32
  0
VERTEX
  8
0
  5
5F67
 10
84.7415
 20
168.092
 30
0.00000
  70
    32
  0
VERTEX
  8
0
  5
5F68
 10
84.7629
 20
168.058
 30
0.00000
  70
    32
  0
VERTEX
  8
0
  5
5F69
 10
84.7842
 20
168.025
 30
0.00000
  70
    32
  0
VERTEX
  8
0
  5
5F6A
 10
84.8055
 20
167.991
 30
0.00000
  70
    32
  0
VERTEX
  8
0
  5
5F6B
 10
84.8269
 20
167.958
 30
0.00000
  70
    32
  0
VERTEX
  8
0
  5
5F6C
 10
84.8482
 20
167.924
 30
0.00000
  70
    32
  0
VERTEX
  8
0
  5
5F6D
 10
84.8695
 20
167.891
 30
0.00000
  70
    32
  0
VERTEX
  8
0
  5
5F6E
 10
84.8909
 20
167.858
 30
0.00000
  70
    32
  0
VERTEX
  8
0
  5
5F6F
 10
84.9122
 20
167.824
 30
0.00000
  70
    32
  0
VERTEX
  8
0
  5
5F70
 10
84.9335
 20
167.791
 30
0.00000
  70
    32
  0
VERTEX
  8
0
  5
5F71
 10
84.9549
 20
167.757
 30
0.00000
  70
    32
  0
VERTEX
  8
0
  5
5F72
 10
84.9762
 20
167.724
 30
0.00000
  70
    32
  0
VERTEX
  8
0
  5
5F73
 10
84.9975
 20
167.691
 30
0.00000
  70
    32
  0
VERTEX
  8
0
  5
5F74
 10
85.0188
 20
167.657
 30
0.00000
  70
    32
  0
VERTEX
  8
0
  5
5F75
 10
85.0402
 20
167.624
 30
0.00000
  70
    32
  0
VERTEX
  8
0
  5
5F76
 10
85.0615
 20
167.591
 30
0.00000
  70
    32
  0
VERTEX
  8
0
  5
5F77
 10
85.0828
 20
167.557
 30
0.00000
  70
    32
  0
VERTEX
  8
0
  5
5F78
 10
85.1041
 20
167.524
 30
0.00000
  70
    32
  0
VERTEX
  8
0
  5
5F79
 10
85.1254
 20
167.491
 30
0.00000
  70
    32
  0
VERTEX
  8
0
  5
5F7A
 10
85.1467
 20
167.457
 30
0.00000
  70
    32
  0
VERTEX
  8
0
  5
5F7B
 10
85.1681
 20
167.424
 30
0.00000
  70
    32
  0
VERTEX
  8
0
  5
5F7C
 10
85.1894
 20
167.391
 30
0.00000
  70
    32
  0
VERTEX
  8
0
  5
5F7D
 10
85.2107
 20
167.358
 30
0.00000
  70
    32
  0
VERTEX
  8
0
  5
5F7E
 10
85.2320
 20
167.324
 30
0.00000
  70
    32
  0
VERTEX
  8
0
  5
5F7F
 10
85.2533
 20
167.291
 30
0.00000
  70
    32
  0
VERTEX
  8
0
  5
5F80
 10
85.2746
 20
167.258
 30
0.00000
  70
    32
  0
VERTEX
  8
0
  5
5F81
 10
85.2959
 20
167.225
 30
0.00000
  70
    32
  0
VERTEX
  8
0
  5
5F82
 10
85.3172
 20
167.192
 30
0.00000
  70
    32
  0
VERTEX
  8
0
  5
5F83
 10
85.3385
 20
167.158
 30
0.00000
  70
    32
  0
VERTEX
  8
0
  5
5F84
 10
85.3598
 20
167.125
 30
0.00000
  70
    32
  0
VERTEX
  8
0
  5
5F85
 10
85.3811
 20
167.092
 30
0.00000
  70
    32
  0
VERTEX
  8
0
  5
5F86
 10
85.4024
 20
167.059
 30
0.00000
  70
    32
  0
VERTEX
  8
0
  5
5F87
 10
85.4237
 20
167.026
 30
0.00000
  70
    32
  0
VERTEX
  8
0
  5
5F88
 10
85.4450
 20
166.993
 30
0.00000
  70
    32
  0
VERTEX
  8
0
  5
5F89
 10
85.4662
 20
166.960
 30
0.00000
  70
    32
  0
VERTEX
  8
0
  5
5F8A
 10
85.4875
 20
166.926
 30
0.00000
  70
    32
  0
VERTEX
  8
0
  5
5F8B
 10
85.5088
 20
166.893
 30
0.00000
  70
    32
  0
VERTEX
  8
0
  5
5F8C
 10
85.5301
 20
166.860
 30
0.00000
  70
    32
  0
VERTEX
  8
0
  5
5F8D
 10
85.5514
 20
166.827
 30
0.00000
  70
    32
  0
VERTEX
  8
0
  5
5F8E
 10
85.5727
 20
166.794
 30
0.00000
  70
    32
  0
VERTEX
  8
0
  5
5F8F
 10
85.5939
 20
166.761
 30
0.00000
  70
    32
  0
VERTEX
  8
0
  5
5F90
 10
85.6152
 20
166.728
 30
0.00000
  70
    32
  0
VERTEX
  8
0
  5
5F91
 10
85.6365
 20
166.695
 30
0.00000
  70
    32
  0
VERTEX
  8
0
  5
5F92
 10
85.6577
 20
166.662
 30
0.00000
  70
    32
  0
VERTEX
  8
0
  5
5F93
 10
85.6790
 20
166.629
 30
0.00000
  70
    32
  0
VERTEX
  8
0
  5
5F94
 10
85.7003
 20
166.596
 30
0.00000
  70
    32
  0
VERTEX
  8
0
  5
5F95
 10
85.7215
 20
166.563
 30
0.00000
  70
    32
  0
VERTEX
  8
0
  5
5F96
 10
85.7428
 20
166.530
 30
0.00000
  70
    32
  0
VERTEX
  8
0
  5
5F97
 10
85.7641
 20
166.497
 30
0.00000
  70
    32
  0
VERTEX
  8
0
  5
5F98
 10
85.7853
 20
166.464
 30
0.00000
  70
    32
  0
VERTEX
  8
0
  5
5F99
 10
85.8066
 20
166.431
 30
0.00000
  70
    32
  0
VERTEX
  8
0
  5
5F9A
 10
85.8278
 20
166.398
 30
0.00000
  70
    32
  0
VERTEX
  8
0
  5
5F9B
 10
85.8491
 20
166.366
 30
0.00000
  70
    32
  0
VERTEX
  8
0
  5
5F9C
 10
85.8703
 20
166.333
 30
0.00000
  70
    32
  0
VERTEX
  8
0
  5
5F9D
 10
85.8916
 20
166.300
 30
0.00000
  70
    32
  0
VERTEX
  8
0
  5
5F9E
 10
85.9128
 20
166.267
 30
0.00000
  70
    32
  0
VERTEX
  8
0
  5
5F9F
 10
85.9341
 20
166.234
 30
0.00000
  70
    32
  0
VERTEX
  8
0
  5
5FA0
 10
85.9553
 20
166.201
 30
0.00000
  70
    32
  0
VERTEX
  8
0
  5
5FA1
 10
85.9766
 20
166.168
 30
0.00000
  70
    32
  0
VERTEX
  8
0
  5
5FA2
 10
85.9978
 20
166.136
 30
0.00000
  70
    32
  0
VERTEX
  8
0
  5
5FA3
 10
86.0190
 20
166.103
 30
0.00000
  70
    32
  0
VERTEX
  8
0
  5
5FA4
 10
86.0403
 20
166.070
 30
0.00000
  70
    32
  0
VERTEX
  8
0
  5
5FA5
 10
86.0615
 20
166.037
 30
0.00000
  70
    32
  0
VERTEX
  8
0
  5
5FA6
 10
86.0827
 20
166.004
 30
0.00000
  70
    32
  0
VERTEX
  8
0
  5
5FA7
 10
86.1040
 20
165.972
 30
0.00000
  70
    32
  0
VERTEX
  8
0
  5
5FA8
 10
86.1252
 20
165.939
 30
0.00000
  70
    32
  0
VERTEX
  8
0
  5
5FA9
 10
86.1464
 20
165.906
 30
0.00000
  70
    32
  0
VERTEX
  8
0
  5
5FAA
 10
86.1676
 20
165.873
 30
0.00000
  70
    32
  0
VERTEX
  8
0
  5
5FAB
 10
86.1889
 20
165.841
 30
0.00000
  70
    32
  0
VERTEX
  8
0
  5
5FAC
 10
86.2101
 20
165.808
 30
0.00000
  70
    32
  0
VERTEX
  8
0
  5
5FAD
 10
86.2313
 20
165.775
 30
0.00000
  70
    32
  0
VERTEX
  8
0
  5
5FAE
 10
86.2525
 20
165.743
 30
0.00000
  70
    32
  0
VERTEX
  8
0
  5
5FAF
 10
86.2737
 20
165.710
 30
0.00000
  70
    32
  0
VERTEX
  8
0
  5
5FB0
 10
86.2949
 20
165.677
 30
0.00000
  70
    32
  0
VERTEX
  8
0
  5
5FB1
 10
86.3161
 20
165.645
 30
0.00000
  70
    32
  0
VERTEX
  8
0
  5
5FB2
 10
86.3373
 20
165.612
 30
0.00000
  70
    32
  0
VERTEX
  8
0
  5
5FB3
 10
86.3585
 20
165.579
 30
0.00000
  70
    32
  0
VERTEX
  8
0
  5
5FB4
 10
86.3797
 20
165.547
 30
0.00000
  70
    32
  0
VERTEX
  8
0
  5
5FB5
 10
86.4009
 20
165.514
 30
0.00000
  70
    32
  0
VERTEX
  8
0
  5
5FB6
 10
86.4221
 20
165.482
 30
0.00000
  70
    32
  0
VERTEX
  8
0
  5
5FB7
 10
86.4433
 20
165.449
 30
0.00000
  70
    32
  0
VERTEX
  8
0
  5
5FB8
 10
86.4645
 20
165.416
 30
0.00000
  70
    32
  0
VERTEX
  8
0
  5
5FB9
 10
86.4857
 20
165.384
 30
0.00000
  70
    32
  0
VERTEX
  8
0
  5
5FBA
 10
86.5069
 20
165.351
 30
0.00000
  70
    32
  0
VERTEX
  8
0
  5
5FBB
 10
86.5281
 20
165.319
 30
0.00000
  70
    32
  0
VERTEX
  8
0
  5
5FBC
 10
86.5492
 20
165.286
 30
0.00000
  70
    32
  0
VERTEX
  8
0
  5
5FBD
 10
86.5704
 20
165.254
 30
0.00000
  70
    32
  0
VERTEX
  8
0
  5
5FBE
 10
86.5916
 20
165.221
 30
0.00000
  70
    32
  0
VERTEX
  8
0
  5
5FBF
 10
86.6128
 20
165.189
 30
0.00000
  70
    32
  0
VERTEX
  8
0
  5
5FC0
 10
86.6339
 20
165.156
 30
0.00000
  70
    32
  0
VERTEX
  8
0
  5
5FC1
 10
86.6551
 20
165.124
 30
0.00000
  70
    32
  0
VERTEX
  8
0
  5
5FC2
 10
86.6763
 20
165.092
 30
0.00000
  70
    32
  0
VERTEX
  8
0
  5
5FC3
 10
86.6974
 20
165.059
 30
0.00000
  70
    32
  0
VERTEX
  8
0
  5
5FC4
 10
86.7186
 20
165.027
 30
0.00000
  70
    32
  0
VERTEX
  8
0
  5
5FC5
 10
86.7398
 20
164.994
 30
0.00000
  70
    32
  0
VERTEX
  8
0
  5
5FC6
 10
86.7609
 20
164.962
 30
0.00000
  70
    32
  0
VERTEX
  8
0
  5
5FC7
 10
86.7821
 20
164.930
 30
0.00000
  70
    32
  0
VERTEX
  8
0
  5
5FC8
 10
86.8032
 20
164.897
 30
0.00000
  70
    32
  0
VERTEX
  8
0
  5
5FC9
 10
86.8244
 20
164.865
 30
0.00000
  70
    32
  0
VERTEX
  8
0
  5
5FCA
 10
86.8455
 20
164.833
 30
0.00000
  70
    32
  0
VERTEX
  8
0
  5
5FCB
 10
86.8667
 20
164.800
 30
0.00000
  70
    32
  0
VERTEX
  8
0
  5
5FCC
 10
86.8878
 20
164.768
 30
0.00000
  70
    32
  0
SEQEND
  8
0
  5
5FCD
  0
POLYLINE
  5
54F5
  8
0
 10
76.112183978938674
 20
164.7679044858123802
 30
0.0
 66
     1
 70
     8
  0
VERTEX
  8
0
  5
5FCE
 10
76.1122
 20
164.768
 30
0.00000
  70
    32
  0
VERTEX
  8
0
  5
5FCF
 10
76.1333
 20
164.800
 30
0.00000
  70
    32
  0
VERTEX
  8
0
  5
5FD0
 10
76.1545
 20
164.833
 30
0.00000
  70
    32
  0
VERTEX
  8
0
  5
5FD1
 10
76.1756
 20
164.865
 30
0.00000
  70
    32
  0
VERTEX
  8
0
  5
5FD2
 10
76.1968
 20
164.897
 30
0.00000
  70
    32
  0
VERTEX
  8
0
  5
5FD3
 10
76.2179
 20
164.930
 30
0.00000
  70
    32
  0
VERTEX
  8
0
  5
5FD4
 10
76.2391
 20
164.962
 30
0.00000
  70
    32
  0
VERTEX
  8
0
  5
5FD5
 10
76.2602
 20
164.994
 30
0.00000
  70
    32
  0
VERTEX
  8
0
  5
5FD6
 10
76.2814
 20
165.027
 30
0.00000
  70
    32
  0
VERTEX
  8
0
  5
5FD7
 10
76.3026
 20
165.059
 30
0.00000
  70
    32
  0
VERTEX
  8
0
  5
5FD8
 10
76.3237
 20
165.092
 30
0.00000
  70
    32
  0
VERTEX
  8
0
  5
5FD9
 10
76.3449
 20
165.124
 30
0.00000
  70
    32
  0
VERTEX
  8
0
  5
5FDA
 10
76.3661
 20
165.156
 30
0.00000
  70
    32
  0
VERTEX
  8
0
  5
5FDB
 10
76.3872
 20
165.189
 30
0.00000
  70
    32
  0
VERTEX
  8
0
  5
5FDC
 10
76.4084
 20
165.221
 30
0.00000
  70
    32
  0
VERTEX
  8
0
  5
5FDD
 10
76.4296
 20
165.254
 30
0.00000
  70
    32
  0
VERTEX
  8
0
  5
5FDE
 10
76.4508
 20
165.286
 30
0.00000
  70
    32
  0
VERTEX
  8
0
  5
5FDF
 10
76.4719
 20
165.319
 30
0.00000
  70
    32
  0
VERTEX
  8
0
  5
5FE0
 10
76.4931
 20
165.351
 30
0.00000
  70
    32
  0
VERTEX
  8
0
  5
5FE1
 10
76.5143
 20
165.384
 30
0.00000
  70
    32
  0
VERTEX
  8
0
  5
5FE2
 10
76.5355
 20
165.416
 30
0.00000
  70
    32
  0
VERTEX
  8
0
  5
5FE3
 10
76.5567
 20
165.449
 30
0.00000
  70
    32
  0
VERTEX
  8
0
  5
5FE4
 10
76.5779
 20
165.482
 30
0.00000
  70
    32
  0
VERTEX
  8
0
  5
5FE5
 10
76.5991
 20
165.514
 30
0.00000
  70
    32
  0
VERTEX
  8
0
  5
5FE6
 10
76.6203
 20
165.547
 30
0.00000
  70
    32
  0
VERTEX
  8
0
  5
5FE7
 10
76.6415
 20
165.579
 30
0.00000
  70
    32
  0
VERTEX
  8
0
  5
5FE8
 10
76.6627
 20
165.612
 30
0.00000
  70
    32
  0
VERTEX
  8
0
  5
5FE9
 10
76.6839
 20
165.645
 30
0.00000
  70
    32
  0
VERTEX
  8
0
  5
5FEA
 10
76.7051
 20
165.677
 30
0.00000
  70
    32
  0
VERTEX
  8
0
  5
5FEB
 10
76.7263
 20
165.710
 30
0.00000
  70
    32
  0
VERTEX
  8
0
  5
5FEC
 10
76.7475
 20
165.743
 30
0.00000
  70
    32
  0
VERTEX
  8
0
  5
5FED
 10
76.7687
 20
165.775
 30
0.00000
  70
    32
  0
VERTEX
  8
0
  5
5FEE
 10
76.7899
 20
165.808
 30
0.00000
  70
    32
  0
VERTEX
  8
0
  5
5FEF
 10
76.8111
 20
165.841
 30
0.00000
  70
    32
  0
VERTEX
  8
0
  5
5FF0
 10
76.8324
 20
165.873
 30
0.00000
  70
    32
  0
VERTEX
  8
0
  5
5FF1
 10
76.8536
 20
165.906
 30
0.00000
  70
    32
  0
VERTEX
  8
0
  5
5FF2
 10
76.8748
 20
165.939
 30
0.00000
  70
    32
  0
VERTEX
  8
0
  5
5FF3
 10
76.8960
 20
165.972
 30
0.00000
  70
    32
  0
VERTEX
  8
0
  5
5FF4
 10
76.9173
 20
166.004
 30
0.00000
  70
    32
  0
VERTEX
  8
0
  5
5FF5
 10
76.9385
 20
166.037
 30
0.00000
  70
    32
  0
VERTEX
  8
0
  5
5FF6
 10
76.9597
 20
166.070
 30
0.00000
  70
    32
  0
VERTEX
  8
0
  5
5FF7
 10
76.9810
 20
166.103
 30
0.00000
  70
    32
  0
VERTEX
  8
0
  5
5FF8
 10
77.0022
 20
166.136
 30
0.00000
  70
    32
  0
VERTEX
  8
0
  5
5FF9
 10
77.0234
 20
166.168
 30
0.00000
  70
    32
  0
VERTEX
  8
0
  5
5FFA
 10
77.0447
 20
166.201
 30
0.00000
  70
    32
  0
VERTEX
  8
0
  5
5FFB
 10
77.0659
 20
166.234
 30
0.00000
  70
    32
  0
VERTEX
  8
0
  5
5FFC
 10
77.0872
 20
166.267
 30
0.00000
  70
    32
  0
VERTEX
  8
0
  5
5FFD
 10
77.1084
 20
166.300
 30
0.00000
  70
    32
  0
VERTEX
  8
0
  5
5FFE
 10
77.1297
 20
166.333
 30
0.00000
  70
    32
  0
VERTEX
  8
0
  5
5FFF
 10
77.1509
 20
166.366
 30
0.00000
  70
    32
  0
VERTEX
  8
0
  5
6000
 10
77.1722
 20
166.398
 30
0.00000
  70
    32
  0
VERTEX
  8
0
  5
6001
 10
77.1934
 20
166.431
 30
0.00000
  70
    32
  0
VERTEX
  8
0
  5
6002
 10
77.2147
 20
166.464
 30
0.00000
  70
    32
  0
VERTEX
  8
0
  5
6003
 10
77.2359
 20
166.497
 30
0.00000
  70
    32
  0
VERTEX
  8
0
  5
6004
 10
77.2572
 20
166.530
 30
0.00000
  70
    32
  0
VERTEX
  8
0
  5
6005
 10
77.2785
 20
166.563
 30
0.00000
  70
    32
  0
VERTEX
  8
0
  5
6006
 10
77.2997
 20
166.596
 30
0.00000
  70
    32
  0
VERTEX
  8
0
  5
6007
 10
77.3210
 20
166.629
 30
0.00000
  70
    32
  0
VERTEX
  8
0
  5
6008
 10
77.3423
 20
166.662
 30
0.00000
  70
    32
  0
VERTEX
  8
0
  5
6009
 10
77.3635
 20
166.695
 30
0.00000
  70
    32
  0
VERTEX
  8
0
  5
600A
 10
77.3848
 20
166.728
 30
0.00000
  70
    32
  0
VERTEX
  8
0
  5
600B
 10
77.4061
 20
166.761
 30
0.00000
  70
    32
  0
VERTEX
  8
0
  5
600C
 10
77.4273
 20
166.794
 30
0.00000
  70
    32
  0
VERTEX
  8
0
  5
600D
 10
77.4486
 20
166.827
 30
0.00000
  70
    32
  0
VERTEX
  8
0
  5
600E
 10
77.4699
 20
166.860
 30
0.00000
  70
    32
  0
VERTEX
  8
0
  5
600F
 10
77.4912
 20
166.893
 30
0.00000
  70
    32
  0
VERTEX
  8
0
  5
6010
 10
77.5125
 20
166.926
 30
0.00000
  70
    32
  0
VERTEX
  8
0
  5
6011
 10
77.5338
 20
166.960
 30
0.00000
  70
    32
  0
VERTEX
  8
0
  5
6012
 10
77.5550
 20
166.993
 30
0.00000
  70
    32
  0
VERTEX
  8
0
  5
6013
 10
77.5763
 20
167.026
 30
0.00000
  70
    32
  0
VERTEX
  8
0
  5
6014
 10
77.5976
 20
167.059
 30
0.00000
  70
    32
  0
VERTEX
  8
0
  5
6015
 10
77.6189
 20
167.092
 30
0.00000
  70
    32
  0
VERTEX
  8
0
  5
6016
 10
77.6402
 20
167.125
 30
0.00000
  70
    32
  0
VERTEX
  8
0
  5
6017
 10
77.6615
 20
167.158
 30
0.00000
  70
    32
  0
VERTEX
  8
0
  5
6018
 10
77.6828
 20
167.192
 30
0.00000
  70
    32
  0
VERTEX
  8
0
  5
6019
 10
77.7041
 20
167.225
 30
0.00000
  70
    32
  0
VERTEX
  8
0
  5
601A
 10
77.7254
 20
167.258
 30
0.00000
  70
    32
  0
VERTEX
  8
0
  5
601B
 10
77.7467
 20
167.291
 30
0.00000
  70
    32
  0
VERTEX
  8
0
  5
601C
 10
77.7680
 20
167.324
 30
0.00000
  70
    32
  0
VERTEX
  8
0
  5
601D
 10
77.7893
 20
167.358
 30
0.00000
  70
    32
  0
VERTEX
  8
0
  5
601E
 10
77.8106
 20
167.391
 30
0.00000
  70
    32
  0
VERTEX
  8
0
  5
601F
 10
77.8319
 20
167.424
 30
0.00000
  70
    32
  0
VERTEX
  8
0
  5
6020
 10
77.8533
 20
167.457
 30
0.00000
  70
    32
  0
VERTEX
  8
0
  5
6021
 10
77.8746
 20
167.491
 30
0.00000
  70
    32
  0
VERTEX
  8
0
  5
6022
 10
77.8959
 20
167.524
 30
0.00000
  70
    32
  0
VERTEX
  8
0
  5
6023
 10
77.9172
 20
167.557
 30
0.00000
  70
    32
  0
VERTEX
  8
0
  5
6024
 10
77.9385
 20
167.591
 30
0.00000
  70
    32
  0
VERTEX
  8
0
  5
6025
 10
77.9598
 20
167.624
 30
0.00000
  70
    32
  0
VERTEX
  8
0
  5
6026
 10
77.9812
 20
167.657
 30
0.00000
  70
    32
  0
VERTEX
  8
0
  5
6027
 10
78.0025
 20
167.691
 30
0.00000
  70
    32
  0
VERTEX
  8
0
  5
6028
 10
78.0238
 20
167.724
 30
0.00000
  70
    32
  0
VERTEX
  8
0
  5
6029
 10
78.0451
 20
167.757
 30
0.00000
  70
    32
  0
VERTEX
  8
0
  5
602A
 10
78.0665
 20
167.791
 30
0.00000
  70
    32
  0
VERTEX
  8
0
  5
602B
 10
78.0878
 20
167.824
 30
0.00000
  70
    32
  0
VERTEX
  8
0
  5
602C
 10
78.1091
 20
167.858
 30
0.00000
  70
    32
  0
VERTEX
  8
0
  5
602D
 10
78.1305
 20
167.891
 30
0.00000
  70
    32
  0
VERTEX
  8
0
  5
602E
 10
78.1518
 20
167.924
 30
0.00000
  70
    32
  0
VERTEX
  8
0
  5
602F
 10
78.1731
 20
167.958
 30
0.00000
  70
    32
  0
VERTEX
  8
0
  5
6030
 10
78.1945
 20
167.991
 30
0.00000
  70
    32
  0
VERTEX
  8
0
  5
6031
 10
78.2158
 20
168.025
 30
0.00000
  70
    32
  0
VERTEX
  8
0
  5
6032
 10
78.2371
 20
168.058
 30
0.00000
  70
    32
  0
VERTEX
  8
0
  5
6033
 10
78.2585
 20
168.092
 30
0.00000
  70
    32
  0
VERTEX
  8
0
  5
6034
 10
78.2798
 20
168.125
 30
0.00000
  70
    32
  0
VERTEX
  8
0
  5
6035
 10
78.3012
 20
168.159
 30
0.00000
  70
    32
  0
VERTEX
  8
0
  5
6036
 10
78.3225
 20
168.192
 30
0.00000
  70
    32
  0
VERTEX
  8
0
  5
6037
 10
78.3439
 20
168.226
 30
0.00000
  70
    32
  0
VERTEX
  8
0
  5
6038
 10
78.3652
 20
168.259
 30
0.00000
  70
    32
  0
VERTEX
  8
0
  5
6039
 10
78.3866
 20
168.293
 30
0.00000
  70
    32
  0
VERTEX
  8
0
  5
603A
 10
78.4079
 20
168.327
 30
0.00000
  70
    32
  0
VERTEX
  8
0
  5
603B
 10
78.4293
 20
168.360
 30
0.00000
  70
    32
  0
VERTEX
  8
0
  5
603C
 10
78.4506
 20
168.394
 30
0.00000
  70
    32
  0
VERTEX
  8
0
  5
603D
 10
78.4720
 20
168.427
 30
0.00000
  70
    32
  0
VERTEX
  8
0
  5
603E
 10
78.4934
 20
168.461
 30
0.00000
  70
    32
  0
VERTEX
  8
0
  5
603F
 10
78.5147
 20
168.494
 30
0.00000
  70
    32
  0
VERTEX
  8
0
  5
6040
 10
78.5361
 20
168.528
 30
0.00000
  70
    32
  0
VERTEX
  8
0
  5
6041
 10
78.5574
 20
168.562
 30
0.00000
  70
    32
  0
VERTEX
  8
0
  5
6042
 10
78.5788
 20
168.595
 30
0.00000
  70
    32
  0
VERTEX
  8
0
  5
6043
 10
78.6002
 20
168.629
 30
0.00000
  70
    32
  0
VERTEX
  8
0
  5
6044
 10
78.6215
 20
168.663
 30
0.00000
  70
    32
  0
VERTEX
  8
0
  5
6045
 10
78.6429
 20
168.696
 30
0.00000
  70
    32
  0
VERTEX
  8
0
  5
6046
 10
78.6643
 20
168.730
 30
0.00000
  70
    32
  0
VERTEX
  8
0
  5
6047
 10
78.6856
 20
168.764
 30
0.00000
  70
    32
  0
VERTEX
  8
0
  5
6048
 10
78.7070
 20
168.798
 30
0.00000
  70
    32
  0
VERTEX
  8
0
  5
6049
 10
78.7284
 20
168.831
 30
0.00000
  70
    32
  0
VERTEX
  8
0
  5
604A
 10
78.7498
 20
168.865
 30
0.00000
  70
    32
  0
VERTEX
  8
0
  5
604B
 10
78.7711
 20
168.899
 30
0.00000
  70
    32
  0
VERTEX
  8
0
  5
604C
 10
78.7925
 20
168.932
 30
0.00000
  70
    32
  0
VERTEX
  8
0
  5
604D
 10
78.8139
 20
168.966
 30
0.00000
  70
    32
  0
VERTEX
  8
0
  5
604E
 10
78.8353
 20
169.000
 30
0.00000
  70
    32
  0
SEQEND
  8
0
  5
604F
  0
LINE
  5
54F6
  8
0
 10
50.0
 20
168.9999999999998863
 30
0.0
 11
78.835277504347232
 21
168.9999999999998863
 31
0.0
  0
LINE
  5
54F7
  8
0
 10
84.1647224956532085
 20
168.9999999999998863
 30
0.0
 11
113.0
 21
168.9999999999998863
 31
0.0
  0
LINE
  5
54F8
  8
0
 10
51.2999999999999474
 20
181.7055531532598138
 30
0.0
 11
51.2999999999999474
 21
176.2944468467399872
 31
0.0
  0
POLYLINE
  5
54F9
  8
0
 66
     1
 10
0.0
 20
0.0
 30
0.0
 70
   128
  0
VERTEX
  5
5A0A
  8
0
 10
51.2999999999999474
 20
176.294446846739902
 30
0.0
  0
VERTEX
  5
5A0B
  8
0
 10
51.1447884492888605
 20
175.2565332265774884
 30
0.0
  0
VERTEX
  5
5A0C
  8
0
 10
50.9526710267014096
 20
174.3009525825304991
 30
0.0
  0
VERTEX
  5
5A0D
  8
0
 10
50.7512874017775175
 20
173.5066942387198878
 30
0.0
  0
VERTEX
  5
5A0E
  8
0
 10
50.546083328686791
 20
172.848193864747401
 30
0.0
  0
VERTEX
  5
5A0F
  8
0
 10
50.3613477853677978
 20
172.3740328023741029
 30
0.0
  0
VERTEX
  5
5A10
  8
0
 10
50.2030741469527584
 20
172.0824251586194009
 30
0.0
  0
VERTEX
  5
5A11
  8
0
 10
50.0920602319606587
 20
172.0006242598219899
 30
0.0
  0
VERTEX
  5
5A12
  8
0
 10
50.0230920692754282
 20
172.1206553518769908
 30
0.0
  0
VERTEX
  5
5A13
  8
0
 10
50.0
 20
172.4226753480647005
 30
0.0
  0
VERTEX
  5
5A14
  8
0
 10
50.0147080215879214
 20
172.9163205473508071
 30
0.0
  0
VERTEX
  5
5A15
  8
0
 10
50.0576324185419708
 20
173.5594620438120899
 30
0.0
  0
VERTEX
  5
5A16
  8
0
 10
50.1203161233138417
 20
174.3705412934490937
 30
0.0
  0
VERTEX
  5
5A17
  8
0
 10
50.1885713684823713
 20
175.2989610940448983
 30
0.0
  0
VERTEX
  5
5A18
  8
0
 10
50.2528218099246189
 20
176.3596558646729022
 30
0.0
  0
VERTEX
  5
5A19
  8
0
 10
50.2991543910247785
 20
177.470962432049788
 30
0.0
  0
VERTEX
  5
5A1A
  8
0
 10
50.3218923604308728
 20
178.6597572655716988
 30
0.0
  0
VERTEX
  5
5A1B
  8
0
 10
50.31626325211937
 20
179.8142766009860907
 30
0.0
  0
VERTEX
  5
5A1C
  8
0
 10
50.2832138684404981
 20
180.978657648395199
 30
0.0
  0
VERTEX
  5
5A1D
  8
0
 10
50.2299713519457782
 20
182.0525036466503934
 30
0.0
  0
VERTEX
  5
5A1E
  8
0
 10
50.1624653094449897
 20
183.0700590365547953
 30
0.0
  0
VERTEX
  5
5A1F
  8
0
 10
50.0949587883676486
 20
183.9554371423382975
 30
0.0
  0
VERTEX
  5
5A20
  8
0
 10
50.037127624345878
 20
184.7243017927463029
 30
0.0
  0
VERTEX
  5
5A21
  8
0
 10
49.9993753020321492
 20
185.3124377149837017
 30
0.0
  0
VERTEX
  5
5A22
  8
0
 10
50.0006246979680782
 20
185.7359724266850094
 30
0.0
  0
VERTEX
  5
5A23
  8
0
 10
50.0469833230799921
 20
185.9563856646826139
 30
0.0
  0
VERTEX
  5
5A24
  8
0
 10
50.1334348319908329
 20
185.9887725246813091
 30
0.0
  0
VERTEX
  5
5A25
  8
0
 10
50.2572485654456997
 20
185.8335296196989077
 30
0.0
  0
VERTEX
  5
5A26
  8
0
 10
50.4196227088020805
 20
185.4893898358652962
 30
0.0
  0
VERTEX
  5
5A27
  8
0
 10
50.6058057458356032
 20
184.9742436555872018
 30
0.0
  0
VERTEX
  5
5A28
  8
0
 10
50.8097073549988565
 20
184.2796800461607063
 30
0.0
  0
VERTEX
  5
5A29
  8
0
 10
51.0104817106971495
 20
183.4365768579872054
 30
0.0
  0
VERTEX
  5
5A2A
  8
0
 10
51.1963784261051913
 20
182.4356683755314918
 30
0.0
  0
VERTEX
  5
5A2B
  8
0
 10
51.2999999999999474
 20
181.7055531532598991
 30
0.0
  0
SEQEND
  5
5A2C
  8
0
  0
POLYLINE
  5
54FA
  8
0
 66
     1
 10
0.0
 20
0.0
 30
0.0
 70
   128
  0
VERTEX
  5
5A2D
  8
0
 10
111.7000000000000028
 20
181.7055531532598991
 30
0.0
  0
VERTEX
  5
5A2E
  8
0
 10
111.855211550711104
 20
182.7434667734223126
 30
0.0
  0
VERTEX
  5
5A2F
  8
0
 10
112.0473289732986046
 20
183.699047417469302
 30
0.0
  0
VERTEX
  5
5A30
  8
0
 10
112.2487125982224967
 20
184.4933057612799132
 30
0.0
  0
VERTEX
  5
5A31
  8
0
 10
112.4539166713129958
 20
185.1518061352524001
 30
0.0
  0
VERTEX
  5
5A32
  8
0
 10
112.6386522146322022
 20
185.6259671976258119
 30
0.0
  0
VERTEX
  5
5A33
  8
0
 10
112.796925853047199
 20
185.9175748413805138
 30
0.0
  0
VERTEX
  5
5A34
  8
0
 10
112.9079397680392987
 20
185.9993757401778112
 30
0.0
  0
VERTEX
  5
5A35
  8
0
 10
112.9769079307244937
 20
185.8793446481228955
 30
0.0
  0
VERTEX
  5
5A36
  8
0
 10
112.9999999999997016
 20
185.5772961089587056
 30
0.0
  0
VERTEX
  5
5A37
  8
0
 10
112.9852919784119933
 20
185.0836794526491076
 30
0.0
  0
VERTEX
  5
5A38
  8
0
 10
112.9423675814578019
 20
184.4405379561877965
 30
0.0
  0
VERTEX
  5
5A39
  8
0
 10
112.8796838766861015
 20
183.6294587065507926
 30
0.0
  0
VERTEX
  5
5A3A
  8
0
 10
112.8114286315176003
 20
182.7010389059549027
 30
0.0
  0
VERTEX
  5
5A3B
  8
0
 10
112.7471781900754024
 20
181.6403441353270125
 30
0.0
  0
VERTEX
  5
5A3C
  8
0
 10
112.7008456089752002
 20
180.5290375679500983
 30
0.0
  0
VERTEX
  5
5A3D
  8
0
 10
112.6781076395691059
 20
179.3402427344281023
 30
0.0
  0
VERTEX
  5
5A3E
  8
0
 10
112.6837367478806016
 20
178.1857233990137104
 30
0.0
  0
VERTEX
  5
5A3F
  8
0
 10
112.7167861315593029
 20
177.0213423516046873
 30
0.0
  0
VERTEX
  5
5A40
  8
0
 10
112.7700286480541934
 20
175.9474963533494076
 30
0.0
  0
VERTEX
  5
5A41
  8
0
 10
112.8375346905550032
 20
174.9299409634450058
 30
0.0
  0
VERTEX
  5
5A42
  8
0
 10
112.9050412116322946
 20
174.0445628576615036
 30
0.0
  0
VERTEX
  5
5A43
  8
0
 10
112.9628723756541007
 20
173.2756982072534981
 30
0.0
  0
VERTEX
  5
5A44
  8
0
 10
113.0006246979679929
 20
172.6875622850162131
 30
0.0
  0
VERTEX
  5
5A45
  8
0
 10
112.9993753020318934
 20
172.2640275733149053
 30
0.0
  0
VERTEX
  5
5A46
  8
0
 10
112.9530166769200008
 20
172.0436143353171872
 30
0.0
  0
VERTEX
  5
5A47
  8
0
 10
112.8665651680091031
 20
172.0112274753184067
 30
0.0
  0
VERTEX
  5
5A48
  8
0
 10
112.7427514345540942
 20
172.1664703803008081
 30
0.0
  0
VERTEX
  5
5A49
  8
0
 10
112.5803772911977063
 20
172.5106101641343912
 30
0.0
  0
VERTEX
  5
5A4A
  8
0
 10
112.3941942541644039
 20
173.025756344412514
 30
0.0
  0
VERTEX
  5
5A4B
  8
0
 10
112.1902926450010938
 20
173.7203199538390095
 30
0.0
  0
VERTEX
  5
5A4C
  8
0
 10
111.9895182893027936
 20
174.5634231420123967
 30
0.0
  0
VERTEX
  5
5A4D
  8
0
 10
111.8036215738948016
 20
175.5643316244681955
 30
0.0
  0
VERTEX
  5
5A4E
  8
0
 10
111.7000000000000028
 20
176.294446846739902
 30
0.0
  0
SEQEND
  5
5A4F
  8
0
  0
LINE
  5
54FB
  8
0
 10
111.6999999999998039
 20
176.2944468467397883
 30
0.0
 11
111.6999999999998039
 21
181.7055531532598991
 31
0.0
  0
LINE
  5
54FD
  8
0
 10
50.0
 20
193.9999999999998863
 30
0.0
 11
113.000000000000199
 21
193.9999999999998863
 31
0.0
  0
LINE
  5
5500
  8
0
 10
86.8878160210620081
 20
164.767904485812295
 30
0.0
 11
89.2446176757225658
 21
162.9999999999998863
 31
0.0
  0
LINE
  5
5502
  8
0
 10
76.112183978938674
 20
164.767904485812295
 30
0.0
 11
73.7553823242785711
 21
162.9999999999998863
 31
0.0
  0
LINE
  5
5503
  8
0
 10
103.6990903406640001
 20
162.9999999999998863
 30
0.0
 11
100.0176286411091979
 21
168.9999999999998863
 31
0.0
  0
LINE
  5
5504
  8
0
 10
59.3009096593432332
 20
162.9999999999998863
 30
0.0
 11
103.6990903406640001
 21
162.9999999999998863
 31
0.0
  0
LINE
  5
5506
  8
0
 10
62.9823713588975806
 20
168.9999999999998863
 30
0.0
 11
59.3009096593430129
 21
162.9999999999998863
 31
0.0
  0
LINE
  5
5508
  8
0
 10
97.2500000000000142
 20
199.4999999999998863
 30
0.0
 11
65.75
 21
199.4999999999998863
 31
0.0
  0
CIRCLE
  5
5550
  8
0
 10
81.5
 20
81.5
 30
0.0
 40
31.5
  0
CIRCLE
  5
5552
  8
0
 10
63.8223304703362828
 20
63.8223304703362828
 30
0.0
 40
5.0
  0
CIRCLE
  5
5553
  8
0
 10
99.1776695296637172
 20
63.8223304703362189
 30
0.0
 40
5.0
  0
LINE
  5
5576
  8
1
 10
307.4999999999997726
 20
204.4999999999998863
 30
0.0
 11
307.4999999999997726
 21
158.000000000000199
 31
0.0
  0
LINE
  5
5577
  8
1
 10
81.5
 20
204.4999999999998863
 30
0.0
 11
81.5
 21
157.9999999999998863
 31
0.0
  0
LINE
  5
557C
  8
1
 10
194.499999999999801
 20
157.9999999999998863
 30
0.0
 11
194.499999999999801
 21
204.4999999999998863
 31
0.0
  0
LINE
  5
5586
  8
1
 10
81.5
 20
244.4999999999998863
 30
0.0
 11
81.5
 21
317.4999999999998863
 31
0.0
  0
LINE
  5
5587
  8
1
 10
118.0
 20
281.0
 30
0.0
 11
45.0
 21
281.0
 31
0.0
  0
CIRCLE
  5
5590
  8
1
 10
81.5
 20
281.0
 30
0.0
 40
25.0
  0
LINE
  5
5591
  8
1
 10
102.8546247918337002
 20
302.3546247918337144
 30
0.0
 11
95.5007142674936489
 21
295.0007142674937199
 31
0.0
  0
LINE
  5
5593
  8
1
 10
60.1453752081721618
 20
302.354624791839683
 30
0.0
 11
67.4992857325095343
 21
295.0007142674967895
 31
0.0
  0
LINE
  5
5594
  8
1
 10
102.8546247918337002
 20
259.6453752081661719
 30
0.0
 11
95.5007142674936063
 21
266.9992857325062801
 31
0.0
  0
LINE
  5
5595
  8
1
 10
60.1453752081722399
 20
259.645375208160317
 30
0.0
 11
67.4992857325096054
 21
266.9992857325030968
 31
0.0
  0
LINE
  5
559D
  8
1
 10
81.5
 20
45.0
 30
0.0
 11
81.5
 21
118.0
 31
0.0
  0
LINE
  5
559E
  8
1
 10
118.0
 20
81.5
 30
0.0
 11
45.0
 21
81.5
 31
0.0
  0
CIRCLE
  5
559F
  8
1
 10
81.5
 20
81.5
 30
0.0
 40
25.0
  0
LINE
  5
55A0
  8
1
 10
104.1274169979695046
 20
104.1274169979694051
 30
0.0
 11
94.227922061357944
 21
94.227922061357674
 31
0.0
  0
LINE
  5
55A1
  8
1
 10
58.8725830020368903
 20
104.1274169979758
 30
0.0
 11
68.7720779386447703
 21
94.2279220613605162
 31
0.0
  0
LINE
  5
55A2
  8
1
 10
104.1274169979695046
 20
58.8725830020303533
 30
0.0
 11
94.2279220613577166
 21
68.7720779386419849
 31
0.0
  0
LINE
  5
55A3
  8
1
 10
58.8725830020366629
 20
58.8725830020242711
 30
0.0
 11
68.7720779386449834
 21
68.7720779386393133
 31
0.0
  0
LINE
  5
55AF
  8
1
 10
103.5
 20
87.9999999999999432
 30
0.0
 11
103.5
 21
79.9999999999999432
 31
0.0
  0
LINE
  5
55B0
  8
1
 10
99.5000000000000142
 20
83.9999999999999432
 30
0.0
 11
107.5
 21
83.9999999999999432
 31
0.0
  0
LINE
  5
55B2
  8
1
 10
59.5000000000002274
 20
88.0
 30
0.0
 11
59.5000000000022666
 21
80.0
 31
0.0
  0
LINE
  5
55B3
  8
1
 10
63.5
 20
83.9999999999953388
 30
0.0
 11
55.5
 21
83.9999999999932356
 31
0.0
  0
LINE
  5
55C8
  8
1
 10
98.5001460076525746
 20
183.0021594543597132
 30
0.0
 11
98.5001460076525746
 21
175.0021594543597132
 31
0.0
  0
LINE
  5
55C9
  8
1
 10
94.5001460076525746
 20
179.0021594543597132
 30
0.0
 11
102.500146007652603
 21
179.0021594543597132
 31
0.0
  0
CIRCLE
  5
55DA
  8
0
 10
98.5001460076525746
 20
179.0021594543597132
 30
0.0
 40
1.6209999999999991
  0
CIRCLE
  5
55DB
  8
3
 10
98.5001460076525746
 20
179.0021594543597132
 30
0.0
 40
2.0
  0
LINE
  5
55DE
  8
1
 10
64.4998539923478802
 20
183.0021594543611059
 30
0.0
 11
64.4998539923474254
 21
175.0021594543611059
 31
0.0
  0
LINE
  5
55DF
  8
1
 10
68.4998539923476528
 20
179.0021594543607932
 30
0.0
 11
60.4998539923476528
 21
179.0021594543615038
 31
0.0
  0
CIRCLE
  5
55E0
  8
0
 10
64.4998539923476528
 20
179.0021594543611059
 30
0.0
 40
1.6209999999999991
  0
CIRCLE
  5
55E1
  8
3
 10
64.4998539923476528
 20
179.0021594543611059
 30
0.0
 40
2.0
  0
LINE
  5
55E9
  8
1
 10
164.7753062019598929
 20
179.0021594543597132
 30
0.0
 11
171.3595696325396034
 21
179.0021594543597132
 31
0.0
  0
LINE
  5
55F2
  8
1
 10
167.9957461135522863
 20
183.0757004874359097
 30
0.0
 11
167.9957461135522863
 21
174.9233759965152899
 31
0.0
  0
POLYLINE
  5
55F3
  8
3
 66
     1
 10
0.0
 20
0.0
 30
0.0
 70
   128
  0
VERTEX
  5
5A50
  8
3
 10
166.7787484788300105
 20
178.9995382419756993
 30
0.0
  0
VERTEX
  5
5A51
  8
3
 10
166.803965590177512
 20
179.4196570980170122
 30
0.0
  0
VERTEX
  5
5A52
  8
3
 10
166.8791970139295131
 20
179.8267003835105982
 30
0.0
  0
VERTEX
  5
5A53
  8
3
 10
166.9954984438190877
 20
180.178271890056692
 30
0.0
  0
VERTEX
  5
5A54
  8
3
 10
167.1509360391823975
 20
180.4778424077454133
 30
0.0
  0
VERTEX
  5
5A55
  8
3
 10
167.544163618547401
 20
180.8785766591446986
 30
0.0
  0
VERTEX
  5
5A56
  8
3
 10
167.9957461135522863
 20
181.0021594543597132
 30
0.0
  0
VERTEX
  5
5A57
  8
3
 10
168.4640416126567004
 20
180.8609254810315008
 30
0.0
  0
VERTEX
  5
5A58
  8
3
 10
168.8994438341809996
 20
180.4591571190981938
 30
0.0
  0
VERTEX
  5
5A59
  8
3
 10
169.0836690341384099
 20
180.1628813837540122
 30
0.0
  0
VERTEX
  5
5A5A
  8
3
 10
169.2253266773504947
 20
179.8196786230369071
 30
0.0
  0
VERTEX
  5
5A5B
  8
3
 10
169.320830509735913
 20
179.4176755239114129
 30
0.0
  0
VERTEX
  5
5A5C
  8
3
 10
169.3536311312209079
 20
178.9995382419756993
 30
0.0
  0
VERTEX
  5
5A5D
  8
3
 10
169.320830509735913
 20
178.5814009600399004
 30
0.0
  0
VERTEX
  5
5A5E
  8
3
 10
169.2253266773504947
 20
178.1793978609142926
 30
0.0
  0
VERTEX
  5
5A5F
  8
3
 10
169.0837154689970987
 20
177.8362835159882991
 30
0.0
  0
VERTEX
  5
5A60
  8
3
 10
168.8994438341809996
 20
177.5399193648530911
 30
0.0
  0
VERTEX
  5
5A61
  8
3
 10
168.4640416126567004
 20
177.1381510029198978
 30
0.0
  0
VERTEX
  5
5A62
  8
3
 10
167.9957461135522863
 20
176.9969170295916001
 30
0.0
  0
VERTEX
  5
5A63
  8
3
 10
167.544163618547401
 20
177.1204998248068136
 30
0.0
  0
VERTEX
  5
5A64
  8
3
 10
167.1509360391823975
 20
177.521234076206099
 30
0.0
  0
VERTEX
  5
5A65
  8
3
 10
166.9955367996645066
 20
177.8207149351032115
 30
0.0
  0
VERTEX
  5
5A66
  8
3
 10
166.8791970139295131
 20
178.1723761004406867
 30
0.0
  0
VERTEX
  5
5A67
  8
3
 10
166.803965590177512
 20
178.5794193859341874
 30
0.0
  0
VERTEX
  5
5A68
  8
3
 10
166.7787484788300105
 20
178.9995382419756993
 30
0.0
  0
SEQEND
  5
5A69
  8
3
  0
LINE
  5
55FC
  8
1
 10
191.9999999999996874
 20
188.999999999999801
 30
0.0
 11
191.9999999999996874
 21
168.9999999999998863
 31
0.0
  0
LINE
  5
55FD
  8
1
 10
181.999999999999801
 20
178.9999999999998863
 30
0.0
 11
201.999999999999801
 21
178.9999999999998863
 31
0.0
  0
LINE
  5
5645
  8
0
 10
395.3999999999999204
 20
233.3639507796613941
 30
0.0
 11
395.0999999999999091
 21
233.3639507796613941
 31
0.0
  0
LINE
  5
5646
  8
0
 10
395.0999999999999091
 20
220.3639507796613941
 30
0.0
 11
395.3999999999999204
 21
220.3639507796613941
 31
0.0
  0
LINE
  5
5647
  8
0
 10
395.0999999999999091
 20
232.8639507796613088
 30
0.0
 11
394.8000000000000114
 21
232.8639507796613088
 31
0.0
  0
LINE
  5
5648
  8
0
 10
394.8000000000000114
 20
220.8639507796613941
 30
0.0
 11
395.0999999999999091
 21
220.8639507796613941
 31
0.0
  0
LINE
  5
5649
  8
0
 10
400.3999999999998067
 20
232.1139507797300041
 30
0.0
 11
400.0999999999731926
 21
231.5889507796690054
 31
0.0
  0
LINE
  5
564A
  8
0
 10
400.0999999999731926
 20
222.1389507796538112
 30
0.0
 11
400.3999999999998067
 21
221.6139507795928125
 31
0.0
  0
LINE
  5
564B
  8
0
 10
406.1599999999997976
 20
232.1139507796613941
 30
0.0
 11
400.3999999999998067
 21
232.1139507796613941
 31
0.0
  0
LINE
  5
564C
  8
0
 10
400.3999999999998067
 20
221.6139507796613941
 30
0.0
 11
406.1599999999997976
 21
221.6139507796613941
 31
0.0
  0
LINE
  5
564D
  8
0
 10
406.1599999999997976
 20
221.6139507795940915
 30
0.0
 11
406.6041790538949954
 21
222.058129833489204
 31
0.0
  0
LINE
  5
564E
  8
0
 10
406.6041790538949954
 20
231.6697717258338116
 30
0.0
 11
406.1599999999997976
 21
232.1139507797288104
 31
0.0
  0
LINE
  5
564F
  8
0
 10
400.0999999999999091
 20
233.3639507796613941
 30
0.0
 11
399.8305627488066989
 21
234.3695042905661126
 31
0.0
  0
LINE
  5
5650
  8
0
 10
399.8305627488066989
 20
219.3583972687567041
 30
0.0
 11
400.0999999999999091
 21
220.3639507796615078
 31
0.0
  0
CIRCLE
  5
5651
  8
0
 10
410.5999999999997954
 20
226.8639507796613088
 30
0.0
 40
3.0
  0
CIRCLE
  5
5652
  8
0
 10
410.5999999999997954
 20
226.8639507796613088
 30
0.0
 40
5.9000000000000048
  0
CIRCLE
  5
5653
  8
0
 10
410.5999999999997954
 20
226.8639507796613088
 30
0.0
 40
6.2499999999999707
  0
LINE
  5
5654
  8
0
 10
404.4305186603734796
 20
225.8639507796613941
 30
0.0
 11
403.0038820320220907
 21
225.8639507796613941
 31
0.0
  0
ARC
  5
5655
  8
0
 10
397.8499999999999091
 20
226.8639507796613088
 30
0.0
 40
5.249999999999992
 50
349.0194245723865265
 51
10.9805754276135392
  0
LINE
  5
5656
  8
0
 10
403.0038820320220907
 20
227.8639507796613941
 30
0.0
 11
404.4305186603734796
 21
227.8639507796613941
 31
0.0
  0
LINE
  5
5657
  8
0
 10
395.3999999999999204
 20
230.6167275293940122
 30
0.0
 11
399.8305627488066989
 21
230.6167275522732893
 31
0.0
  0
POLYLINE
  5
5658
  8
0
 66
     1
 10
0.0
 20
0.0
 30
0.0
 70
   128
  0
VERTEX
  5
5A6A
  8
0
 10
399.8305627127259072
 20
230.6167275707294948
 30
0.0
  0
VERTEX
  5
5A6B
  8
0
 10
400.0282541140535955
 20
228.7487759250900865
 30
0.0
  0
VERTEX
  5
5A6C
  8
0
 10
400.0999999999999091
 20
226.8639507796613088
 30
0.0
  0
SEQEND
  5
5A6D
  8
0
  0
POLYLINE
  5
5659
  8
0
 66
     1
 10
0.0
 20
0.0
 30
0.0
 70
   128
  0
VERTEX
  5
5A6E
  8
0
 10
400.0999999999999091
 20
226.8639507796613088
 30
0.0
  0
VERTEX
  5
5A6F
  8
0
 10
400.0288824031208037
 20
224.9875624531094047
 30
0.0
  0
VERTEX
  5
5A70
  8
0
 10
399.8305627648176142
 20
223.1111741265575006
 30
0.0
  0
SEQEND
  5
5A71
  8
0
  0
LINE
  5
565A
  8
0
 10
395.3999999999999204
 20
223.1111740299288897
 30
0.0
 11
399.8305627488066989
 21
223.1111740413685141
 31
0.0
  0
LINE
  5
565B
  8
0
 10
399.8305627488066989
 20
234.3695042905661126
 30
0.0
 11
395.3999999999999204
 21
234.3695042791264882
 31
0.0
  0
POLYLINE
  5
565C
  8
0
 66
     1
 10
0.0
 20
0.0
 30
0.0
 70
   128
  0
VERTEX
  5
5A72
  8
0
 10
399.8305627457414175
 20
234.3695043020057938
 30
0.0
  0
VERTEX
  5
5A73
  8
0
 10
400.0282541140562103
 20
233.4355284769582113
 30
0.0
  0
VERTEX
  5
5A74
  8
0
 10
400.0999999999999091
 20
232.4931159042604065
 30
0.0
  0
SEQEND
  5
5A75
  8
0
  0
POLYLINE
  5
565D
  8
0
 66
     1
 10
0.0
 20
0.0
 30
0.0
 70
   128
  0
VERTEX
  5
5A76
  8
0
 10
400.0999999999999091
 20
232.4931159042604065
 30
0.0
  0
VERTEX
  5
5A77
  8
0
 10
400.0288824031208037
 20
231.5549217409844118
 30
0.0
  0
VERTEX
  5
5A78
  8
0
 10
399.8305627648176142
 20
230.6167275777085024
 30
0.0
  0
SEQEND
  5
5A79
  8
0
  0
POLYLINE
  5
565E
  8
0
 66
     1
 10
0.0
 20
0.0
 30
0.0
 70
   128
  0
VERTEX
  5
5A7A
  8
0
 10
399.8305627127259072
 20
223.1111740868323068
 30
0.0
  0
VERTEX
  5
5A7B
  8
0
 10
400.0282541140535955
 20
222.1771982277768984
 30
0.0
  0
VERTEX
  5
5A7C
  8
0
 10
400.0999999999999091
 20
221.2347856550624954
 30
0.0
  0
SEQEND
  5
5A7D
  8
0
  0
POLYLINE
  5
565F
  8
0
 66
     1
 10
0.0
 20
0.0
 30
0.0
 70
   128
  0
VERTEX
  5
5A7E
  8
0
 10
400.0999999999999091
 20
221.2347856550624954
 30
0.0
  0
VERTEX
  5
5A7F
  8
0
 10
400.0288824031208037
 20
220.2965914917865859
 30
0.0
  0
VERTEX
  5
5A80
  8
0
 10
399.8305627648176142
 20
219.3583973285107049
 30
0.0
  0
SEQEND
  5
5A81
  8
0
  0
LINE
  5
5660
  8
0
 10
399.8305627488066989
 20
219.3583972687567041
 30
0.0
 11
395.3999999999999204
 21
219.3583972801964137
 31
0.0
  0
LINE
  5
5661
  8
0
 10
395.3999999999999204
 20
219.3583972801964137
 30
0.0
 11
395.3999999999999204
 21
234.3695042791264882
 31
0.0
  0
LINE
  5
5662
  8
0
 10
394.8000000000000114
 20
220.3639507796613941
 30
0.0
 11
394.8000000000000114
 21
233.3639507796613941
 31
0.0
  0
LINE
  5
5663
  8
0
 10
395.0999999999996817
 20
233.3639507796615078
 30
0.0
 11
395.0999999999999091
 21
220.3639507796613941
 31
0.0
  0
LINE
  5
5664
  8
0
 10
400.3999999999998067
 20
232.1139507797300041
 30
0.0
 11
400.3999999999998067
 21
221.6139507796615078
 31
0.0
  0
LINE
  5
5665
  8
0
 10
406.1599999999997976
 20
231.2626892351734966
 30
0.0
 11
406.1599999999997976
 21
232.1139507796613941
 31
0.0
  0
LINE
  5
5666
  8
0
 10
406.1599999999997976
 20
221.6139507796613941
 30
0.0
 11
406.1599999999997976
 21
222.4652123241494053
 31
0.0
  0
CIRCLE
  5
5667
  8
0
 10
410.5999999999997954
 20
226.8639507796613088
 30
0.0
 40
2.0999999999995111
  0
LINE
  5
5668
  8
0
 10
400.0999999999999091
 20
220.3639507796613941
 30
0.0
 11
400.0999999999999091
 21
233.3639507796611099
 31
0.0
  0
LINE
  5
5669
  8
0
 10
400.0999999999996248
 20
281.1695042848522803
 30
0.0
 11
395.0999999999999091
 21
281.169504284852394
 31
0.0
  0
LINE
  5
566A
  8
0
 10
395.0999999999999091
 20
268.169504284852394
 30
0.0
 11
400.0999999999999091
 21
268.169504284852394
 31
0.0
  0
LINE
  5
566B
  8
0
 10
394.8000000000000114
 20
281.169504284852394
 30
0.0
 11
393.5
 21
281.169504284852394
 31
0.0
  0
LINE
  5
566C
  8
0
 10
393.5
 20
268.169504284852394
 30
0.0
 11
394.8000000000000114
 21
268.169504284852394
 31
0.0
  0
LINE
  5
566D
  8
0
 10
416.8500000000461796
 20
269.8195042848523144
 30
0.0
 11
414.4749999999934857
 21
272.1945042848483922
 31
0.0
  0
LINE
  5
566E
  8
0
 10
416.8499999999997954
 20
260.3695042848523258
 30
0.0
 11
416.8499999999997954
 21
269.8195042848523144
 31
0.0
  0
LINE
  5
566F
  8
0
 10
404.3499999999997954
 20
268.169504284852394
 30
0.0
 11
404.3499999999997954
 21
260.3695042848523258
 31
0.0
  0
LINE
  5
5670
  8
0
 10
404.3499999999993975
 20
260.3695042848523258
 30
0.0
 11
404.4548155585674749
 21
258.3695042848513026
 31
0.0
  0
LINE
  5
5671
  8
0
 10
416.7451844414321727
 20
258.3695042848513026
 30
0.0
 11
416.850000000000307
 21
260.3695042848523258
 31
0.0
  0
LINE
  5
5672
  8
0
 10
393.5
 20
280.669504284852394
 30
0.0
 11
393.1999999999998181
 21
280.669504284852394
 31
0.0
  0
LINE
  5
5673
  8
0
 10
393.1999999999998181
 20
268.669504284852394
 30
0.0
 11
393.5
 21
268.669504284852394
 31
0.0
  0
LINE
  5
5674
  8
0
 10
395.0999999999999091
 20
280.669504284852394
 30
0.0
 11
394.8000000000000114
 21
280.669504284852394
 31
0.0
  0
LINE
  5
5675
  8
0
 10
394.8000000000000114
 20
268.669504284852394
 30
0.0
 11
395.0999999999999091
 21
268.669504284852394
 31
0.0
  0
LINE
  5
5676
  8
0
 10
416.4999999999997158
 20
254.9957743609290901
 30
0.0
 11
416.4999999999997158
 21
255.869504284852411
 31
0.0
  0
LINE
  5
5677
  8
0
 10
404.6999999999999886
 20
255.869504284852411
 30
0.0
 11
404.6999999999999886
 21
254.9957743609290901
 31
0.0
  0
ARC
  5
5678
  8
0
 10
416.3000000000009209
 20
254.9957743609290901
 30
0.0
 40
0.1999999999990565
 50
280.0000000000051159
 51
0.0
  0
ARC
  5
5679
  8
0
 10
404.8999999999988972
 20
254.9957743609290901
 30
0.0
 40
0.1999999999990791
 50
180.0
 51
259.9999999999815827
  0
LINE
  5
567A
  8
0
 10
416.350000000034413
 20
257.6195042848690946
 30
0.0
 11
416.2500000000026716
 21
257.7195042849007791
 31
0.0
  0
LINE
  5
567B
  8
0
 10
404.9499999999969759
 20
257.7195042849007791
 30
0.0
 11
404.8499999999652914
 21
257.6195042848690946
 31
0.0
  0
LINE
  5
567C
  8
0
 10
416.3499999999999091
 20
257.169504284852394
 30
0.0
 11
416.3499999999999091
 21
257.6195042848690946
 31
0.0
  0
LINE
  5
567D
  8
0
 10
404.8499999999997954
 20
257.6195042848690946
 30
0.0
 11
404.8499999999997954
 21
257.169504284852394
 31
0.0
  0
LINE
  5
567E
  8
0
 10
404.8500000000456112
 20
257.8195042848524849
 30
0.0
 11
404.9499999999969759
 21
257.7195042849007791
 31
0.0
  0
LINE
  5
567F
  8
0
 10
416.2500000000026716
 20
257.7195042849007791
 30
0.0
 11
416.3499999999542069
 21
257.8195042848524849
 31
0.0
  0
LINE
  5
5680
  8
0
 10
416.3499999999999091
 20
257.8195042848524849
 30
0.0
 11
416.3499999999999091
 21
258.2695042848764047
 31
0.0
  0
LINE
  5
5681
  8
0
 10
404.8499999999997954
 20
258.2695042848764047
 30
0.0
 11
404.8499999999997954
 21
257.8195042848524849
 31
0.0
  0
LINE
  5
5682
  8
0
 10
404.8500000000379941
 20
257.169504284852394
 30
0.0
 11
405.1500000000036721
 21
256.8695042848867729
 31
0.0
  0
LINE
  5
5683
  8
0
 10
416.0499999999959755
 20
256.8695042848867729
 30
0.0
 11
416.3499999999617103
 21
257.169504284852394
 31
0.0
  0
LINE
  5
5684
  8
0
 10
416.3499999999776264
 20
258.2695042848764047
 30
0.0
 11
416.2500000000026716
 21
258.3695042848513026
 31
0.0
  0
LINE
  5
5685
  8
0
 10
404.9499999999969759
 20
258.3695042848513026
 30
0.0
 11
404.850000000022078
 21
258.2695042848764047
 31
0.0
  0
LINE
  5
5686
  8
0
 10
404.8652703643567179
 20
254.798812810327604
 30
0.0
 11
407.2999999999756255
 21
254.3695042848463004
 31
0.0
  0
LINE
  5
5687
  8
0
 10
413.9000000000240789
 20
254.3695042848463004
 30
0.0
 11
416.3347296356429865
 21
254.798812810327604
 31
0.0
  0
LINE
  5
5688
  8
0
 10
407.5350000000735236
 20
278.5445042848460275
 30
0.0
 11
406.1599999999997976
 21
279.9195042849196966
 31
0.0
  0
LINE
  5
5689
  8
0
 10
400.3999999999998067
 20
279.919504284921004
 30
0.0
 11
400.099999999973079
 21
279.3945042848600906
 31
0.0
  0
LINE
  5
568A
  8
0
 10
400.099999999973079
 20
269.9445042848448111
 30
0.0
 11
400.3999999999998067
 21
269.4195042847837271
 31
0.0
  0
LINE
  5
568B
  8
0
 10
406.1599999999997976
 20
279.919504284852394
 30
0.0
 11
400.3999999999998067
 21
279.919504284852394
 31
0.0
  0
LINE
  5
568C
  8
0
 10
400.3999999999998067
 20
269.419504284852394
 30
0.0
 11
403.0999999999997954
 21
269.419504284852394
 31
0.0
  0
ARC
  5
568D
  8
0
 10
414.6499999999998067
 20
256.1695042848522235
 30
0.0
 40
0.2999999999998977
 50
179.9999999999772058
 51
270.0
  0
ARC
  5
568E
  8
0
 10
406.5499999999998977
 20
256.1695042848522235
 30
0.0
 40
0.2999999999998977
 50
270.0
 51
0.0000000000195413
  0
LINE
  5
568F
  8
0
 10
410.5999999853602276
 20
278.544504284852394
 30
0.0
 11
407.5350000000735236
 21
278.544504284852394
 31
0.0
  0
LINE
  5
5690
  8
0
 10
414.4749999999999091
 20
272.1945042848483922
 30
0.0
 11
414.4749999999999091
 21
274.669504284852394
 31
0.0
  0
ARC
  5
5691
  8
0
 10
410.6000000000000796
 20
274.669504284852394
 30
0.0
 40
3.8749999999997722
 50
0.0
 51
90.0000002164658071
  0
LINE
  5
5692
  8
0
 10
414.3499999999999091
 20
256.169504284852394
 30
0.0
 11
414.3499999999999091
 21
256.8695042848523826
 31
0.0
  0
LINE
  5
5693
  8
0
 10
406.8499999999999091
 20
256.8695042848523826
 30
0.0
 11
406.8499999999999091
 21
256.169504284852394
 31
0.0
  0
POLYLINE
  5
5694
  8
0
 66
     1
 10
0.0
 20
0.0
 30
0.0
 70
   128
  0
VERTEX
  5
5A82
  8
0
 10
399.8305627127259072
 20
281.1695042997291125
 30
0.0
  0
VERTEX
  5
5A83
  8
0
 10
400.0282541140535955
 20
279.5518107424852019
 30
0.0
  0
VERTEX
  5
5A84
  8
0
 10
400.0999999999999091
 20
277.9195042848522803
 30
0.0
  0
SEQEND
  5
5A85
  8
0
  0
POLYLINE
  5
5695
  8
0
 66
     1
 10
0.0
 20
0.0
 30
0.0
 70
   128
  0
VERTEX
  5
5A86
  8
0
 10
400.0999999999999091
 20
277.9195042848522803
 30
0.0
  0
VERTEX
  5
5A87
  8
0
 10
400.0288824031208037
 20
276.2945043266936977
 30
0.0
  0
VERTEX
  5
5A88
  8
0
 10
399.8305627648176142
 20
274.669504368535172
 30
0.0
  0
SEQEND
  5
5A89
  8
0
  0
LINE
  5
5696
  8
0
 10
399.8305627488066989
 20
274.6695043046664182
 30
0.0
 11
395.3999999999999204
 21
274.669504284852394
 31
0.0
  0
POLYLINE
  5
5697
  8
0
 66
     1
 10
0.0
 20
0.0
 30
0.0
 70
   128
  0
VERTEX
  5
5A8A
  8
0
 10
399.8305627457414175
 20
274.6695043244803855
 30
0.0
  0
VERTEX
  5
5A8B
  8
0
 10
400.0282541140562103
 20
273.0518107424567233
 30
0.0
  0
VERTEX
  5
5A8C
  8
0
 10
400.0999999999999091
 20
271.419504284852394
 30
0.0
  0
SEQEND
  5
5A8D
  8
0
  0
POLYLINE
  5
5698
  8
0
 66
     1
 10
0.0
 20
0.0
 30
0.0
 70
   128
  0
VERTEX
  5
5A8E
  8
0
 10
400.0999999999999091
 20
271.419504284852394
 30
0.0
  0
VERTEX
  5
5A8F
  8
0
 10
400.0288824031208037
 20
269.7945043266938114
 30
0.0
  0
VERTEX
  5
5A90
  8
0
 10
399.8305627648176142
 20
268.1695043685351152
 30
0.0
  0
SEQEND
  5
5A91
  8
0
  0
LINE
  5
5699
  8
0
 10
395.3999999999999204
 20
268.1695042848522803
 30
0.0
 11
395.3999999999999204
 21
281.169504284852394
 31
0.0
  0
LINE
  5
569A
  8
0
 10
395.0999999999999091
 20
281.169504284852394
 30
0.0
 11
395.0999999999999091
 21
268.169504284852394
 31
0.0
  0
LINE
  5
569B
  8
0
 10
393.5
 20
281.169504284852394
 30
0.0
 11
393.5000000000002274
 21
268.169504284852394
 31
0.0
  0
LINE
  5
569C
  8
0
 10
394.8000000000000114
 20
268.169504284852394
 30
0.0
 11
394.8000000000000114
 21
281.169504284852394
 31
0.0
  0
ARC
  5
569D
  8
0
 10
415.7308671226248862
 20
249.4982296287842019
 30
0.0
 40
23.1307425331530894
 50
110.758764286183407
 51
118.5332979846158992
  0
ARC
  5
569E
  8
0
 10
410.9181944574725094
 20
266.337723166668809
 30
0.0
 40
5.8654183805556288
 50
93.1097787913043931
 51
125.2554152072045071
  0
LINE
  5
569F
  8
0
 10
414.4749999999934857
 20
272.1945042848483922
 30
0.0
 11
410.5999999999997954
 21
272.1945042848453227
 31
0.0
  0
LINE
  5
56A0
  8
0
 10
416.8500000000461796
 20
269.8195042848523144
 30
0.0
 11
404.6820189253268722
 21
269.8195042848570893
 31
0.0
  0
LINE
  5
56A1
  8
0
 10
404.4305186603731954
 20
268.0889856244788803
 30
0.0
 11
404.4305186603731954
 21
269.515622252830326
 31
0.0
  0
LINE
  5
56A2
  8
0
 10
404.4305186603731954
 20
269.515622252830326
 30
0.0
 11
404.6820189253431863
 21
269.8195042848528828
 31
0.0
  0
LINE
  5
56A3
  8
0
 10
404.3499999999997954
 20
260.3695042848523258
 30
0.0
 11
416.8499999999997954
 21
260.3695042848523258
 31
0.0
  0
LINE
  5
56A4
  8
0
 10
404.4548155585674749
 20
258.3695042848513026
 30
0.0
 11
416.7451844414324
 21
258.3695042848513026
 31
0.0
  0
LINE
  5
56A5
  8
0
 10
416.4999999999997158
 20
255.869504284852411
 30
0.0
 11
404.6999999999999886
 21
255.869504284852411
 31
0.0
  0
LINE
  5
56A6
  8
0
 10
404.9499999999969759
 20
257.7195042849007791
 30
0.0
 11
416.2500000000026716
 21
257.7195042849007791
 31
0.0
  0
LINE
  5
56A7
  8
0
 10
405.1500000000036721
 20
256.8695042848867729
 30
0.0
 11
416.0499999999959755
 21
256.8695042848867729
 31
0.0
  0
LINE
  5
56A8
  8
0
 10
407.2999999999756255
 20
254.3695042848463004
 30
0.0
 11
413.9000000000240789
 21
254.3695042848463004
 31
0.0
  0
LINE
  5
56A9
  8
0
 10
400.0999999999999091
 20
268.1695042848522803
 30
0.0
 11
400.0999999999996248
 21
281.1695042848522803
 31
0.0
  0
LINE
  5
56AA
  8
0
 10
407.5350000000335058
 20
274.669504284852394
 30
0.0
 11
407.5350000000735236
 21
278.5445042848460275
 31
0.0
  0
ARC
  5
56AB
  8
0
 10
401.182207128076584
 20
275.0975881535840131
 30
0.0
 40
6.367199782715339
 50
321.4244673644583941
 51
356.1449435011720084
  0
LINE
  5
56AC
  8
0
 10
406.1600000000264004
 20
271.1273474560156842
 30
0.0
 11
406.1599999999997976
 21
279.9195042849196966
 31
0.0
  0
LINE
  5
56AD
  8
0
 10
400.3999999999998067
 20
279.9195042848522803
 30
0.0
 11
400.3999999999998067
 21
269.419504284852394
 31
0.0
  0
LINE
  5
56AE
  8
0
 10
404.4305186603731954
 20
269.515622252830326
 30
0.0
 11
403.0038820320219202
 21
269.515622252830326
 31
0.0
  0
LINE
  5
56AF
  8
0
 10
407.5325436466209794
 20
271.1273474938005847
 30
0.0
 11
406.1600000000264004
 21
271.1273474560156842
 31
0.0
  0
LINE
  5
56B0
  8
0
 10
403.0038820320219202
 20
269.515622252830326
 30
0.0
 11
404.4305186603731954
 21
268.0889856244788803
 31
0.0
  0
LINE
  5
56B1
  8
0
 10
452.300000000005582
 20
220.6139507796150099
 30
0.0
 11
454.6750000000014893
 21
222.988950779667789
 31
0.0
  0
LINE
  5
56B2
  8
0
 10
454.674999999998704
 20
230.7389507796580972
 30
0.0
 11
452.300000000005582
 21
233.1139507797080057
 31
0.0
  0
LINE
  5
56B3
  8
0
 10
442.8500000000058208
 20
220.6139507796615078
 30
0.0
 11
452.300000000005582
 21
220.6139507796615078
 31
0.0
  0
LINE
  5
56B4
  8
0
 10
452.300000000005582
 20
233.1139507796613088
 30
0.0
 11
442.8500000000058208
 21
233.1139507796613088
 31
0.0
  0
LINE
  5
56B5
  8
0
 10
442.8500000000058208
 20
233.113950779661792
 30
0.0
 11
440.8500000000043997
 21
233.0091352210936861
 31
0.0
  0
LINE
  5
56B6
  8
0
 10
440.8500000000043997
 20
220.7187663382291021
 30
0.0
 11
442.8500000000058208
 21
220.6139507796611099
 31
0.0
  0
LINE
  5
56B7
  8
0
 10
437.4762700760824146
 20
220.9639507796615021
 30
0.0
 11
438.3500000000058208
 21
220.9639507796615021
 31
0.0
  0
LINE
  5
56B8
  8
0
 10
438.3500000000058208
 20
232.7639507796613998
 30
0.0
 11
437.4762700760824146
 21
232.7639507796613998
 31
0.0
  0
ARC
  5
56B9
  8
0
 10
437.4762700760824146
 20
221.163950779660496
 30
0.0
 40
0.1999999999990791
 50
190.0000000000061959
 51
270.0
  0
ARC
  5
56BA
  8
0
 10
437.4762700760824146
 20
232.5639507796622922
 30
0.0
 40
0.1999999999990791
 50
90.0
 51
169.9999999999936904
  0
LINE
  5
56BB
  8
0
 10
440.1000000000225896
 20
221.1139507796268902
 30
0.0
 11
440.2000000000538762
 21
221.2139507796586031
 31
0.0
  0
LINE
  5
56BC
  8
0
 10
440.2000000000538762
 20
232.5139507796642135
 30
0.0
 11
440.1000000000225896
 21
232.6139507796958981
 31
0.0
  0
LINE
  5
56BD
  8
0
 10
439.6500000000054911
 20
221.1139507796613941
 30
0.0
 11
440.1000000000225896
 21
221.1139507796613941
 31
0.0
  0
LINE
  5
56BE
  8
0
 10
440.1000000000225896
 20
232.6139507796613941
 30
0.0
 11
439.6500000000054911
 21
232.6139507796613941
 31
0.0
  0
LINE
  5
56BF
  8
0
 10
440.3000000000059799
 20
232.613950779615891
 30
0.0
 11
440.2000000000538762
 21
232.5139507796642135
 31
0.0
  0
LINE
  5
56C0
  8
0
 10
440.2000000000538762
 20
221.2139507796586031
 30
0.0
 11
440.3000000000059799
 21
221.113950779707011
 31
0.0
  0
LINE
  5
56C1
  8
0
 10
440.3000000000059799
 20
221.1139507796613941
 30
0.0
 11
440.7500000000295017
 21
221.1139507796613941
 31
0.0
  0
LINE
  5
56C2
  8
0
 10
440.7500000000295017
 20
232.6139507796613941
 30
0.0
 11
440.3000000000059799
 21
232.6139507796613941
 31
0.0
  0
LINE
  5
56C3
  8
0
 10
439.6500000000054911
 20
232.6139507796231953
 30
0.0
 11
439.3500000000399268
 21
232.313950779657489
 31
0.0
  0
LINE
  5
56C4
  8
0
 10
439.3500000000399268
 20
221.4139507796652993
 30
0.0
 11
439.6500000000054911
 21
221.1139507796995929
 31
0.0
  0
LINE
  5
56C5
  8
0
 10
440.7500000000295017
 20
221.1139507796837052
 30
0.0
 11
440.8500000000043997
 21
221.2139507796586031
 31
0.0
  0
LINE
  5
56C6
  8
0
 10
440.8500000000043997
 20
232.5139507796642135
 30
0.0
 11
440.7500000000295017
 21
232.6139507796391115
 31
0.0
  0
LINE
  5
56C7
  8
0
 10
437.279308525481099
 20
232.5986804153045
 30
0.0
 11
436.8499999999999091
 21
230.1639507796855924
 31
0.0
  0
LINE
  5
56C8
  8
0
 10
436.8499999999999091
 20
223.5639507796371106
 30
0.0
 11
437.279308525481099
 21
221.1292211440182882
 31
0.0
  0
ARC
  5
56C9
  8
0
 10
438.6500000000054911
 20
222.8139507796616101
 30
0.0
 40
0.2999999999998977
 50
89.9999999999739515
 51
180.0
  0
ARC
  5
56CA
  8
0
 10
438.6500000000054911
 20
230.9139507796612918
 30
0.0
 40
0.2999999999998977
 50
180.0
 51
270.0000000000130171
  0
LINE
  5
56CB
  8
0
 10
438.6500000000054911
 20
223.1139507796613941
 30
0.0
 11
439.3500000000058208
 21
223.1139507796613941
 31
0.0
  0
LINE
  5
56CC
  8
0
 10
439.3500000000058208
 20
230.6139507796613941
 30
0.0
 11
438.6500000000054911
 21
230.6139507796613941
 31
0.0
  0
LINE
  5
56CD
  8
0
 10
454.674999999998704
 20
222.9889507796646058
 30
0.0
 11
454.674999999998704
 21
230.7389507796582109
 31
0.0
  0
LINE
  5
56CE
  8
0
 10
452.300000000005582
 20
220.6139507796150099
 30
0.0
 11
452.300000000005582
 21
233.1139507797080057
 31
0.0
  0
LINE
  5
56CF
  8
0
 10
442.8500000000058208
 20
233.1139507796613088
 30
0.0
 11
442.8500000000058208
 21
220.6139507796615078
 31
0.0
  0
LINE
  5
56D0
  8
0
 10
440.8500000000043997
 20
233.0091352210936861
 30
0.0
 11
440.8500000000043997
 21
220.7187663382291021
 31
0.0
  0
LINE
  5
56D1
  8
0
 10
438.3500000000058208
 20
220.9639507796615021
 30
0.0
 11
438.3500000000058208
 21
232.7639507796613998
 31
0.0
  0
LINE
  5
56D2
  8
0
 10
440.2000000000538762
 20
232.5139507796642135
 30
0.0
 11
440.2000000000538762
 21
221.2139507796586031
 31
0.0
  0
LINE
  5
56D3
  8
0
 10
439.3500000000399268
 20
232.313950779657489
 30
0.0
 11
439.3500000000399268
 21
221.4139507796652993
 31
0.0
  0
LINE
  5
56D4
  8
0
 10
436.8499999999999091
 20
230.1639507796855924
 30
0.0
 11
436.8499999999999091
 21
223.5639507796371106
 31
0.0
  0
LINE
  5
56D5
  8
0
 10
457.1500000000054911
 20
230.7389507796613941
 30
0.0
 11
454.674999999998704
 21
230.7389507796582109
 31
0.0
  0
LINE
  5
56D6
  8
0
 10
454.674999999998704
 20
222.9889507796646058
 30
0.0
 11
457.1500000000054911
 21
222.9889507796613941
 31
0.0
  0
ARC
  5
56D7
  8
0
 10
457.1500000000054911
 20
226.8639507796611099
 30
0.0
 40
3.8749999999997442
 50
270.0
 51
90.0
  0
ARC
  5
56D8
  8
0
 10
457.1500000000054911
 20
226.8639507796613088
 30
0.0
 40
5.2499999999999867
 50
235.8688648656709859
 51
124.1311351343289999
  0
LINE
  5
56D9
  8
0
 10
463.6500000000054911
 20
223.1111740299288897
 30
0.0
 11
463.6500000000054911
 21
230.6167274327652024
 31
0.0
  0
ARC
  5
56DA
  8
0
 10
457.1500000000054911
 20
226.8639507796613088
 30
0.0
 40
6.5000000000000151
 50
233.7602340103285883
 51
126.2397659896713975
  0
LINE
  5
56DB
  8
0
 10
457.1500000396339942
 20
234.3695043020057938
 30
0.0
 11
453.2792341855242171
 21
232.1347165941658943
 31
0.0
  0
LINE
  5
56DC
  8
0
 10
463.6500000000054911
 20
230.6167274327652024
 30
0.0
 11
457.1500000836886102
 21
234.3695042308123107
 31
0.0
  0
LINE
  5
56DD
  8
0
 10
457.1499999163228836
 20
219.3583973285107049
 30
0.0
 11
463.6499999163228836
 21
223.1111739816145132
 31
0.0
  0
LINE
  5
56DE
  8
0
 10
453.2792341855242171
 20
221.5931849651572065
 30
0.0
 11
457.1499999163228836
 21
219.3583973285107049
 31
0.0
  0
LINE
  5
56DF
  8
1
 10
385.9999999999997726
 20
274.6695042848522803
 30
0.0
 11
419.4749999999999091
 21
274.669504284852394
 31
0.0
  0
LINE
  5
56E0
  8
1
 10
410.5999999999997954
 20
251.3695042848463004
 30
0.0
 11
410.5999999999997954
 21
281.544504284852394
 31
0.0
  0
LINE
  5
56E1
  8
1
 10
385.9999999999997726
 20
226.8639507796613088
 30
0.0
 11
419.8499999999999091
 21
226.8639507796613088
 31
0.0
  0
LINE
  5
56E2
  8
1
 10
410.5999999999997954
 20
217.6139507796615078
 30
0.0
 11
410.5999999999997954
 21
236.1139507796613941
 31
0.0
  0
LINE
  5
56E3
  8
1
 10
457.1500000000054911
 20
237.3695042308123107
 30
0.0
 11
457.1500000000054911
 21
216.3583973285107049
 31
0.0
  0
LINE
  5
56E4
  8
1
 10
466.6500000000054911
 20
226.8639507796613088
 30
0.0
 11
433.8499999999997954
 21
226.8639507796613088
 31
0.0
  0
LINE
  5
56E5
  8
0
 10
389.5809999999999036
 20
269.8055042848523044
 30
0.0
 11
389.5809999999999036
 21
279.533504284852313
 31
0.0
  0
LINE
  5
56E6
  8
0
 10
388.9999999999997726
 20
270.3865042848523217
 30
0.0
 11
388.9999999999997726
 21
278.9525042848522958
 31
0.0
  0
LINE
  5
56E7
  8
0
 10
393.1999999999998181
 20
268.669504284852394
 30
0.0
 11
393.1999999999998181
 21
280.669504284852394
 31
0.0
  0
LINE
  5
56E8
  8
0
 10
389.5809999999999036
 20
269.8055042848523044
 30
0.0
 11
393.1999999999998181
 21
269.8055042848523044
 31
0.0
  0
LINE
  5
56E9
  8
0
 10
393.1999999999998181
 20
279.533504284852313
 30
0.0
 11
389.5809999999999036
 21
279.533504284852313
 31
0.0
  0
LINE
  5
56EA
  8
0
 10
389.5809999999999036
 20
279.533504284852313
 30
0.0
 11
388.9999999999997726
 21
278.9525042848522958
 31
0.0
  0
LINE
  5
56EB
  8
0
 10
388.9999999999997726
 20
270.3865042848523217
 30
0.0
 11
389.5809999999999036
 21
269.8055042848523044
 31
0.0
  0
LINE
  5
56EC
  8
0
 10
394.8000000000000114
 20
233.3639507796613941
 30
0.0
 11
393.5
 21
233.3639507796613941
 31
0.0
  0
LINE
  5
56ED
  8
0
 10
393.5
 20
220.3639507796613941
 30
0.0
 11
394.8000000000000114
 21
220.3639507796613941
 31
0.0
  0
LINE
  5
56EE
  8
0
 10
393.5
 20
232.8639507796613088
 30
0.0
 11
393.1999999999998181
 21
232.8639507796613088
 31
0.0
  0
LINE
  5
56EF
  8
0
 10
393.1999999999998181
 20
220.8639507796613941
 30
0.0
 11
393.5
 21
220.8639507796613941
 31
0.0
  0
LINE
  5
56F0
  8
0
 10
393.5
 20
233.3639507796613941
 30
0.0
 11
393.5000000000002274
 21
220.3639507796613941
 31
0.0
  0
LINE
  5
56F1
  8
0
 10
389.5809999999999036
 20
221.9999507796613898
 30
0.0
 11
389.5809999999999036
 21
231.7279507796613984
 31
0.0
  0
LINE
  5
56F2
  8
0
 10
388.9999999999997726
 20
222.5809507796614071
 30
0.0
 11
388.9999999999997726
 21
231.1469507796614948
 31
0.0
  0
LINE
  5
56F3
  8
0
 10
393.1999999999998181
 20
220.8639507796613941
 30
0.0
 11
393.1999999999998181
 21
232.8639507796613088
 31
0.0
  0
LINE
  5
56F4
  8
0
 10
389.5809999999999036
 20
221.9999507796613898
 30
0.0
 11
393.1999999999998181
 21
221.9999507796613898
 31
0.0
  0
LINE
  5
56F5
  8
0
 10
393.1999999999998181
 20
231.7279507796613984
 30
0.0
 11
389.5809999999999036
 21
231.7279507796613984
 31
0.0
  0
LINE
  5
56F6
  8
0
 10
389.5809999999999036
 20
231.7279507796613984
 30
0.0
 11
388.9999999999997726
 21
231.1469507796614948
 31
0.0
  0
LINE
  5
56F7
  8
0
 10
388.9999999999997726
 20
222.5809507796614071
 30
0.0
 11
389.5809999999999036
 21
221.9999507796613898
 31
0.0
  0
LINE
  5
56F8
  8
1
 10
410.5999999999997954
 20
155.3583972744764878
 30
0.0
 11
410.5999999999997954
 21
167.3583972744764878
 31
0.0
  0
LINE
  5
56F9
  8
1
 10
410.5999999999997954
 20
171.3583972744764878
 30
0.0
 11
410.5999999999999091
 21
191.3583972744764878
 31
0.0
  0
CIRCLE
  5
56FA
  8
0
 10
410.5999999999997954
 20
161.3583972744764878
 30
0.0
 40
3.0
  0
LINE
  5
56FB
  8
0
 10
407.5999999999997954
 20
188.3583972744764878
 30
0.0
 11
407.5999999999997954
 21
174.3583972744764878
 31
0.0
  0
LINE
  5
56FC
  8
0
 10
413.5999999999997954
 20
188.3583972744764878
 30
0.0
 11
413.5999999999999091
 21
174.3583972744764878
 31
0.0
  0
LINE
  5
56FD
  8
1
 10
404.5999999999999091
 20
161.3583972744764878
 30
0.0
 11
416.5999999999999091
 21
161.3583972744764878
 31
0.0
  0
LINE
  5
56FE
  8
0
 10
413.5999999999999091
 20
174.3583972744764878
 30
0.0
 11
407.5999999999997954
 21
174.3583972744764878
 31
0.0
  0
LINE
  5
56FF
  8
0
 10
413.5999999999999091
 20
188.3583972744764878
 30
0.0
 11
407.5999999999997954
 21
188.3583972744764878
 31
0.0
  0
LINE
  5
5700
  8
0
 10
407.5999999999997954
 20
67.971847274476545
 30
0.0
 11
408.2134499999996819
 21
67.3583972744765447
 31
0.0
  0
LINE
  5
5701
  8
0
 10
412.9865499999996246
 20
67.3583972744765447
 30
0.0
 11
413.5999999999999091
 21
67.971847274476545
 31
0.0
  0
LINE
  5
5702
  8
0
 10
407.5999999999997954
 20
67.971847274476545
 30
0.0
 11
413.5999999999999091
 21
67.971847274476545
 31
0.0
  0
LINE
  5
5703
  8
0
 10
408.2134499999996819
 20
67.3583972744765447
 30
0.0
 11
412.9865500000000793
 21
67.3583972744766015
 31
0.0
  0
LINE
  5
5704
  8
0
 10
414.9999999999994884
 20
98.3583972744765447
 30
0.0
 11
406.1999999999998181
 21
98.3583972744765447
 31
0.0
  0
LINE
  5
5705
  8
0
 10
415.5999999999997954
 20
92.3583972744765447
 30
0.0
 11
405.5999999999999091
 21
92.3583972744765447
 31
0.0
  0
ARC
  5
5706
  8
0
 10
414.9999999999994884
 20
97.7583972744765362
 30
0.0
 40
0.6000000000000228
 50
0.0
 51
90.0
  0
ARC
  5
5707
  8
0
 10
406.1999999999998181
 20
97.7583972744765362
 30
0.0
 40
0.6000000000000228
 50
90.0
 51
180.0
  0
LINE
  5
5708
  8
0
 10
405.5999999999999091
 20
97.7583972744765362
 30
0.0
 11
405.5999999999999091
 21
92.3583972744765447
 31
0.0
  0
LINE
  5
5709
  8
0
 10
415.5999999999997954
 20
92.3583972744765447
 30
0.0
 11
415.5999999999997954
 21
97.7583972744765362
 31
0.0
  0
ARC
  5
570A
  8
0
 10
413.8499999999997954
 20
92.1083972744765447
 30
0.0
 40
0.25
 50
90.0
 51
180.0
  0
ARC
  5
570B
  8
0
 10
407.3499999999999091
 20
92.1083972744765447
 30
0.0
 40
0.2500000000000568
 50
0.0
 51
90.0
  0
LINE
  5
570C
  8
0
 10
407.5999999999997954
 20
92.1083972744765447
 30
0.0
 11
407.5999999999997954
 21
67.971847274476545
 31
0.0
  0
LINE
  5
570D
  8
0
 10
413.5999999999999091
 20
67.971847274476545
 30
0.0
 11
413.5999999999999091
 21
92.1083972744765447
 31
0.0
  0
LINE
  5
570E
  8
0
 10
408.0999999999999091
 20
121.9150216015024029
 30
0.0
 11
408.0999999999999091
 21
124.8017729474506012
 31
0.0
  0
LINE
  5
570F
  8
0
 10
410.5999999999997954
 20
120.4716459285284031
 30
0.0
 11
408.0999999999999091
 21
121.9150216015024029
 31
0.0
  0
LINE
  5
5710
  8
0
 10
413.0999999999999091
 20
121.9150216015024029
 30
0.0
 11
410.5999999999997954
 21
120.4716459285284031
 31
0.0
  0
LINE
  5
5711
  8
0
 10
413.0999999999999091
 20
124.8017729474506012
 30
0.0
 11
413.0999999999999091
 21
121.9150216015024029
 31
0.0
  0
LINE
  5
5712
  8
0
 10
410.5999999999997954
 20
126.2451486204247004
 30
0.0
 11
413.0999999999999091
 21
124.8017729474506012
 31
0.0
  0
LINE
  5
5713
  8
0
 10
408.0999999999999091
 20
124.8017729474506012
 30
0.0
 11
410.5999999999997954
 21
126.2451486204247004
 31
0.0
  0
CIRCLE
  5
5714
  8
0
 10
410.5999999999997954
 20
123.358397274476502
 30
0.0
 40
5.0
  0
CIRCLE
  5
5715
  8
0
 10
410.5999999999997954
 20
123.358397274476502
 30
0.0
 40
4.3071796769724946
  0
LINE
  5
5716
  8
3
 10
408.1414999999997235
 20
89.3583972744765447
 30
0.0
 11
407.5999999999997954
 21
90.296302786774902
 31
0.0
  0
LINE
  5
5717
  8
3
 10
413.058499999999583
 20
89.3583972744765447
 30
0.0
 11
413.5999999999999091
 21
90.296302786774902
 31
0.0
  0
LINE
  5
5718
  8
0
 10
407.5999999999997954
 20
89.3583972744765447
 30
0.0
 11
413.5999999999999091
 21
89.3583972744765447
 31
0.0
  0
LINE
  5
5719
  8
3
 10
413.058499999999583
 20
89.3583972744765447
 30
0.0
 11
413.058499999999583
 21
67.4303472744766736
 31
0.0
  0
LINE
  5
571A
  8
3
 10
408.1414999999992119
 20
89.3583972744765447
 30
0.0
 11
408.1414999999992119
 21
67.4303472744766736
 31
0.0
  0
LINE
  5
571B
  8
0
 10
415.5999999999997954
 20
97.7583972744765362
 30
0.0
 11
405.5999999999999091
 21
97.7583972744765362
 31
0.0
  0
LINE
  5
571C
  8
1
 10
410.5999999999997954
 20
131.3583972744764878
 30
0.0
 11
410.5999999999997954
 21
115.358397274476502
 31
0.0
  0
LINE
  5
571D
  8
1
 10
410.5999999999997954
 20
101.358397274476502
 30
0.0
 11
410.5999999999997954
 21
64.3583972744766015
 31
0.0
  0
LINE
  5
571E
  8
1
 10
418.5999999999999091
 20
123.358397274476502
 30
0.0
 11
402.5999999999997954
 21
123.358397274476502
 31
0.0
  0
LINE
  5
5720
  8
0
 10
520.0500000000062073
 20
233.3639507796613941
 30
0.0
 11
519.7500000000061391
 21
233.3639507796613941
 31
0.0
  0
LINE
  5
5721
  8
0
 10
519.7500000000061391
 20
220.3639507796613941
 30
0.0
 11
520.0500000000062073
 21
220.3639507796613941
 31
0.0
  0
LINE
  5
5722
  8
0
 10
519.7500000000061391
 20
232.8639507796613088
 30
0.0
 11
519.4500000000059572
 21
232.8639507796613088
 31
0.0
  0
LINE
  5
5723
  8
0
 10
519.4500000000059572
 20
220.8639507796613941
 30
0.0
 11
519.7500000000061391
 21
220.8639507796613941
 31
0.0
  0
LINE
  5
5724
  8
0
 10
525.050000000006321
 20
232.1139507797300041
 30
0.0
 11
524.7499999999796501
 21
231.5889507796690054
 31
0.0
  0
LINE
  5
5725
  8
0
 10
524.7499999999796501
 20
222.1389507796538112
 30
0.0
 11
525.050000000006321
 21
221.6139507795928125
 31
0.0
  0
LINE
  5
5726
  8
0
 10
530.8100000000056298
 20
232.1139507796613941
 30
0.0
 11
525.050000000006321
 21
232.1139507796613941
 31
0.0
  0
LINE
  5
5727
  8
0
 10
525.050000000006321
 20
221.6139507796613941
 30
0.0
 11
530.8100000000056298
 21
221.6139507796613941
 31
0.0
  0
LINE
  5
5728
  8
0
 10
530.8100000000056298
 20
221.6139507795940915
 30
0.0
 11
531.2541790539014528
 21
222.058129833489204
 31
0.0
  0
LINE
  5
5729
  8
0
 10
531.2541790539014528
 20
231.6697717258338116
 30
0.0
 11
530.8100000000056298
 21
232.1139507797288104
 31
0.0
  0
LINE
  5
572A
  8
0
 10
524.7500000000061391
 20
233.3639507796613941
 30
0.0
 11
524.4805627488127584
 21
234.3695042905661126
 31
0.0
  0
LINE
  5
572B
  8
0
 10
524.4805627488127584
 20
219.3583972687567041
 30
0.0
 11
524.7500000000061391
 21
220.3639507796615078
 31
0.0
  0
CIRCLE
  5
572C
  8
0
 10
535.2500000000061391
 20
226.8639507796613088
 30
0.0
 40
3.0
  0
CIRCLE
  5
572D
  8
0
 10
535.2500000000061391
 20
226.8639507796613088
 30
0.0
 40
5.9000000000000048
  0
CIRCLE
  5
572E
  8
0
 10
535.2500000000061391
 20
226.8639507796613088
 30
0.0
 40
6.2499999999999707
  0
LINE
  5
572F
  8
0
 10
529.0805186603798802
 20
225.8639507796613941
 30
0.0
 11
527.6538820320281502
 21
225.8639507796613941
 31
0.0
  0
ARC
  5
5730
  8
0
 10
522.5000000000061391
 20
226.8639507796613088
 30
0.0
 40
5.249999999999992
 50
349.0194245723865265
 51
10.9805754276135392
  0
LINE
  5
5731
  8
0
 10
527.6538820320281502
 20
227.8639507796613941
 30
0.0
 11
529.0805186603798802
 21
227.8639507796613941
 31
0.0
  0
LINE
  5
5732
  8
0
 10
520.0500000000062073
 20
230.6167275293940122
 30
0.0
 11
524.4805627488127584
 21
230.6167275522732893
 31
0.0
  0
POLYLINE
  5
5733
  8
0
 66
     1
 10
0.0
 20
0.0
 30
0.0
 70
   128
  0
VERTEX
  5
5A92
  8
0
 10
524.4805627127321941
 20
230.6167275707294948
 30
0.0
  0
VERTEX
  5
5A93
  8
0
 10
524.6782541140597687
 20
228.7487759250900865
 30
0.0
  0
VERTEX
  5
5A94
  8
0
 10
524.7500000000061391
 20
226.8639507796613088
 30
0.0
  0
SEQEND
  5
5A95
  8
0
  0
POLYLINE
  5
5734
  8
0
 66
     1
 10
0.0
 20
0.0
 30
0.0
 70
   128
  0
VERTEX
  5
5A96
  8
0
 10
524.7500000000061391
 20
226.8639507796613088
 30
0.0
  0
VERTEX
  5
5A97
  8
0
 10
524.6788824031270906
 20
224.9875624531094047
 30
0.0
  0
VERTEX
  5
5A98
  8
0
 10
524.4805627648235031
 20
223.1111741265575006
 30
0.0
  0
SEQEND
  5
5A99
  8
0
  0
LINE
  5
5735
  8
0
 10
520.0500000000062073
 20
223.1111740299288897
 30
0.0
 11
524.4805627488127584
 21
223.1111740413685141
 31
0.0
  0
LINE
  5
5736
  8
0
 10
524.4805627488127584
 20
234.3695042905661126
 30
0.0
 11
520.0500000000062073
 21
234.3695042791264882
 31
0.0
  0
POLYLINE
  5
5737
  8
0
 66
     1
 10
0.0
 20
0.0
 30
0.0
 70
   128
  0
VERTEX
  5
5A9A
  8
0
 10
524.4805627457478749
 20
234.3695043020057938
 30
0.0
  0
VERTEX
  5
5A9B
  8
0
 10
524.6782541140626108
 20
233.4355284769582113
 30
0.0
  0
VERTEX
  5
5A9C
  8
0
 10
524.7500000000061391
 20
232.4931159042604065
 30
0.0
  0
SEQEND
  5
5A9D
  8
0
  0
POLYLINE
  5
5738
  8
0
 66
     1
 10
0.0
 20
0.0
 30
0.0
 70
   128
  0
VERTEX
  5
5A9E
  8
0
 10
524.7500000000061391
 20
232.4931159042604065
 30
0.0
  0
VERTEX
  5
5A9F
  8
0
 10
524.6788824031270906
 20
231.5549217409844118
 30
0.0
  0
VERTEX
  5
5AA0
  8
0
 10
524.4805627648235031
 20
230.6167275777085024
 30
0.0
  0
SEQEND
  5
5AA1
  8
0
  0
POLYLINE
  5
5739
  8
0
 66
     1
 10
0.0
 20
0.0
 30
0.0
 70
   128
  0
VERTEX
  5
5AA2
  8
0
 10
524.4805627127321941
 20
223.1111740868323068
 30
0.0
  0
VERTEX
  5
5AA3
  8
0
 10
524.6782541140597687
 20
222.1771982277768984
 30
0.0
  0
VERTEX
  5
5AA4
  8
0
 10
524.7500000000061391
 20
221.2347856550624954
 30
0.0
  0
SEQEND
  5
5AA5
  8
0
  0
POLYLINE
  5
573A
  8
0
 66
     1
 10
0.0
 20
0.0
 30
0.0
 70
   128
  0
VERTEX
  5
5AA6
  8
0
 10
524.7500000000061391
 20
221.2347856550624954
 30
0.0
  0
VERTEX
  5
5AA7
  8
0
 10
524.6788824031270906
 20
220.2965914917865859
 30
0.0
  0
VERTEX
  5
5AA8
  8
0
 10
524.4805627648235031
 20
219.3583973285107049
 30
0.0
  0
SEQEND
  5
5AA9
  8
0
  0
LINE
  5
573B
  8
0
 10
524.4805627488127584
 20
219.3583972687567041
 30
0.0
 11
520.0500000000062073
 21
219.3583972801964137
 31
0.0
  0
LINE
  5
573C
  8
0
 10
520.0500000000062073
 20
219.3583972801964137
 30
0.0
 11
520.0500000000062073
 21
234.3695042791264882
 31
0.0
  0
LINE
  5
573D
  8
0
 10
519.4500000000059572
 20
220.3639507796613941
 30
0.0
 11
519.4500000000059572
 21
233.3639507796613941
 31
0.0
  0
LINE
  5
573E
  8
0
 10
519.7500000000061391
 20
233.3639507796615078
 30
0.0
 11
519.7500000000061391
 21
220.3639507796613941
 31
0.0
  0
LINE
  5
573F
  8
0
 10
525.050000000006321
 20
232.1139507797300041
 30
0.0
 11
525.050000000006321
 21
221.6139507796615078
 31
0.0
  0
LINE
  5
5740
  8
0
 10
530.8100000000056298
 20
231.2626892351734966
 30
0.0
 11
530.8100000000056298
 21
232.1139507796613941
 31
0.0
  0
LINE
  5
5741
  8
0
 10
530.8100000000056298
 20
221.6139507796613941
 30
0.0
 11
530.8100000000056298
 21
222.4652123241494053
 31
0.0
  0
CIRCLE
  5
5742
  8
0
 10
535.2500000000061391
 20
226.8639507796613088
 30
0.0
 40
2.0999999999995111
  0
LINE
  5
5743
  8
0
 10
524.7500000000061391
 20
220.3639507796613941
 30
0.0
 11
524.7500000000061391
 21
233.3639507796611099
 31
0.0
  0
LINE
  5
5744
  8
0
 10
524.7500000000061391
 20
281.1695042848522803
 30
0.0
 11
519.7500000000061391
 21
281.169504284852394
 31
0.0
  0
LINE
  5
5745
  8
0
 10
519.7500000000061391
 20
268.169504284852394
 30
0.0
 11
524.7500000000061391
 21
268.169504284852394
 31
0.0
  0
LINE
  5
5746
  8
0
 10
519.4500000000059572
 20
281.169504284852394
 30
0.0
 11
518.1500000000056616
 21
281.169504284852394
 31
0.0
  0
LINE
  5
5747
  8
0
 10
518.1500000000056616
 20
268.169504284852394
 30
0.0
 11
519.4500000000059572
 21
268.169504284852394
 31
0.0
  0
LINE
  5
5748
  8
0
 10
541.5000000000524096
 20
269.8195042848523144
 30
0.0
 11
539.1249999999996589
 21
272.1945042848483922
 31
0.0
  0
LINE
  5
5749
  8
0
 10
541.5000000000061391
 20
260.3695042848523258
 30
0.0
 11
541.5000000000061391
 21
269.8195042848523144
 31
0.0
  0
LINE
  5
574A
  8
0
 10
529.0000000000061391
 20
268.169504284852394
 30
0.0
 11
529.0000000000061391
 21
260.3695042848523258
 31
0.0
  0
LINE
  5
574B
  8
0
 10
529.0000000000052296
 20
260.3695042848523258
 30
0.0
 11
529.1048155585738186
 21
258.3695042848513026
 31
0.0
  0
LINE
  5
574C
  8
0
 10
541.3951844414383459
 20
258.3695042848513026
 30
0.0
 11
541.5000000000061391
 21
260.3695042848523258
 31
0.0
  0
LINE
  5
574D
  8
0
 10
518.1500000000056616
 20
280.669504284852394
 30
0.0
 11
517.8500000000054797
 21
280.669504284852394
 31
0.0
  0
LINE
  5
574E
  8
0
 10
517.8500000000054797
 20
268.669504284852394
 30
0.0
 11
518.1500000000056616
 21
268.669504284852394
 31
0.0
  0
LINE
  5
574F
  8
0
 10
519.7500000000061391
 20
280.669504284852394
 30
0.0
 11
519.4500000000059572
 21
280.669504284852394
 31
0.0
  0
LINE
  5
5750
  8
0
 10
519.4500000000059572
 20
268.669504284852394
 30
0.0
 11
519.7500000000061391
 21
268.669504284852394
 31
0.0
  0
LINE
  5
5751
  8
0
 10
541.1500000000056616
 20
254.9957743609290901
 30
0.0
 11
541.1500000000056616
 21
255.869504284852411
 31
0.0
  0
LINE
  5
5752
  8
0
 10
529.3500000000063892
 20
255.869504284852411
 30
0.0
 11
529.3500000000063892
 21
254.9957743609290901
 31
0.0
  0
ARC
  5
5753
  8
0
 10
540.950000000006753
 20
254.9957743609290901
 30
0.0
 40
0.1999999999990565
 50
280.0000000000051159
 51
0.0
  0
ARC
  5
5754
  8
0
 10
529.5500000000052978
 20
254.9957743609290901
 30
0.0
 40
0.1999999999990791
 50
180.0
 51
259.9999999999815827
  0
LINE
  5
5755
  8
0
 10
541.0000000000405862
 20
257.6195042848690946
 30
0.0
 11
540.9000000000085038
 21
257.7195042849007791
 31
0.0
  0
LINE
  5
5756
  8
0
 10
529.6000000000027512
 20
257.7195042849007791
 30
0.0
 11
529.4999999999714646
 21
257.6195042848690946
 31
0.0
  0
LINE
  5
5757
  8
0
 10
541.0000000000061391
 20
257.169504284852394
 30
0.0
 11
541.0000000000061391
 21
257.6195042848690946
 31
0.0
  0
LINE
  5
5758
  8
0
 10
529.5000000000061391
 20
257.6195042848690946
 30
0.0
 11
529.5000000000061391
 21
257.169504284852394
 31
0.0
  0
LINE
  5
5759
  8
0
 10
529.5000000000515001
 20
257.8195042848524849
 30
0.0
 11
529.6000000000027512
 21
257.7195042849007791
 31
0.0
  0
LINE
  5
575A
  8
0
 10
540.9000000000085038
 20
257.7195042849007791
 30
0.0
 11
540.9999999999605507
 21
257.8195042848524849
 31
0.0
  0
LINE
  5
575B
  8
0
 10
541.0000000000061391
 20
257.8195042848524849
 30
0.0
 11
541.0000000000061391
 21
258.2695042848764047
 31
0.0
  0
LINE
  5
575C
  8
0
 10
529.5000000000061391
 20
258.2695042848764047
 30
0.0
 11
529.5000000000061391
 21
257.8195042848524849
 31
0.0
  0
LINE
  5
575D
  8
0
 10
529.5000000000443379
 20
257.169504284852394
 30
0.0
 11
529.8000000000098453
 21
256.8695042848867729
 31
0.0
  0
LINE
  5
575E
  8
0
 10
540.7000000000023192
 20
256.8695042848867729
 30
0.0
 11
540.9999999999679403
 21
257.169504284852394
 31
0.0
  0
LINE
  5
575F
  8
0
 10
540.9999999999834017
 20
258.2695042848764047
 30
0.0
 11
540.9000000000085038
 21
258.3695042848513026
 31
0.0
  0
LINE
  5
5760
  8
0
 10
529.6000000000027512
 20
258.3695042848513026
 30
0.0
 11
529.5000000000278533
 21
258.2695042848764047
 31
0.0
  0
LINE
  5
5761
  8
0
 10
529.5152703643632321
 20
254.798812810327604
 30
0.0
 11
531.9499999999814008
 21
254.3695042848463004
 31
0.0
  0
LINE
  5
5762
  8
0
 10
538.5500000000298542
 20
254.3695042848463004
 30
0.0
 11
540.984729635649046
 21
254.798812810327604
 31
0.0
  0
LINE
  5
5763
  8
0
 10
532.1850000000791852
 20
278.5445042848460275
 30
0.0
 11
530.8100000000056298
 21
279.9195042849196966
 31
0.0
  0
LINE
  5
5764
  8
0
 10
525.050000000006321
 20
279.919504284921004
 30
0.0
 11
524.7499999999788542
 21
279.3945042848600906
 31
0.0
  0
LINE
  5
5765
  8
0
 10
524.7499999999788542
 20
269.9445042848448111
 30
0.0
 11
525.050000000006321
 21
269.4195042847837271
 31
0.0
  0
LINE
  5
5766
  8
0
 10
530.8100000000056298
 20
279.919504284852394
 30
0.0
 11
525.050000000006321
 21
279.919504284852394
 31
0.0
  0
LINE
  5
5767
  8
0
 10
525.050000000006321
 20
269.419504284852394
 30
0.0
 11
527.7500000000061391
 21
269.419504284852394
 31
0.0
  0
ARC
  5
5768
  8
0
 10
539.300000000006321
 20
256.1695042848522235
 30
0.0
 40
0.2999999999998977
 50
179.9999999999772058
 51
270.0
  0
ARC
  5
5769
  8
0
 10
531.2000000000058435
 20
256.1695042848522235
 30
0.0
 40
0.2999999999998977
 50
270.0
 51
0.0000000000195413
  0
LINE
  5
576A
  8
0
 10
535.2499999853660029
 20
278.544504284852394
 30
0.0
 11
532.1850000000791852
 21
278.544504284852394
 31
0.0
  0
LINE
  5
576B
  8
0
 10
539.1250000000061391
 20
272.1945042848483922
 30
0.0
 11
539.1250000000061391
 21
274.669504284852394
 31
0.0
  0
ARC
  5
576C
  8
0
 10
535.2500000000061391
 20
274.669504284852394
 30
0.0
 40
3.8749999999997722
 50
0.0
 51
90.0000002164658071
  0
LINE
  5
576D
  8
0
 10
539.0000000000061391
 20
256.169504284852394
 30
0.0
 11
539.0000000000061391
 21
256.8695042848523826
 31
0.0
  0
LINE
  5
576E
  8
0
 10
531.5000000000061391
 20
256.8695042848523826
 30
0.0
 11
531.5000000000061391
 21
256.169504284852394
 31
0.0
  0
POLYLINE
  5
576F
  8
0
 66
     1
 10
0.0
 20
0.0
 30
0.0
 70
   128
  0
VERTEX
  5
5AAA
  8
0
 10
524.4805627127321941
 20
281.1695042997291125
 30
0.0
  0
VERTEX
  5
5AAB
  8
0
 10
524.6782541140597687
 20
279.5518107424852019
 30
0.0
  0
VERTEX
  5
5AAC
  8
0
 10
524.7500000000061391
 20
277.9195042848522803
 30
0.0
  0
SEQEND
  5
5AAD
  8
0
  0
POLYLINE
  5
5770
  8
0
 66
     1
 10
0.0
 20
0.0
 30
0.0
 70
   128
  0
VERTEX
  5
5AAE
  8
0
 10
524.7500000000061391
 20
277.9195042848522803
 30
0.0
  0
VERTEX
  5
5AAF
  8
0
 10
524.6788824031270906
 20
276.2945043266936977
 30
0.0
  0
VERTEX
  5
5AB0
  8
0
 10
524.4805627648235031
 20
274.669504368535172
 30
0.0
  0
SEQEND
  5
5AB1
  8
0
  0
LINE
  5
5771
  8
0
 10
524.4805627488127584
 20
274.6695043046664182
 30
0.0
 11
520.0500000000062073
 21
274.669504284852394
 31
0.0
  0
POLYLINE
  5
5772
  8
0
 66
     1
 10
0.0
 20
0.0
 30
0.0
 70
   128
  0
VERTEX
  5
5AB2
  8
0
 10
524.4805627457478749
 20
274.6695043244803855
 30
0.0
  0
VERTEX
  5
5AB3
  8
0
 10
524.6782541140626108
 20
273.0518107424567233
 30
0.0
  0
VERTEX
  5
5AB4
  8
0
 10
524.7500000000061391
 20
271.419504284852394
 30
0.0
  0
SEQEND
  5
5AB5
  8
0
  0
POLYLINE
  5
5773
  8
0
 66
     1
 10
0.0
 20
0.0
 30
0.0
 70
   128
  0
VERTEX
  5
5AB6
  8
0
 10
524.7500000000061391
 20
271.419504284852394
 30
0.0
  0
VERTEX
  5
5AB7
  8
0
 10
524.6788824031270906
 20
269.7945043266938114
 30
0.0
  0
VERTEX
  5
5AB8
  8
0
 10
524.4805627648235031
 20
268.1695043685351152
 30
0.0
  0
SEQEND
  5
5AB9
  8
0
  0
LINE
  5
5774
  8
0
 10
520.0500000000062073
 20
268.1695042848522803
 30
0.0
 11
520.0500000000062073
 21
281.169504284852394
 31
0.0
  0
LINE
  5
5775
  8
0
 10
519.7500000000061391
 20
281.169504284852394
 30
0.0
 11
519.7500000000061391
 21
268.169504284852394
 31
0.0
  0
LINE
  5
5776
  8
0
 10
518.1500000000056616
 20
281.169504284852394
 30
0.0
 11
518.1500000000066848
 21
268.169504284852394
 31
0.0
  0
LINE
  5
5777
  8
0
 10
519.4500000000059572
 20
268.169504284852394
 30
0.0
 11
519.4500000000059572
 21
281.169504284852394
 31
0.0
  0
ARC
  5
5778
  8
0
 10
540.3808671226313436
 20
249.4982296287842019
 30
0.0
 40
23.1307425331530894
 50
110.758764286183407
 51
118.5332979846158992
  0
ARC
  5
5779
  8
0
 10
535.5681944574787394
 20
266.337723166668809
 30
0.0
 40
5.8654183805556288
 50
93.1097787913043931
 51
125.2554152072045071
  0
LINE
  5
577A
  8
0
 10
539.1249999999996589
 20
272.1945042848483922
 30
0.0
 11
535.2500000000061391
 21
272.1945042848453227
 31
0.0
  0
LINE
  5
577B
  8
0
 10
541.5000000000524096
 20
269.8195042848523144
 30
0.0
 11
529.3320189253333865
 21
269.8195042848570893
 31
0.0
  0
LINE
  5
577C
  8
0
 10
529.0805186603789707
 20
268.0889856244788803
 30
0.0
 11
529.0805186603789707
 21
269.515622252830326
 31
0.0
  0
LINE
  5
577D
  8
0
 10
529.0805186603789707
 20
269.515622252830326
 30
0.0
 11
529.3320189253496437
 21
269.8195042848528828
 31
0.0
  0
LINE
  5
577E
  8
0
 10
529.0000000000061391
 20
260.3695042848523258
 30
0.0
 11
541.5000000000061391
 21
260.3695042848523258
 31
0.0
  0
LINE
  5
577F
  8
0
 10
529.1048155585738186
 20
258.3695042848513026
 30
0.0
 11
541.3951844414383459
 21
258.3695042848513026
 31
0.0
  0
LINE
  5
5780
  8
0
 10
541.1500000000056616
 20
255.869504284852411
 30
0.0
 11
529.3500000000063892
 21
255.869504284852411
 31
0.0
  0
LINE
  5
5781
  8
0
 10
529.6000000000027512
 20
257.7195042849007791
 30
0.0
 11
540.9000000000085038
 21
257.7195042849007791
 31
0.0
  0
LINE
  5
5782
  8
0
 10
529.8000000000098453
 20
256.8695042848867729
 30
0.0
 11
540.7000000000023192
 21
256.8695042848867729
 31
0.0
  0
LINE
  5
5783
  8
0
 10
531.9499999999814008
 20
254.3695042848463004
 30
0.0
 11
538.5500000000298542
 21
254.3695042848463004
 31
0.0
  0
LINE
  5
5784
  8
0
 10
524.7500000000061391
 20
268.1695042848522803
 30
0.0
 11
524.7500000000061391
 21
281.1695042848522803
 31
0.0
  0
LINE
  5
5785
  8
0
 10
532.1850000000391674
 20
274.669504284852394
 30
0.0
 11
532.1850000000791852
 21
278.5445042848460275
 31
0.0
  0
ARC
  5
5786
  8
0
 10
525.8322071280823593
 20
275.0975881535840131
 30
0.0
 40
6.367199782715339
 50
321.4244673644583941
 51
356.1449435011720084
  0
LINE
  5
5787
  8
0
 10
530.8100000000329146
 20
271.1273474560156842
 30
0.0
 11
530.8100000000056298
 21
279.9195042849196966
 31
0.0
  0
LINE
  5
5788
  8
0
 10
525.050000000006321
 20
279.9195042848522803
 30
0.0
 11
525.050000000006321
 21
269.419504284852394
 31
0.0
  0
LINE
  5
5789
  8
0
 10
529.0805186603789707
 20
269.515622252830326
 30
0.0
 11
527.6538820320281502
 21
269.515622252830326
 31
0.0
  0
LINE
  5
578A
  8
0
 10
532.1825436466267547
 20
271.1273474938005847
 30
0.0
 11
530.8100000000329146
 21
271.1273474560156842
 31
0.0
  0
LINE
  5
578B
  8
0
 10
527.6538820320281502
 20
269.515622252830326
 30
0.0
 11
529.0805186603789707
 21
268.0889856244788803
 31
0.0
  0
LINE
  5
578C
  8
0
 10
576.9500000000114142
 20
220.6139507796150099
 30
0.0
 11
579.3250000000076625
 21
222.988950779667789
 31
0.0
  0
LINE
  5
578D
  8
0
 10
579.3250000000050477
 20
230.7389507796580972
 30
0.0
 11
576.9500000000114142
 21
233.1139507797080057
 31
0.0
  0
LINE
  5
578E
  8
0
 10
567.5000000000115961
 20
220.6139507796615078
 30
0.0
 11
576.9500000000114142
 21
220.6139507796615078
 31
0.0
  0
LINE
  5
578F
  8
0
 10
576.9500000000114142
 20
233.1139507796613088
 30
0.0
 11
567.5000000000115961
 21
233.1139507796613088
 31
0.0
  0
LINE
  5
5790
  8
0
 10
567.5000000000115961
 20
233.113950779661792
 30
0.0
 11
565.5000000000105729
 21
233.0091352210936861
 31
0.0
  0
LINE
  5
5791
  8
0
 10
565.5000000000105729
 20
220.7187663382291021
 30
0.0
 11
567.5000000000115961
 21
220.6139507796611099
 31
0.0
  0
LINE
  5
5792
  8
0
 10
562.1262700760886446
 20
220.9639507796615021
 30
0.0
 11
563.0000000000115961
 21
220.9639507796615021
 31
0.0
  0
LINE
  5
5793
  8
0
 10
563.0000000000115961
 20
232.7639507796613998
 30
0.0
 11
562.1262700760886446
 21
232.7639507796613998
 31
0.0
  0
ARC
  5
5794
  8
0
 10
562.1262700760886446
 20
221.163950779660496
 30
0.0
 40
0.1999999999990791
 50
190.0000000000061959
 51
270.0
  0
ARC
  5
5795
  8
0
 10
562.1262700760886446
 20
232.5639507796622922
 30
0.0
 40
0.1999999999990791
 50
90.0
 51
169.9999999999936904
  0
LINE
  5
5796
  8
0
 10
564.7500000000287628
 20
221.1139507796268902
 30
0.0
 11
564.8500000000600494
 21
221.2139507796586031
 31
0.0
  0
LINE
  5
5797
  8
0
 10
564.8500000000600494
 20
232.5139507796642135
 30
0.0
 11
564.7500000000287628
 21
232.6139507796958981
 31
0.0
  0
LINE
  5
5798
  8
0
 10
564.3000000000116643
 20
221.1139507796613941
 30
0.0
 11
564.7500000000287628
 21
221.1139507796613941
 31
0.0
  0
LINE
  5
5799
  8
0
 10
564.7500000000287628
 20
232.6139507796613941
 30
0.0
 11
564.3000000000116643
 21
232.6139507796613941
 31
0.0
  0
LINE
  5
579A
  8
0
 10
564.9500000000123237
 20
232.613950779615891
 30
0.0
 11
564.8500000000600494
 21
232.5139507796642135
 31
0.0
  0
LINE
  5
579B
  8
0
 10
564.8500000000600494
 20
221.2139507796586031
 30
0.0
 11
564.9500000000123237
 21
221.113950779707011
 31
0.0
  0
LINE
  5
579C
  8
0
 10
564.9500000000123237
 20
221.1139507796613941
 30
0.0
 11
565.4000000000356749
 21
221.1139507796613941
 31
0.0
  0
LINE
  5
579D
  8
0
 10
565.4000000000356749
 20
232.6139507796613941
 30
0.0
 11
564.9500000000123237
 21
232.6139507796613941
 31
0.0
  0
LINE
  5
579E
  8
0
 10
564.3000000000116643
 20
232.6139507796231953
 30
0.0
 11
564.0000000000460432
 21
232.313950779657489
 31
0.0
  0
LINE
  5
579F
  8
0
 10
564.0000000000460432
 20
221.4139507796652993
 30
0.0
 11
564.3000000000116643
 21
221.1139507796995929
 31
0.0
  0
LINE
  5
57A0
  8
0
 10
565.4000000000356749
 20
221.1139507796837052
 30
0.0
 11
565.5000000000105729
 21
221.2139507796586031
 31
0.0
  0
LINE
  5
57A1
  8
0
 10
565.5000000000105729
 20
232.5139507796642135
 30
0.0
 11
565.4000000000356749
 21
232.6139507796391115
 31
0.0
  0
LINE
  5
57A2
  8
0
 10
561.9293085254873859
 20
232.5986804153045
 30
0.0
 11
561.5000000000061391
 21
230.1639507796855924
 31
0.0
  0
LINE
  5
57A3
  8
0
 10
561.5000000000061391
 20
223.5639507796371106
 30
0.0
 11
561.9293085254873859
 21
221.1292211440182882
 31
0.0
  0
ARC
  5
57A4
  8
0
 10
563.300000000011778
 20
222.8139507796616101
 30
0.0
 40
0.2999999999998977
 50
89.9999999999739515
 51
180.0
  0
ARC
  5
57A5
  8
0
 10
563.300000000011778
 20
230.9139507796612918
 30
0.0
 40
0.2999999999998977
 50
180.0
 51
270.0000000000130171
  0
LINE
  5
57A6
  8
0
 10
563.300000000011778
 20
223.1139507796613941
 30
0.0
 11
564.0000000000115961
 21
223.1139507796613941
 31
0.0
  0
LINE
  5
57A7
  8
0
 10
564.0000000000115961
 20
230.6139507796613941
 30
0.0
 11
563.300000000011778
 21
230.6139507796613941
 31
0.0
  0
LINE
  5
57A8
  8
0
 10
579.3250000000050477
 20
222.9889507796646058
 30
0.0
 11
579.3250000000050477
 21
230.7389507796582109
 31
0.0
  0
LINE
  5
57A9
  8
0
 10
576.9500000000114142
 20
220.6139507796150099
 30
0.0
 11
576.9500000000114142
 21
233.1139507797080057
 31
0.0
  0
LINE
  5
57AA
  8
0
 10
567.5000000000115961
 20
233.1139507796613088
 30
0.0
 11
567.5000000000115961
 21
220.6139507796615078
 31
0.0
  0
LINE
  5
57AB
  8
0
 10
565.5000000000105729
 20
233.0091352210936861
 30
0.0
 11
565.5000000000105729
 21
220.7187663382291021
 31
0.0
  0
LINE
  5
57AC
  8
0
 10
563.0000000000115961
 20
220.9639507796615021
 30
0.0
 11
563.0000000000115961
 21
232.7639507796613998
 31
0.0
  0
LINE
  5
57AD
  8
0
 10
564.8500000000600494
 20
232.5139507796642135
 30
0.0
 11
564.8500000000600494
 21
221.2139507796586031
 31
0.0
  0
LINE
  5
57AE
  8
0
 10
564.0000000000460432
 20
232.313950779657489
 30
0.0
 11
564.0000000000460432
 21
221.4139507796652993
 31
0.0
  0
LINE
  5
57AF
  8
0
 10
561.5000000000061391
 20
230.1639507796855924
 30
0.0
 11
561.5000000000061391
 21
223.5639507796371106
 31
0.0
  0
LINE
  5
57B0
  8
0
 10
581.8000000000116643
 20
230.7389507796613941
 30
0.0
 11
579.3250000000050477
 21
230.7389507796582109
 31
0.0
  0
LINE
  5
57B1
  8
0
 10
579.3250000000050477
 20
222.9889507796646058
 30
0.0
 11
581.8000000000116643
 21
222.9889507796613941
 31
0.0
  0
ARC
  5
57B2
  8
0
 10
581.8000000000116643
 20
226.8639507796611099
 30
0.0
 40
3.8749999999997442
 50
270.0
 51
90.0
  0
ARC
  5
57B3
  8
0
 10
581.8000000000116643
 20
226.8639507796613088
 30
0.0
 40
5.2499999999999867
 50
235.8688648656709859
 51
124.1311351343289999
  0
LINE
  5
57B4
  8
0
 10
588.300000000011778
 20
223.1111740299288897
 30
0.0
 11
588.300000000011778
 21
230.6167274327652024
 31
0.0
  0
ARC
  5
57B5
  8
0
 10
581.8000000000116643
 20
226.8639507796613088
 30
0.0
 40
6.5000000000000151
 50
233.7602340103285883
 51
126.2397659896713975
  0
LINE
  5
57B6
  8
0
 10
581.8000000396401674
 20
234.3695043020057938
 30
0.0
 11
577.9292341855303903
 21
232.1347165941658943
 31
0.0
  0
LINE
  5
57B7
  8
0
 10
588.300000000011778
 20
230.6167274327652024
 30
0.0
 11
581.8000000836943855
 21
234.3695042308123107
 31
0.0
  0
LINE
  5
57B8
  8
0
 10
581.7999999163291704
 20
219.3583973285107049
 30
0.0
 11
588.2999999163290568
 21
223.1111739816145132
 31
0.0
  0
LINE
  5
57B9
  8
0
 10
577.9292341855303903
 20
221.5931849651572065
 30
0.0
 11
581.7999999163291704
 21
219.3583973285107049
 31
0.0
  0
LINE
  5
57BA
  8
1
 10
510.6500000000057753
 20
274.6695042848522803
 30
0.0
 11
544.1250000000061391
 21
274.669504284852394
 31
0.0
  0
LINE
  5
57BB
  8
1
 10
535.2500000000061391
 20
251.3695042848463004
 30
0.0
 11
535.2500000000061391
 21
281.544504284852394
 31
0.0
  0
LINE
  5
57BC
  8
1
 10
510.6500000000057753
 20
226.8639507796613088
 30
0.0
 11
544.5000000000061391
 21
226.8639507796613088
 31
0.0
  0
LINE
  5
57BD
  8
1
 10
535.2500000000061391
 20
217.6139507796615078
 30
0.0
 11
535.2500000000061391
 21
236.1139507796613941
 31
0.0
  0
LINE
  5
57BE
  8
1
 10
581.8000000000116643
 20
237.3695042308123107
 30
0.0
 11
581.8000000000116643
 21
216.3583973285107049
 31
0.0
  0
LINE
  5
57BF
  8
1
 10
591.3000000000116643
 20
226.8639507796613088
 30
0.0
 11
558.5000000000061391
 21
226.8639507796613088
 31
0.0
  0
LINE
  5
57C0
  8
0
 10
514.2310000000057926
 20
269.8055042848523044
 30
0.0
 11
514.2310000000057926
 21
279.533504284852313
 31
0.0
  0
LINE
  5
57C1
  8
0
 10
513.6500000000056616
 20
270.3865042848523217
 30
0.0
 11
513.6500000000056616
 21
278.9525042848522958
 31
0.0
  0
LINE
  5
57C2
  8
0
 10
517.8500000000054797
 20
268.669504284852394
 30
0.0
 11
517.8500000000054797
 21
280.669504284852394
 31
0.0
  0
LINE
  5
57C3
  8
0
 10
514.2310000000057926
 20
269.8055042848523044
 30
0.0
 11
517.8500000000054797
 21
269.8055042848523044
 31
0.0
  0
LINE
  5
57C4
  8
0
 10
517.8500000000054797
 20
279.533504284852313
 30
0.0
 11
514.2310000000057926
 21
279.533504284852313
 31
0.0
  0
LINE
  5
57C5
  8
0
 10
514.2310000000057926
 20
279.533504284852313
 30
0.0
 11
513.6500000000056616
 21
278.9525042848522958
 31
0.0
  0
LINE
  5
57C6
  8
0
 10
513.6500000000056616
 20
270.3865042848523217
 30
0.0
 11
514.2310000000057926
 21
269.8055042848523044
 31
0.0
  0
LINE
  5
57C7
  8
0
 10
519.4500000000059572
 20
233.3639507796613941
 30
0.0
 11
518.1500000000056616
 21
233.3639507796613941
 31
0.0
  0
LINE
  5
57C8
  8
0
 10
518.1500000000056616
 20
220.3639507796613941
 30
0.0
 11
519.4500000000059572
 21
220.3639507796613941
 31
0.0
  0
LINE
  5
57C9
  8
0
 10
518.1500000000056616
 20
232.8639507796613088
 30
0.0
 11
517.8500000000054797
 21
232.8639507796613088
 31
0.0
  0
LINE
  5
57CA
  8
0
 10
517.8500000000054797
 20
220.8639507796613941
 30
0.0
 11
518.1500000000056616
 21
220.8639507796613941
 31
0.0
  0
LINE
  5
57CB
  8
0
 10
518.1500000000056616
 20
233.3639507796613941
 30
0.0
 11
518.1500000000066848
 21
220.3639507796613941
 31
0.0
  0
LINE
  5
57CC
  8
0
 10
514.2310000000057926
 20
221.9999507796613898
 30
0.0
 11
514.2310000000057926
 21
231.7279507796613984
 31
0.0
  0
LINE
  5
57CD
  8
0
 10
513.6500000000056616
 20
222.5809507796614071
 30
0.0
 11
513.6500000000056616
 21
231.1469507796614948
 31
0.0
  0
LINE
  5
57CE
  8
0
 10
517.8500000000054797
 20
220.8639507796613941
 30
0.0
 11
517.8500000000054797
 21
232.8639507796613088
 31
0.0
  0
LINE
  5
57CF
  8
0
 10
514.2310000000057926
 20
221.9999507796613898
 30
0.0
 11
517.8500000000054797
 21
221.9999507796613898
 31
0.0
  0
LINE
  5
57D0
  8
0
 10
517.8500000000054797
 20
231.7279507796613984
 30
0.0
 11
514.2310000000057926
 21
231.7279507796613984
 31
0.0
  0
LINE
  5
57D1
  8
0
 10
514.2310000000057926
 20
231.7279507796613984
 30
0.0
 11
513.6500000000056616
 21
231.1469507796614948
 31
0.0
  0
LINE
  5
57D2
  8
0
 10
513.6500000000056616
 20
222.5809507796614071
 30
0.0
 11
514.2310000000057926
 21
221.9999507796613898
 31
0.0
  0
LINE
  5
57DB
  8
0
 10
457.5999999999999091
 20
67.971847274476545
 30
0.0
 11
458.2134499999996819
 21
67.3583972744765447
 31
0.0
  0
LINE
  5
57DC
  8
0
 10
462.9865499999996246
 20
67.3583972744765447
 30
0.0
 11
463.5999999999999091
 21
67.971847274476545
 31
0.0
  0
LINE
  5
57DD
  8
0
 10
457.5999999999999091
 20
67.971847274476545
 30
0.0
 11
463.5999999999999091
 21
67.971847274476545
 31
0.0
  0
LINE
  5
57DE
  8
0
 10
458.2134499999996819
 20
67.3583972744765447
 30
0.0
 11
462.9865500000000793
 21
67.3583972744766015
 31
0.0
  0
LINE
  5
57DF
  8
0
 10
464.9999999999994884
 20
98.3583972744765447
 30
0.0
 11
456.1999999999998181
 21
98.3583972744765447
 31
0.0
  0
LINE
  5
57E0
  8
0
 10
465.5999999999997954
 20
92.3583972744765447
 30
0.0
 11
455.5999999999999091
 21
92.3583972744765447
 31
0.0
  0
ARC
  5
57E1
  8
0
 10
464.9999999999994884
 20
97.7583972744765362
 30
0.0
 40
0.6000000000000228
 50
0.0
 51
90.0
  0
ARC
  5
57E2
  8
0
 10
456.1999999999998181
 20
97.7583972744765362
 30
0.0
 40
0.6000000000000228
 50
90.0
 51
180.0
  0
LINE
  5
57E3
  8
0
 10
455.5999999999999091
 20
97.7583972744765362
 30
0.0
 11
455.5999999999999091
 21
92.3583972744765447
 31
0.0
  0
LINE
  5
57E4
  8
0
 10
465.5999999999997954
 20
92.3583972744765447
 30
0.0
 11
465.5999999999997954
 21
97.7583972744765362
 31
0.0
  0
ARC
  5
57E5
  8
0
 10
463.8499999999999091
 20
92.1083972744765447
 30
0.0
 40
0.25
 50
90.0
 51
180.0
  0
ARC
  5
57E6
  8
0
 10
457.3499999999999091
 20
92.1083972744765447
 30
0.0
 40
0.2500000000000568
 50
0.0
 51
90.0
  0
LINE
  5
57E7
  8
0
 10
457.5999999999999091
 20
92.1083972744765447
 30
0.0
 11
457.5999999999999091
 21
67.971847274476545
 31
0.0
  0
LINE
  5
57E8
  8
0
 10
463.5999999999999091
 20
67.971847274476545
 30
0.0
 11
463.5999999999999091
 21
92.1083972744765447
 31
0.0
  0
LINE
  5
57E9
  8
0
 10
458.0999999999999091
 20
121.9150216015024029
 30
0.0
 11
458.0999999999999091
 21
124.8017729474506012
 31
0.0
  0
LINE
  5
57EA
  8
0
 10
460.5999999999997954
 20
120.4716459285284031
 30
0.0
 11
458.0999999999999091
 21
121.9150216015024029
 31
0.0
  0
LINE
  5
57EB
  8
0
 10
463.0999999999999091
 20
121.9150216015024029
 30
0.0
 11
460.5999999999997954
 21
120.4716459285284031
 31
0.0
  0
LINE
  5
57EC
  8
0
 10
463.0999999999999091
 20
124.8017729474506012
 30
0.0
 11
463.0999999999999091
 21
121.9150216015024029
 31
0.0
  0
LINE
  5
57ED
  8
0
 10
460.5999999999997954
 20
126.2451486204247004
 30
0.0
 11
463.0999999999999091
 21
124.8017729474506012
 31
0.0
  0
LINE
  5
57EE
  8
0
 10
458.0999999999999091
 20
124.8017729474506012
 30
0.0
 11
460.5999999999997954
 21
126.2451486204247004
 31
0.0
  0
CIRCLE
  5
57EF
  8
0
 10
460.5999999999997954
 20
123.358397274476502
 30
0.0
 40
5.0
  0
CIRCLE
  5
57F0
  8
0
 10
460.5999999999997954
 20
123.358397274476502
 30
0.0
 40
4.3071796769724946
  0
LINE
  5
57F1
  8
3
 10
458.1414999999997235
 20
89.3583972744765447
 30
0.0
 11
457.5999999999999091
 21
90.296302786774902
 31
0.0
  0
LINE
  5
57F2
  8
3
 10
463.058499999999583
 20
89.3583972744765447
 30
0.0
 11
463.5999999999999091
 21
90.296302786774902
 31
0.0
  0
LINE
  5
57F3
  8
0
 10
457.5999999999999091
 20
89.3583972744765447
 30
0.0
 11
463.5999999999999091
 21
89.3583972744765447
 31
0.0
  0
LINE
  5
57F4
  8
3
 10
463.058499999999583
 20
89.3583972744765447
 30
0.0
 11
463.058499999999583
 21
67.4303472744766736
 31
0.0
  0
LINE
  5
57F5
  8
3
 10
458.1414999999992119
 20
89.3583972744765447
 30
0.0
 11
458.1414999999992119
 21
67.4303472744766736
 31
0.0
  0
LINE
  5
57F6
  8
0
 10
465.5999999999997954
 20
97.7583972744765362
 30
0.0
 11
455.5999999999999091
 21
97.7583972744765362
 31
0.0
  0
LINE
  5
57F7
  8
1
 10
460.5999999999997954
 20
131.3583972744764878
 30
0.0
 11
460.5999999999997954
 21
115.358397274476502
 31
0.0
  0
LINE
  5
57F8
  8
1
 10
460.5999999999997954
 20
101.358397274476502
 30
0.0
 11
460.5999999999997954
 21
64.3583972744766015
 31
0.0
  0
LINE
  5
57F9
  8
1
 10
468.5999999999999091
 20
123.358397274476502
 30
0.0
 11
452.5999999999997954
 21
123.358397274476502
 31
0.0
  0
LINE
  5
57FA
  8
0
 10
507.6000000000000796
 20
67.971847274476545
 30
0.0
 11
508.2134499999999093
 21
67.3583972744765447
 31
0.0
  0
LINE
  5
57FB
  8
0
 10
512.9865499999992835
 20
67.3583972744765447
 30
0.0
 11
513.6000000000001364
 21
67.971847274476545
 31
0.0
  0
LINE
  5
57FC
  8
0
 10
507.6000000000000796
 20
67.971847274476545
 30
0.0
 11
513.6000000000001364
 21
67.971847274476545
 31
0.0
  0
LINE
  5
57FD
  8
0
 10
508.2134499999999093
 20
67.3583972744765447
 30
0.0
 11
512.986550000000193
 21
67.3583972744766015
 31
0.0
  0
LINE
  5
57FE
  8
0
 10
514.9999999999996589
 20
98.3583972744765447
 30
0.0
 11
506.199999999999477
 21
98.3583972744765447
 31
0.0
  0
LINE
  5
57FF
  8
0
 10
515.6000000000001364
 20
92.3583972744765447
 30
0.0
 11
505.6000000000000796
 21
92.3583972744765447
 31
0.0
  0
ARC
  5
5800
  8
0
 10
514.9999999999996589
 20
97.7583972744765362
 30
0.0
 40
0.6000000000000228
 50
0.0
 51
90.0
  0
ARC
  5
5801
  8
0
 10
506.199999999999477
 20
97.7583972744765362
 30
0.0
 40
0.6000000000000228
 50
90.0
 51
180.0
  0
LINE
  5
5802
  8
0
 10
505.6000000000000796
 20
97.7583972744765362
 30
0.0
 11
505.6000000000000796
 21
92.3583972744765447
 31
0.0
  0
LINE
  5
5803
  8
0
 10
515.6000000000001364
 20
92.3583972744765447
 30
0.0
 11
515.6000000000001364
 21
97.7583972744765362
 31
0.0
  0
ARC
  5
5804
  8
0
 10
513.8500000000001364
 20
92.1083972744765447
 30
0.0
 40
0.25
 50
90.0
 51
180.0
  0
ARC
  5
5805
  8
0
 10
507.3500000000000796
 20
92.1083972744765447
 30
0.0
 40
0.2500000000000568
 50
0.0
 51
90.0
  0
LINE
  5
5806
  8
0
 10
507.6000000000000796
 20
92.1083972744765447
 30
0.0
 11
507.6000000000000796
 21
67.971847274476545
 31
0.0
  0
LINE
  5
5807
  8
0
 10
513.6000000000001364
 20
67.971847274476545
 30
0.0
 11
513.6000000000001364
 21
92.1083972744765447
 31
0.0
  0
LINE
  5
5808
  8
0
 10
508.1000000000000796
 20
121.9150216015024029
 30
0.0
 11
508.1000000000000796
 21
124.8017729474506012
 31
0.0
  0
LINE
  5
5809
  8
0
 10
510.6000000000000796
 20
120.4716459285284031
 30
0.0
 11
508.1000000000000796
 21
121.9150216015024029
 31
0.0
  0
LINE
  5
580A
  8
0
 10
513.1000000000001364
 20
121.9150216015024029
 30
0.0
 11
510.6000000000000796
 21
120.4716459285284031
 31
0.0
  0
LINE
  5
580B
  8
0
 10
513.1000000000001364
 20
124.8017729474506012
 30
0.0
 11
513.1000000000001364
 21
121.9150216015024029
 31
0.0
  0
LINE
  5
580C
  8
0
 10
510.6000000000000796
 20
126.2451486204247004
 30
0.0
 11
513.1000000000001364
 21
124.8017729474506012
 31
0.0
  0
LINE
  5
580D
  8
0
 10
508.1000000000000796
 20
124.8017729474506012
 30
0.0
 11
510.6000000000000796
 21
126.2451486204247004
 31
0.0
  0
CIRCLE
  5
580E
  8
0
 10
510.6000000000000796
 20
123.358397274476502
 30
0.0
 40
5.0
  0
CIRCLE
  5
580F
  8
0
 10
510.6000000000000796
 20
123.358397274476502
 30
0.0
 40
4.3071796769724946
  0
LINE
  5
5810
  8
3
 10
508.1414999999994961
 20
89.3583972744765447
 30
0.0
 11
507.6000000000000796
 21
90.296302786774902
 31
0.0
  0
LINE
  5
5811
  8
3
 10
513.0584999999998672
 20
89.3583972744765447
 30
0.0
 11
513.6000000000001364
 21
90.296302786774902
 31
0.0
  0
LINE
  5
5812
  8
0
 10
507.6000000000000796
 20
89.3583972744765447
 30
0.0
 11
513.6000000000001364
 21
89.3583972744765447
 31
0.0
  0
LINE
  5
5813
  8
3
 10
513.0584999999998672
 20
89.3583972744765447
 30
0.0
 11
513.0584999999998672
 21
67.4303472744766736
 31
0.0
  0
LINE
  5
5814
  8
3
 10
508.1414999999994961
 20
89.3583972744765447
 30
0.0
 11
508.1414999999994961
 21
67.4303472744766736
 31
0.0
  0
LINE
  5
5815
  8
0
 10
515.6000000000001364
 20
97.7583972744765362
 30
0.0
 11
505.6000000000000796
 21
97.7583972744765362
 31
0.0
  0
LINE
  5
5816
  8
1
 10
510.6000000000000796
 20
131.3583972744764878
 30
0.0
 11
510.6000000000000796
 21
115.358397274476502
 31
0.0
  0
LINE
  5
5817
  8
1
 10
510.6000000000000796
 20
101.358397274476502
 30
0.0
 11
510.6000000000000796
 21
64.3583972744766015
 31
0.0
  0
LINE
  5
5818
  8
1
 10
518.6000000000001364
 20
123.358397274476502
 30
0.0
 11
502.6000000000000796
 21
123.358397274476502
 31
0.0
  0
LINE
  5
5819
  8
0
 10
557.6000000000001364
 20
67.971847274476545
 30
0.0
 11
558.2134499999998525
 21
67.3583972744765447
 31
0.0
  0
LINE
  5
581A
  8
0
 10
562.9865499999992835
 20
67.3583972744765447
 30
0.0
 11
563.6000000000001364
 21
67.971847274476545
 31
0.0
  0
LINE
  5
581B
  8
0
 10
557.6000000000001364
 20
67.971847274476545
 30
0.0
 11
563.6000000000001364
 21
67.971847274476545
 31
0.0
  0
LINE
  5
581C
  8
0
 10
558.2134499999998525
 20
67.3583972744765447
 30
0.0
 11
562.986550000000193
 21
67.3583972744766015
 31
0.0
  0
LINE
  5
581D
  8
0
 10
564.9999999999996589
 20
98.3583972744765447
 30
0.0
 11
556.199999999999477
 21
98.3583972744765447
 31
0.0
  0
LINE
  5
581E
  8
0
 10
565.6000000000001364
 20
92.3583972744765447
 30
0.0
 11
555.6000000000001364
 21
92.3583972744765447
 31
0.0
  0
ARC
  5
581F
  8
0
 10
564.9999999999996589
 20
97.7583972744765362
 30
0.0
 40
0.6000000000000228
 50
0.0
 51
90.0
  0
ARC
  5
5820
  8
0
 10
556.199999999999477
 20
97.7583972744765362
 30
0.0
 40
0.6000000000000228
 50
90.0
 51
180.0
  0
LINE
  5
5821
  8
0
 10
555.6000000000001364
 20
97.7583972744765362
 30
0.0
 11
555.6000000000001364
 21
92.3583972744765447
 31
0.0
  0
LINE
  5
5822
  8
0
 10
565.6000000000001364
 20
92.3583972744765447
 30
0.0
 11
565.6000000000001364
 21
97.7583972744765362
 31
0.0
  0
ARC
  5
5823
  8
0
 10
563.8500000000001364
 20
92.1083972744765447
 30
0.0
 40
0.25
 50
90.0
 51
180.0
  0
ARC
  5
5824
  8
0
 10
557.3500000000001364
 20
92.1083972744765447
 30
0.0
 40
0.2500000000000568
 50
0.0
 51
90.0
  0
LINE
  5
5825
  8
0
 10
557.6000000000001364
 20
92.1083972744765447
 30
0.0
 11
557.6000000000001364
 21
67.971847274476545
 31
0.0
  0
LINE
  5
5826
  8
0
 10
563.6000000000001364
 20
67.971847274476545
 30
0.0
 11
563.6000000000001364
 21
92.1083972744765447
 31
0.0
  0
LINE
  5
5827
  8
0
 10
558.1000000000001364
 20
121.9150216015024029
 30
0.0
 11
558.1000000000001364
 21
124.8017729474506012
 31
0.0
  0
LINE
  5
5828
  8
0
 10
560.6000000000001364
 20
120.4716459285284031
 30
0.0
 11
558.1000000000001364
 21
121.9150216015024029
 31
0.0
  0
LINE
  5
5829
  8
0
 10
563.1000000000001364
 20
121.9150216015024029
 30
0.0
 11
560.6000000000001364
 21
120.4716459285284031
 31
0.0
  0
LINE
  5
582A
  8
0
 10
563.1000000000001364
 20
124.8017729474506012
 30
0.0
 11
563.1000000000001364
 21
121.9150216015024029
 31
0.0
  0
LINE
  5
582B
  8
0
 10
560.6000000000001364
 20
126.2451486204247004
 30
0.0
 11
563.1000000000001364
 21
124.8017729474506012
 31
0.0
  0
LINE
  5
582C
  8
0
 10
558.1000000000001364
 20
124.8017729474506012
 30
0.0
 11
560.6000000000001364
 21
126.2451486204247004
 31
0.0
  0
CIRCLE
  5
582D
  8
0
 10
560.6000000000001364
 20
123.358397274476502
 30
0.0
 40
5.0
  0
CIRCLE
  5
582E
  8
0
 10
560.6000000000001364
 20
123.358397274476502
 30
0.0
 40
4.3071796769724946
  0
LINE
  5
582F
  8
3
 10
558.1414999999994961
 20
89.3583972744765447
 30
0.0
 11
557.6000000000001364
 21
90.296302786774902
 31
0.0
  0
LINE
  5
5830
  8
3
 10
563.0584999999998672
 20
89.3583972744765447
 30
0.0
 11
563.6000000000001364
 21
90.296302786774902
 31
0.0
  0
LINE
  5
5831
  8
0
 10
557.6000000000001364
 20
89.3583972744765447
 30
0.0
 11
563.6000000000001364
 21
89.3583972744765447
 31
0.0
  0
LINE
  5
5832
  8
3
 10
563.0584999999998672
 20
89.3583972744765447
 30
0.0
 11
563.0584999999998672
 21
67.4303472744766736
 31
0.0
  0
LINE
  5
5833
  8
3
 10
558.1414999999994961
 20
89.3583972744765447
 30
0.0
 11
558.1414999999994961
 21
67.4303472744766736
 31
0.0
  0
LINE
  5
5834
  8
0
 10
565.6000000000001364
 20
97.7583972744765362
 30
0.0
 11
555.6000000000001364
 21
97.7583972744765362
 31
0.0
  0
LINE
  5
5835
  8
1
 10
560.6000000000001364
 20
131.3583972744764878
 30
0.0
 11
560.6000000000001364
 21
115.358397274476502
 31
0.0
  0
LINE
  5
5836
  8
1
 10
560.6000000000001364
 20
101.358397274476502
 30
0.0
 11
560.6000000000001364
 21
64.3583972744766015
 31
0.0
  0
LINE
  5
5837
  8
1
 10
568.6000000000001364
 20
123.358397274476502
 30
0.0
 11
552.6000000000001364
 21
123.358397274476502
 31
0.0
  0
CIRCLE
  5
5901
  8
0
 10
191.9999999999996874
 20
178.9999999999998863
 30
0.0
 40
4.2830000000000146
  0
LINE
  5
5903
  8
3
 10
388.9999999999997726
 20
278.9525042848524095
 30
0.0
 11
393.1999999999998181
 21
278.9525042848524095
 31
0.0
  0
LINE
  5
5905
  8
3
 10
388.9999999999997726
 20
270.3865042848523217
 30
0.0
 11
393.1999999999998181
 21
270.3865042848523217
 31
0.0
  0
LINE
  5
5907
  8
3
 10
513.6500000000056616
 20
270.3865042848523217
 30
0.0
 11
517.8500000000054797
 21
270.3865042848523217
 31
0.0
  0
LINE
  5
5908
  8
3
 10
513.6500000000056616
 20
278.9525042848524095
 30
0.0
 11
517.8500000000054797
 21
278.9525042848524095
 31
0.0
  0
LINE
  5
5909
  8
3
 10
388.9999999999997726
 20
231.1469507796614948
 30
0.0
 11
393.1999999999998181
 21
231.1469507796614948
 31
0.0
  0
LINE
  5
590A
  8
3
 10
388.9999999999997726
 20
222.5809507796614071
 30
0.0
 11
393.1999999999998181
 21
222.5809507796614071
 31
0.0
  0
LINE
  5
590B
  8
3
 10
513.6500000000056616
 20
231.1469507796614948
 30
0.0
 11
517.8500000000058208
 21
231.1469507796614948
 31
0.0
  0
LINE
  5
590C
  8
3
 10
513.6500000000056616
 20
222.5809507796614071
 30
0.0
 11
517.8500000000058208
 21
222.5809507796614071
 31
0.0
  0
CIRCLE
  5
5921
  8
0
 10
81.5000000000001847
 20
59.5000000000078089
 30
0.0
 40
3.1999999999999882
  0
ENDSEC
  0
EOF
