  0
SECTION
  2
HEADER
  9
$ACADVER
  1
AC1009
  9
$INSBASE
 10
0.0
 20
0.0
 30
0.0
  9
$EXTMIN
 10
0.0
 20
-2.960436562073669
 30
0.0
  9
$EXTMAX
 10
345.9002415766789227
 20
336.3042491347401892
 30
0.0
  9
$LIMMIN
 10
0.0
 20
0.0
  9
$LIMMAX
 10
375.0
 20
270.0
  9
$ORTHOMODE
 70
     1
  9
$REGENMODE
 70
     1
  9
$FILLMODE
 70
     1
  9
$QTEXTMODE
 70
     0
  9
$MIRRTEXT
 70
     0
  9
$DRAGMODE
 70
     2
  9
$LTSCALE
 40
10.0
  9
$OSMODE
 70
    37
  9
$ATTMODE
 70
     1
  9
$TEXTSIZE
 40
0.2
  9
$TRACEWID
 40
0.05
  9
$TEXTSTYLE
  7
K90
  9
$CLAYER
  8
0
  9
$CELTYPE
  6
BYLAYER
  9
$CECOLOR
 62
   256
  9
$DIMSCALE
 40
1.0
  9
$DIMASZ
 40
3.0
  9
$DIMEXO
 40
2.0
  9
$DIMDLI
 40
0.38
  9
$DIMRND
 40
0.0
  9
$DIMDLE
 40
0.0
  9
$DIMEXE
 40
2.0
  9
$DIMTP
 40
0.0
  9
$DIMTM
 40
0.0
  9
$DIMTXT
 40
3.2000000000000002
  9
$DIMCEN
 40
0.0
  9
$DIMTSZ
 40
0.0
  9
$DIMTOL
 70
     0
  9
$DIMLIM
 70
     0
  9
$DIMTIH
 70
     0
  9
$DIMTOH
 70
     0
  9
$DIMSE1
 70
     0
  9
$DIMSE2
 70
     0
  9
$DIMTAD
 70
     1
  9
$DIMZIN
 70
     8
  9
$DIMBLK
  1

  9
$DIMASO
 70
     1
  9
$DIMSHO
 70
     0
  9
$DIMPOST
  1

  9
$DIMAPOST
  1

  9
$DIMALT
 70
     0
  9
$DIMALTD
 70
     2
  9
$DIMALTF
 40
25.3999999999999986
  9
$DIMLFAC
 40
1.0
  9
$DIMTOFL
 70
     1
  9
$DIMTVP
 40
1.6000000000000001
  9
$DIMTIX
 70
     0
  9
$DIMSOXD
 70
     0
  9
$DIMSAH
 70
     0
  9
$DIMBLK1
  1

  9
$DIMBLK2
  1

  9
$DIMSTYLE
  2
STANDARD
  9
$DIMCLRD
 70
     0
  9
$DIMCLRE
 70
     0
  9
$DIMCLRT
 70
     0
  9
$DIMTFAC
 40
1.0
  9
$DIMGAP
 40
0.09
  9
$LUNITS
 70
     2
  9
$LUPREC
 70
     1
  9
$SKETCHINC
 40
0.1
  9
$FILLETRAD
 40
0.0
  9
$AUNITS
 70
     0
  9
$AUPREC
 70
     0
  9
$MENU
  1
E:\r13\win\SUPPORT\ACAD
  9
$ELEVATION
 40
0.0
  9
$PELEVATION
 40
0.0
  9
$THICKNESS
 40
0.0
  9
$LIMCHECK
 70
     0
  9
$BLIPMODE
 70
     0
  9
$CHAMFERA
 40
0.0
  9
$CHAMFERB
 40
0.0
  9
$SKPOLY
 70
     0
  9
$TDCREATE
 40
2449840.6031828699633479
  9
$TDUPDATE
 40
2460381.4557986110448837
  9
$TDINDWG
 40
1.0434441667000001
  9
$TDUSRTIMER
 40
1.0434441667000001
  9
$USRTIMER
 70
     1
  9
$ANGBASE
 50
0.0
  9
$ANGDIR
 70
     0
  9
$PDMODE
 70
     0
  9
$PDSIZE
 40
0.0
  9
$PLINEWID
 40
0.0
  9
$COORDS
 70
     1
  9
$SPLFRAME
 70
     0
  9
$SPLINETYPE
 70
     6
  9
$SPLINESEGS
 70
     8
  9
$ATTDIA
 70
     1
  9
$ATTREQ
 70
     1
  9
$HANDLING
 70
     1
  9
$HANDSEED
  5
AC23
  9
$SURFTAB1
 70
     6
  9
$SURFTAB2
 70
     6
  9
$SURFTYPE
 70
     6
  9
$SURFU
 70
     6
  9
$SURFV
 70
     6
  9
$UCSNAME
  2

  9
$UCSORG
 10
0.0
 20
0.0
 30
0.0
  9
$UCSXDIR
 10
1.0
 20
0.0
 30
0.0
  9
$UCSYDIR
 10
0.0
 20
1.0
 30
0.0
  9
$PUCSNAME
  2

  9
$PUCSORG
 10
0.0
 20
0.0
 30
0.0
  9
$PUCSXDIR
 10
1.0
 20
0.0
 30
0.0
  9
$PUCSYDIR
 10
0.0
 20
1.0
 30
0.0
  9
$USERI1
 70
     0
  9
$USERI2
 70
     1
  9
$USERI3
 70
     1
  9
$USERI4
 70
     0
  9
$USERI5
 70
     0
  9
$USERR1
 40
0.0
  9
$USERR2
 40
0.0
  9
$USERR3
 40
0.0
  9
$USERR4
 40
0.0
  9
$USERR5
 40
0.0
  9
$WORLDVIEW
 70
     1
  9
$SHADEDGE
 70
     3
  9
$SHADEDIF
 70
    70
  9
$TILEMODE
 70
     1
  9
$MAXACTVP
 70
    16
  9
$PLIMCHECK
 70
     0
  9
$PEXTMIN
 10
1.0000000000000000E+20
 20
1.0000000000000000E+20
 30
1.0000000000000000E+20
  9
$PEXTMAX
 10
-1.0000000000000000E+20
 20
-1.0000000000000000E+20
 30
-1.0000000000000000E+20
  9
$PLIMMIN
 10
0.0
 20
0.0
  9
$PLIMMAX
 10
12.0
 20
9.0
  9
$UNITMODE
 70
     0
  9
$VISRETAIN
 70
     0
  9
$PLINEGEN
 70
     0
  9
$PSLTSCALE
 70
     0
  0
ENDSEC
  0
SECTION
  2
TABLES
  0
TABLE
  2
VPORT
 70
     1
  0
VPORT
  2
*ACTIVE
 70
     0
 10
0.0
 20
0.0
 11
1.0
 21
1.0
 12
587.130541871921082
 22
250.0
 13
0.0
 23
0.0
 14
10.0
 24
10.0
 15
10.0
 25
10.0
 16
0.0
 26
0.0
 36
1.0
 17
0.0
 27
0.0
 37
0.0
 40
500.0
 41
2.3485221674876842
 42
50.0
 43
0.0
 44
0.0
 50
0.0
 51
0.0
 71
     0
 72
   500
 73
     1
 74
     0
 75
     0
 76
     0
 77
     0
 78
     0
  0
ENDTAB
  0
TABLE
  2
LTYPE
 70
     4
  0
LTYPE
  2
CONTINUOUS
 70
     0
  3
Solid Line
 72
    65
 73
     0
 40
0.0
  0
LTYPE
  2
CENTER
 70
     0
  3
____ _ ____ _ ____ _ ____ _ ____ _ ____ _ ____
 72
    65
 73
     4
 40
2.0
 49
1.25
 49
-0.25
 49
0.25
 49
-0.25
  0
LTYPE
  2
HIDDEN
 70
     0
  3
_ _ _ _ _ _ _ _ _ _ _ _ _ _ _ _ _ _ _ _ _ _ _
 72
    65
 73
     2
 40
0.375
 49
0.25
 49
-0.125
  0
LTYPE
  2
PHANTOM2
 70
     0
  3
___ _ _ ___ _ _ ___ _ _ ___ _ _
 72
    65
 73
     6
 40
1.25
 49
0.625
 49
-0.125
 49
0.125
 49
-0.125
 49
0.125
 49
-0.125
  0
ENDTAB
  0
TABLE
  2
LAYER
 70
     5
  0
LAYER
  2
0
 70
     0
 62
     7
  6
CONTINUOUS
  0
LAYER
  2
1
 70
     0
 62
     1
  6
CENTER
  0
LAYER
  2
2
 70
     0
 62
     2
  6
HIDDEN
  0
LAYER
  2
DEFPOINTS
 70
     0
 62
     7
  6
CONTINUOUS
  0
LAYER
  2
3
 70
     0
 62
     3
  6
CONTINUOUS
  0
ENDTAB
  0
TABLE
  2
STYLE
 70
     3
  0
STYLE
  2
STANDARD
 70
     0
 40
0.0
 41
1.0
 50
0.0
 71
     0
 42
0.2
  3
romans.shx
  4

  0
STYLE
  2
K90
 70
     0
 40
0.0
 41
1.0
 50
0.0
 71
     0
 42
0.2
  3
romans.shx
  4

  0
STYLE
  2
STANDARD1
 70
     0
 40
0.0
 41
1.0
 50
0.0
 71
     0
 42
3.0
  3
txt
  4

  0
ENDTAB
  0
TABLE
  2
VIEW
 70
     1
  0
VIEW
  2
ALL
 70
     0
 40
179.538466448915301
 10
135.0
 20
89.7692332244576647
 41
0.0
 11
0.0
 21
0.0
 31
1.0
 12
0.0
 22
0.0
 32
0.0
 42
0.0
 43
0.0
 44
0.0
 50
0.0
 71
     0
  0
ENDTAB
  0
TABLE
  2
UCS
 70
     0
  0
ENDTAB
  0
TABLE
  2
APPID
 70
    14
  0
APPID
  2
ACAD
 70
     0
  0
APPID
  2
ACAD_MLEADERVER
 70
     0
  0
APPID
  2
ACAD_NAV_VCDISPLAY
 70
     0
  0
APPID
  2
ACAD_EXEMPT_FROM_CAD_STANDARDS
 70
     0
  0
APPID
  2
ACAD_DSTYLE_DIMRADIAL_EXTENSION
 70
     0
  0
APPID
  2
ACAD_DSTYLE_DIMJAG
 70
     0
  0
APPID
  2
ACAD_DSTYLE_DIMTALN
 70
     0
  0
APPID
  2
DCO15
 70
     0
  0
APPID
  2
ACAD_PSEXT
 70
     0
  0
APPID
  2
ACAD_DSTYLE_DIMBREAK
 70
     0
  0
APPID
  2
ACAECLAYERSTANDARD
 70
     0
  0
APPID
  2
ACCMTRANSPARENCY
 70
     0
  0
APPID
  2
GRADIENTCOLOR1ACI
 70
     0
  0
APPID
  2
GRADIENTCOLOR2ACI
 70
     0
  0
ENDTAB
  0
TABLE
  2
DIMSTYLE
 70
     1
  0
DIMSTYLE
  2
STANDARD
 70
     0
  3

  4

  5

  6

  7

 40
1.0
 41
0.18
 42
0.0625
 43
0.38
 44
0.18
 45
0.0
 46
0.0
 47
0.0
 48
0.0
140
0.18
141
0.09
142
0.0
143
25.3999999999999986
144
1.0
145
0.0
146
1.0
147
0.09
 71
     0
 72
     0
 73
     1
 74
     1
 75
     0
 76
     0
 77
     0
 78
     0
170
     0
171
     2
172
     0
173
     0
174
     0
175
     0
176
     0
177
     0
178
     0
  0
ENDTAB
  0
ENDSEC
  0
SECTION
  2
BLOCKS
  0
BLOCK
  8
0
  2
$MODEL_SPACE
 70
     0
 10
0.0
 20
0.0
 30
0.0
  3
$MODEL_SPACE
  1

  0
ENDBLK
  5
2DF
  8
0
  0
BLOCK
 67
     1
  8
0
  2
$PAPER_SPACE
 70
     0
 10
0.0
 20
0.0
 30
0.0
  3
$PAPER_SPACE
  1

  0
ENDBLK
  5
2DB
 67
     1
  8
0
  0
ENDSEC
  0
SECTION
  2
ENTITIES
  0
TEXT
  5
67C
  8
0
 62
     3
 10
0.0
 20
0.0
 30
0.0
 40
10.0
  1
SSR-TH2600
  7
STANDARD1
  0
LINE
  5
9AE5
  8
1
 10
81.4999999999999432
 20
164.9306216398890967
 30
0.0
 11
81.4999999999999432
 21
175.9306216398892104
 31
0.0
  0
ARC
  5
9B98
  8
0
 10
77.0002069397939977
 20
210.4042810927352889
 30
0.0
 40
0.5002068353085259
 50
88.7383281574151965
 51
179.9902015986548065
  0
ARC
  5
9B99
  8
0
 10
85.9996882775830613
 20
210.4042376916453918
 30
0.0
 40
0.5003116272330121
 50
0.014766649957223
 51
91.5482889785554192
  0
LINE
  5
9B9A
  8
0
 10
76.5000001117999204
 20
210.4043666349637931
 30
0.0
 11
76.5000001117999204
 21
203.9306206936892067
 31
0.0
  0
LINE
  5
9B9B
  8
0
 10
86.4999998881999659
 20
203.9306206936892067
 30
0.0
 11
86.4999998881999659
 21
210.4043666353090885
 31
0.0
  0
LINE
  5
9B9C
  8
0
 10
49.9999994933999119
 20
187.9306208649890948
 30
0.0
 11
49.9999994933999119
 21
169.9306216398890967
 31
0.0
  0
LINE
  5
9B9D
  8
0
 10
49.9999994933999119
 20
209.9306207457892128
 30
0.0
 11
49.9999994933999119
 21
199.9306209693891105
 31
0.0
  0
LINE
  5
9B9E
  8
0
 10
113.0000005065999034
 20
199.9306209693891105
 30
0.0
 11
113.0000005065999034
 21
209.9306207457892128
 31
0.0
  0
LINE
  5
9B9F
  8
0
 10
113.0000005065999034
 20
169.9306216398890967
 30
0.0
 11
113.0000005065999034
 21
187.9306208649890948
 31
0.0
  0
LINE
  5
9BA0
  8
0
 10
109.2500003575999017
 20
196.1806208202891924
 30
0.0
 11
113.0000005065999034
 21
199.9306209693891105
 31
0.0
  0
LINE
  5
9BA1
  8
0
 10
49.9999994933999119
 20
199.9306209693891105
 30
0.0
 11
53.7499996423999278
 21
196.1806208202891924
 31
0.0
  0
LINE
  5
9BA2
  8
0
 10
113.0000005065999034
 20
187.9306208649890948
 30
0.0
 11
109.2500003575999017
 21
191.6806210140890983
 31
0.0
  0
LINE
  5
9BA3
  8
0
 10
53.7499996423999278
 20
191.6806210140890983
 30
0.0
 11
49.9999994933999119
 21
187.9306208649890948
 31
0.0
  0
LINE
  5
9BA4
  8
0
 10
53.7499996423999278
 20
196.1806208202891924
 30
0.0
 11
53.7499996423999278
 21
191.6806210140890983
 31
0.0
  0
LINE
  5
9BA5
  8
0
 10
109.2500003575999017
 20
191.6806210140890983
 30
0.0
 11
109.2500003575999017
 21
196.1806208202891924
 31
0.0
  0
LINE
  5
9BB7
  8
0
 10
82.5000001638999549
 20
178.8806227574891068
 30
0.0
 11
82.5000001638999265
 21
182.8306227574890954
 31
0.0
  0
LINE
  5
9BB8
  8
0
 10
82.4716185740999208
 20
182.8306227574890954
 30
0.0
 11
96.4716183766999649
 21
182.8306227574890954
 31
0.0
  0
LINE
  5
9BB9
  8
0
 10
96.4999999664999564
 20
182.8306227574890954
 30
0.0
 11
96.4999999664999564
 21
170.3306216398891024
 31
0.0
  0
LINE
  5
9BBA
  8
0
 10
66.5000000334999299
 20
170.3306216398891024
 30
0.0
 11
66.5000000334999299
 21
182.8306227574890954
 31
0.0
  0
LINE
  5
9BC3
  8
0
 10
80.5000001852999389
 20
182.8306227574890954
 30
0.0
 11
80.5000001852999247
 21
178.8806227574891068
 31
0.0
  0
LINE
  5
9BC4
  8
0
 10
66.5000000334999299
 20
182.8306227574890954
 30
0.0
 11
80.5000001852999389
 21
182.8306227574890954
 31
0.0
  0
ARC
  5
9BCF
  8
0
 10
81.3655051350499861
 20
197.4043662743891048
 30
0.0
 40
6.1224847919691516
 50
335.8999701635996189
 51
24.1000298364004415
  0
LINE
  5
9BD0
  8
0
 10
76.0456827990499704
 20
194.9043663302892071
 30
0.0
 11
86.9543172009499443
 21
194.9043663302892071
 31
0.0
  0
ARC
  5
9BD1
  8
0
 10
81.3718004162499682
 20
197.4043662743891048
 30
0.0
 40
5.8836662543578804
 50
154.8553417293001928
 51
205.1446582706998072
  0
LINE
  5
9BD2
  8
0
 10
86.9543172009499443
 20
199.9043662185891037
 30
0.0
 11
76.0456827990499704
 21
199.9043662185891037
 31
0.0
  0
LINE
  5
9BD3
  8
0
 10
77.0112207680999035
 20
210.9043666590891917
 30
0.0
 11
85.9861701316998932
 21
210.9043666590891917
 31
0.0
  0
LINE
  5
9BD4
  8
0
 10
76.5000001117999204
 20
209.9306207457892128
 30
0.0
 11
49.9999994933999119
 21
209.9306207457892128
 31
0.0
  0
LINE
  5
9BD5
  8
0
 10
57.163812830999909
 20
203.9306206936892067
 30
0.0
 11
57.163812830999909
 21
209.9306207457892128
 31
0.0
  0
LINE
  5
9BD6
  8
0
 10
105.8361871689998992
 20
203.9306206936892067
 30
0.0
 11
57.163812830999909
 21
203.9306206936892067
 31
0.0
  0
LINE
  5
9BD7
  8
0
 10
105.8361871689998992
 20
209.9306207457892128
 30
0.0
 11
105.8361871689998992
 21
203.9306206936892067
 31
0.0
  0
LINE
  5
9BD8
  8
0
 10
99.5676579474999244
 20
199.9306209693891105
 30
0.0
 11
113.0000005065999034
 21
199.9306209693891105
 31
0.0
  0
LINE
  5
9BD9
  8
0
 10
99.5676579474999244
 20
187.9306208649890948
 30
0.0
 11
99.5676579474999244
 21
199.9306209693891105
 31
0.0
  0
LINE
  5
9BDA
  8
0
 10
113.0000005065999034
 20
187.9306208649890948
 30
0.0
 11
99.5676579474999244
 21
187.9306208649890948
 31
0.0
  0
LINE
  5
9BDB
  8
0
 10
63.4323420524999122
 20
187.9306208649890948
 30
0.0
 11
49.9999994933999119
 21
187.9306208649890948
 31
0.0
  0
LINE
  5
9BDC
  8
0
 10
63.4323420524999122
 20
199.9306209693891105
 30
0.0
 11
63.4323420524999122
 21
187.9306208649890948
 31
0.0
  0
LINE
  5
9BDD
  8
0
 10
49.9999994933999119
 20
199.9306209693891105
 30
0.0
 11
63.4323420524999122
 21
199.9306209693891105
 31
0.0
  0
LINE
  5
9BDE
  8
0
 10
49.9999994933999119
 20
169.9306216398890967
 30
0.0
 11
113.0000005065999034
 21
169.9306216398892104
 31
0.0
  0
ARC
  5
9BDF
  8
0
 10
102.2424621861999015
 20
198.867411467289088
 30
0.0
 40
2.689503947613741
 50
185.9931329105085922
 51
267.4261276008995196
  0
LINE
  5
9BE0
  8
0
 10
102.1216834485998959
 20
196.1806208202891924
 30
0.0
 11
109.2500003575999017
 21
196.1806208202891924
 31
0.0
  0
ARC
  5
9BE1
  8
0
 10
60.7575362147999272
 20
188.9938289908891136
 30
0.0
 40
2.6895053941758911
 50
5.9931001941144846
 51
87.4260948879992554
  0
LINE
  5
9BE2
  8
0
 10
53.7499996423999278
 20
196.1806208202891924
 30
0.0
 11
60.8783165513998981
 21
196.1806208202891924
 31
0.0
  0
LINE
  5
9BE3
  8
0
 10
109.2500003575999017
 20
191.6806210140890983
 30
0.0
 11
102.1216834485998959
 21
191.6806210140890983
 31
0.0
  0
LINE
  5
9BE4
  8
0
 10
60.8783165513998981
 20
191.6806210140890983
 30
0.0
 11
53.7499996423999278
 21
191.6806210140890983
 31
0.0
  0
LINE
  5
9BE5
  8
0
 10
105.6248719393998954
 20
203.9306206936892067
 30
0.0
 11
102.0536074935998982
 21
209.9306207457892128
 31
0.0
  0
LINE
  5
9BE6
  8
0
 10
89.6735653802999195
 20
203.9306206936892067
 30
0.0
 11
86.4999998881999659
 21
208.9496506452892106
 31
0.0
  0
LINE
  5
9BE7
  8
0
 10
113.0000005065999034
 20
209.9306207457892128
 30
0.0
 11
86.4999998881999659
 21
209.9306207457892128
 31
0.0
  0
LINE
  5
9BE8
  8
0
 10
60.9463925063999383
 20
209.9306207457892128
 30
0.0
 11
57.375128060599927
 21
203.9306206936892067
 31
0.0
  0
LINE
  5
9BE9
  8
0
 10
76.5000001117999204
 20
208.9496506452892106
 30
0.0
 11
73.3264346196999099
 21
203.9306206936892067
 31
0.0
  0
ARC
  5
9BF9
  8
0
 10
60.7780613779351029
 20
198.8494039250905985
 30
0.0
 40
2.670665527594263
 50
272.1513544985488124
 51
353.6500333769814119
  0
ARC
  5
9BFA
  8
0
 10
60.7780613779351029
 20
198.8494039250905985
 30
0.0
 40
2.670665527594263
 50
6.3499666230186538
 51
6.3499967195074092
  0
ARC
  5
9BFB
  8
0
 10
102.3015724311574957
 20
188.9108800394791103
 30
0.0
 40
2.7755765369521712
 50
93.7160239398665738
 51
170.0602353571044887
  0
LINE
  5
9C09
  8
0
 10
309.4002411817979805
 20
210.4043666353404092
 30
0.0
 11
309.4002411817979805
 21
209.9306207458193967
 31
0.0
  0
LINE
  5
9C0A
  8
0
 10
309.4002411817979805
 20
208.9496506453197924
 30
0.0
 11
309.4002411817979805
 21
203.9306206936653894
 31
0.0
  0
LINE
  5
9C0B
  8
0
 10
319.4002409582806195
 20
203.9306206936653894
 30
0.0
 11
319.4002409582806195
 21
208.9496506453197924
 31
0.0
  0
LINE
  5
9C0C
  8
0
 10
319.4002409582806195
 20
209.9306207458197946
 30
0.0
 11
319.4002409582806195
 21
210.4043666353404092
 31
0.0
  0
ARC
  5
9C0D
  8
0
 10
309.9005849696054042
 20
210.4042243617504084
 30
0.0
 40
0.500343808035305
 50
88.3738260700303755
 51
179.9837078500279119
  0
ARC
  5
9C0E
  8
0
 10
318.8999072740488145
 20
210.4042285484198089
 30
0.0
 40
0.5003337032870853
 50
0.0158130419926329
 51
91.6021313899956198
  0
LINE
  5
9C0F
  8
0
 10
282.900240563399791
 20
187.9306208650287999
 30
0.0
 11
282.900240563399791
 21
169.9306216398890967
 31
0.0
  0
LINE
  5
9C10
  8
0
 10
282.900240563399791
 20
209.9306207458195104
 30
0.0
 11
282.900240563399791
 21
199.9306209693368999
 31
0.0
  0
LINE
  5
9C11
  8
0
 10
345.900241576678809
 20
199.9306209693368999
 30
0.0
 11
345.900241576678809
 21
209.9306207458195104
 31
0.0
  0
LINE
  5
9C12
  8
0
 10
345.900241576678809
 20
169.9306216398890967
 30
0.0
 11
345.900241576678809
 21
187.9306208650287999
 31
0.0
  0
LINE
  5
9C13
  8
0
 10
342.1502414276671971
 20
196.1806208203252879
 30
0.0
 11
345.900241576678809
 21
199.9306209693368999
 31
0.0
  0
LINE
  5
9C14
  8
0
 10
345.900241576678809
 20
187.9306208650287999
 30
0.0
 11
342.1502414276671971
 21
191.6806210140404119
 31
0.0
  0
LINE
  5
9C15
  8
0
 10
282.900240563399791
 20
199.9306209693368999
 30
0.0
 11
286.6502407124114029
 21
196.1806208203252879
 31
0.0
  0
LINE
  5
9C16
  8
0
 10
286.6502407124114029
 20
191.6806210140404119
 30
0.0
 11
282.900240563399791
 21
187.9306208650287999
 31
0.0
  0
LINE
  5
9C17
  8
0
 10
342.1502414276671971
 20
191.6806210140404119
 30
0.0
 11
342.1502414276671971
 21
196.1806208203252879
 31
0.0
  0
LINE
  5
9C18
  8
0
 10
286.6502407124114029
 20
196.1806208203252879
 30
0.0
 11
286.6502407124114029
 21
191.6806210140404119
 31
0.0
  0
LINE
  5
9C19
  8
0
 10
282.9002405634000183
 20
169.9306216398890967
 30
0.0
 11
345.9002415766789227
 21
169.9306216398890967
 31
0.0
  0
POLYLINE
  5
9C1A
  8
0
 10
315.9900517146374455
 20
203.9306206936653894
 30
0.0
 66
     1
 70
     8
  0
VERTEX
  8
0
  5
A917
 10
315.990
 20
203.931
 30
0.00000
  70
    32
  0
VERTEX
  8
0
  5
A918
 10
316.001
 20
203.966
 30
0.00000
  70
    32
  0
VERTEX
  8
0
  5
A919
 10
316.012
 20
204.002
 30
0.00000
  70
    32
  0
VERTEX
  8
0
  5
A91A
 10
316.023
 20
204.039
 30
0.00000
  70
    32
  0
VERTEX
  8
0
  5
A91B
 10
316.034
 20
204.075
 30
0.00000
  70
    32
  0
VERTEX
  8
0
  5
A91C
 10
316.045
 20
204.112
 30
0.00000
  70
    32
  0
VERTEX
  8
0
  5
A91D
 10
316.056
 20
204.149
 30
0.00000
  70
    32
  0
VERTEX
  8
0
  5
A91E
 10
316.067
 20
204.186
 30
0.00000
  70
    32
  0
VERTEX
  8
0
  5
A91F
 10
316.078
 20
204.223
 30
0.00000
  70
    32
  0
VERTEX
  8
0
  5
A920
 10
316.089
 20
204.261
 30
0.00000
  70
    32
  0
VERTEX
  8
0
  5
A921
 10
316.100
 20
204.299
 30
0.00000
  70
    32
  0
VERTEX
  8
0
  5
A922
 10
316.111
 20
204.337
 30
0.00000
  70
    32
  0
VERTEX
  8
0
  5
A923
 10
316.122
 20
204.375
 30
0.00000
  70
    32
  0
VERTEX
  8
0
  5
A924
 10
316.133
 20
204.414
 30
0.00000
  70
    32
  0
VERTEX
  8
0
  5
A925
 10
316.144
 20
204.453
 30
0.00000
  70
    32
  0
VERTEX
  8
0
  5
A926
 10
316.155
 20
204.492
 30
0.00000
  70
    32
  0
VERTEX
  8
0
  5
A927
 10
316.165
 20
204.531
 30
0.00000
  70
    32
  0
VERTEX
  8
0
  5
A928
 10
316.176
 20
204.571
 30
0.00000
  70
    32
  0
VERTEX
  8
0
  5
A929
 10
316.187
 20
204.611
 30
0.00000
  70
    32
  0
VERTEX
  8
0
  5
A92A
 10
316.198
 20
204.651
 30
0.00000
  70
    32
  0
VERTEX
  8
0
  5
A92B
 10
316.209
 20
204.691
 30
0.00000
  70
    32
  0
VERTEX
  8
0
  5
A92C
 10
316.220
 20
204.732
 30
0.00000
  70
    32
  0
VERTEX
  8
0
  5
A92D
 10
316.231
 20
204.773
 30
0.00000
  70
    32
  0
VERTEX
  8
0
  5
A92E
 10
316.241
 20
204.814
 30
0.00000
  70
    32
  0
VERTEX
  8
0
  5
A92F
 10
316.252
 20
204.855
 30
0.00000
  70
    32
  0
VERTEX
  8
0
  5
A930
 10
316.263
 20
204.896
 30
0.00000
  70
    32
  0
VERTEX
  8
0
  5
A931
 10
316.274
 20
204.938
 30
0.00000
  70
    32
  0
VERTEX
  8
0
  5
A932
 10
316.285
 20
204.980
 30
0.00000
  70
    32
  0
VERTEX
  8
0
  5
A933
 10
316.295
 20
205.022
 30
0.00000
  70
    32
  0
VERTEX
  8
0
  5
A934
 10
316.306
 20
205.065
 30
0.00000
  70
    32
  0
VERTEX
  8
0
  5
A935
 10
316.317
 20
205.108
 30
0.00000
  70
    32
  0
VERTEX
  8
0
  5
A936
 10
316.328
 20
205.150
 30
0.00000
  70
    32
  0
VERTEX
  8
0
  5
A937
 10
316.338
 20
205.194
 30
0.00000
  70
    32
  0
VERTEX
  8
0
  5
A938
 10
316.349
 20
205.237
 30
0.00000
  70
    32
  0
VERTEX
  8
0
  5
A939
 10
316.360
 20
205.281
 30
0.00000
  70
    32
  0
VERTEX
  8
0
  5
A93A
 10
316.371
 20
205.325
 30
0.00000
  70
    32
  0
VERTEX
  8
0
  5
A93B
 10
316.381
 20
205.369
 30
0.00000
  70
    32
  0
VERTEX
  8
0
  5
A93C
 10
316.392
 20
205.413
 30
0.00000
  70
    32
  0
VERTEX
  8
0
  5
A93D
 10
316.403
 20
205.458
 30
0.00000
  70
    32
  0
VERTEX
  8
0
  5
A93E
 10
316.413
 20
205.503
 30
0.00000
  70
    32
  0
VERTEX
  8
0
  5
A93F
 10
316.424
 20
205.548
 30
0.00000
  70
    32
  0
VERTEX
  8
0
  5
A940
 10
316.434
 20
205.593
 30
0.00000
  70
    32
  0
VERTEX
  8
0
  5
A941
 10
316.445
 20
205.638
 30
0.00000
  70
    32
  0
VERTEX
  8
0
  5
A942
 10
316.456
 20
205.684
 30
0.00000
  70
    32
  0
VERTEX
  8
0
  5
A943
 10
316.466
 20
205.730
 30
0.00000
  70
    32
  0
VERTEX
  8
0
  5
A944
 10
316.477
 20
205.777
 30
0.00000
  70
    32
  0
VERTEX
  8
0
  5
A945
 10
316.487
 20
205.823
 30
0.00000
  70
    32
  0
VERTEX
  8
0
  5
A946
 10
316.498
 20
205.870
 30
0.00000
  70
    32
  0
VERTEX
  8
0
  5
A947
 10
316.509
 20
205.917
 30
0.00000
  70
    32
  0
VERTEX
  8
0
  5
A948
 10
316.519
 20
205.964
 30
0.00000
  70
    32
  0
VERTEX
  8
0
  5
A949
 10
316.530
 20
206.011
 30
0.00000
  70
    32
  0
VERTEX
  8
0
  5
A94A
 10
316.540
 20
206.059
 30
0.00000
  70
    32
  0
VERTEX
  8
0
  5
A94B
 10
316.551
 20
206.107
 30
0.00000
  70
    32
  0
VERTEX
  8
0
  5
A94C
 10
316.561
 20
206.155
 30
0.00000
  70
    32
  0
VERTEX
  8
0
  5
A94D
 10
316.572
 20
206.203
 30
0.00000
  70
    32
  0
VERTEX
  8
0
  5
A94E
 10
316.582
 20
206.252
 30
0.00000
  70
    32
  0
VERTEX
  8
0
  5
A94F
 10
316.593
 20
206.301
 30
0.00000
  70
    32
  0
VERTEX
  8
0
  5
A950
 10
316.603
 20
206.350
 30
0.00000
  70
    32
  0
VERTEX
  8
0
  5
A951
 10
316.614
 20
206.399
 30
0.00000
  70
    32
  0
VERTEX
  8
0
  5
A952
 10
316.624
 20
206.448
 30
0.00000
  70
    32
  0
VERTEX
  8
0
  5
A953
 10
316.634
 20
206.498
 30
0.00000
  70
    32
  0
VERTEX
  8
0
  5
A954
 10
316.645
 20
206.548
 30
0.00000
  70
    32
  0
VERTEX
  8
0
  5
A955
 10
316.655
 20
206.598
 30
0.00000
  70
    32
  0
VERTEX
  8
0
  5
A956
 10
316.666
 20
206.649
 30
0.00000
  70
    32
  0
VERTEX
  8
0
  5
A957
 10
316.676
 20
206.699
 30
0.00000
  70
    32
  0
VERTEX
  8
0
  5
A958
 10
316.686
 20
206.750
 30
0.00000
  70
    32
  0
VERTEX
  8
0
  5
A959
 10
316.697
 20
206.801
 30
0.00000
  70
    32
  0
VERTEX
  8
0
  5
A95A
 10
316.707
 20
206.853
 30
0.00000
  70
    32
  0
VERTEX
  8
0
  5
A95B
 10
316.717
 20
206.904
 30
0.00000
  70
    32
  0
VERTEX
  8
0
  5
A95C
 10
316.728
 20
206.956
 30
0.00000
  70
    32
  0
VERTEX
  8
0
  5
A95D
 10
316.738
 20
207.008
 30
0.00000
  70
    32
  0
VERTEX
  8
0
  5
A95E
 10
316.748
 20
207.060
 30
0.00000
  70
    32
  0
VERTEX
  8
0
  5
A95F
 10
316.758
 20
207.113
 30
0.00000
  70
    32
  0
VERTEX
  8
0
  5
A960
 10
316.769
 20
207.165
 30
0.00000
  70
    32
  0
VERTEX
  8
0
  5
A961
 10
316.779
 20
207.218
 30
0.00000
  70
    32
  0
VERTEX
  8
0
  5
A962
 10
316.789
 20
207.272
 30
0.00000
  70
    32
  0
VERTEX
  8
0
  5
A963
 10
316.799
 20
207.325
 30
0.00000
  70
    32
  0
VERTEX
  8
0
  5
A964
 10
316.810
 20
207.379
 30
0.00000
  70
    32
  0
VERTEX
  8
0
  5
A965
 10
316.820
 20
207.432
 30
0.00000
  70
    32
  0
VERTEX
  8
0
  5
A966
 10
316.830
 20
207.486
 30
0.00000
  70
    32
  0
VERTEX
  8
0
  5
A967
 10
316.840
 20
207.541
 30
0.00000
  70
    32
  0
VERTEX
  8
0
  5
A968
 10
316.850
 20
207.595
 30
0.00000
  70
    32
  0
VERTEX
  8
0
  5
A969
 10
316.860
 20
207.650
 30
0.00000
  70
    32
  0
VERTEX
  8
0
  5
A96A
 10
316.871
 20
207.705
 30
0.00000
  70
    32
  0
VERTEX
  8
0
  5
A96B
 10
316.881
 20
207.760
 30
0.00000
  70
    32
  0
VERTEX
  8
0
  5
A96C
 10
316.891
 20
207.815
 30
0.00000
  70
    32
  0
VERTEX
  8
0
  5
A96D
 10
316.901
 20
207.871
 30
0.00000
  70
    32
  0
VERTEX
  8
0
  5
A96E
 10
316.911
 20
207.927
 30
0.00000
  70
    32
  0
VERTEX
  8
0
  5
A96F
 10
316.921
 20
207.983
 30
0.00000
  70
    32
  0
VERTEX
  8
0
  5
A970
 10
316.931
 20
208.039
 30
0.00000
  70
    32
  0
VERTEX
  8
0
  5
A971
 10
316.941
 20
208.096
 30
0.00000
  70
    32
  0
VERTEX
  8
0
  5
A972
 10
316.951
 20
208.153
 30
0.00000
  70
    32
  0
VERTEX
  8
0
  5
A973
 10
316.961
 20
208.209
 30
0.00000
  70
    32
  0
VERTEX
  8
0
  5
A974
 10
316.971
 20
208.267
 30
0.00000
  70
    32
  0
VERTEX
  8
0
  5
A975
 10
316.981
 20
208.324
 30
0.00000
  70
    32
  0
VERTEX
  8
0
  5
A976
 10
316.991
 20
208.382
 30
0.00000
  70
    32
  0
VERTEX
  8
0
  5
A977
 10
317.001
 20
208.440
 30
0.00000
  70
    32
  0
VERTEX
  8
0
  5
A978
 10
317.011
 20
208.498
 30
0.00000
  70
    32
  0
VERTEX
  8
0
  5
A979
 10
317.021
 20
208.556
 30
0.00000
  70
    32
  0
VERTEX
  8
0
  5
A97A
 10
317.031
 20
208.614
 30
0.00000
  70
    32
  0
VERTEX
  8
0
  5
A97B
 10
317.041
 20
208.673
 30
0.00000
  70
    32
  0
VERTEX
  8
0
  5
A97C
 10
317.050
 20
208.732
 30
0.00000
  70
    32
  0
VERTEX
  8
0
  5
A97D
 10
317.060
 20
208.791
 30
0.00000
  70
    32
  0
VERTEX
  8
0
  5
A97E
 10
317.070
 20
208.850
 30
0.00000
  70
    32
  0
VERTEX
  8
0
  5
A97F
 10
317.080
 20
208.910
 30
0.00000
  70
    32
  0
VERTEX
  8
0
  5
A980
 10
317.090
 20
208.970
 30
0.00000
  70
    32
  0
VERTEX
  8
0
  5
A981
 10
317.100
 20
209.030
 30
0.00000
  70
    32
  0
VERTEX
  8
0
  5
A982
 10
317.109
 20
209.090
 30
0.00000
  70
    32
  0
VERTEX
  8
0
  5
A983
 10
317.119
 20
209.151
 30
0.00000
  70
    32
  0
VERTEX
  8
0
  5
A984
 10
317.129
 20
209.211
 30
0.00000
  70
    32
  0
VERTEX
  8
0
  5
A985
 10
317.139
 20
209.272
 30
0.00000
  70
    32
  0
VERTEX
  8
0
  5
A986
 10
317.148
 20
209.333
 30
0.00000
  70
    32
  0
VERTEX
  8
0
  5
A987
 10
317.158
 20
209.394
 30
0.00000
  70
    32
  0
VERTEX
  8
0
  5
A988
 10
317.168
 20
209.456
 30
0.00000
  70
    32
  0
VERTEX
  8
0
  5
A989
 10
317.177
 20
209.518
 30
0.00000
  70
    32
  0
VERTEX
  8
0
  5
A98A
 10
317.187
 20
209.580
 30
0.00000
  70
    32
  0
VERTEX
  8
0
  5
A98B
 10
317.197
 20
209.642
 30
0.00000
  70
    32
  0
VERTEX
  8
0
  5
A98C
 10
317.206
 20
209.704
 30
0.00000
  70
    32
  0
VERTEX
  8
0
  5
A98D
 10
317.216
 20
209.767
 30
0.00000
  70
    32
  0
VERTEX
  8
0
  5
A98E
 10
317.226
 20
209.830
 30
0.00000
  70
    32
  0
VERTEX
  8
0
  5
A98F
 10
317.235
 20
209.893
 30
0.00000
  70
    32
  0
VERTEX
  8
0
  5
A990
 10
317.245
 20
209.956
 30
0.00000
  70
    32
  0
VERTEX
  8
0
  5
A991
 10
317.254
 20
210.019
 30
0.00000
  70
    32
  0
VERTEX
  8
0
  5
A992
 10
317.264
 20
210.083
 30
0.00000
  70
    32
  0
VERTEX
  8
0
  5
A993
 10
317.273
 20
210.147
 30
0.00000
  70
    32
  0
VERTEX
  8
0
  5
A994
 10
317.283
 20
210.211
 30
0.00000
  70
    32
  0
VERTEX
  8
0
  5
A995
 10
317.292
 20
210.275
 30
0.00000
  70
    32
  0
VERTEX
  8
0
  5
A996
 10
317.302
 20
210.340
 30
0.00000
  70
    32
  0
VERTEX
  8
0
  5
A997
 10
317.311
 20
210.404
 30
0.00000
  70
    32
  0
SEQEND
  8
0
  5
A998
  0
POLYLINE
  5
9C1B
  8
0
 10
311.4584226630585135
 20
210.4043666530894257
 30
0.0
 66
     1
 70
     8
  0
VERTEX
  8
0
  5
A999
 10
311.458
 20
210.404
 30
0.00000
  70
    32
  0
VERTEX
  8
0
  5
A99A
 10
311.468
 20
210.340
 30
0.00000
  70
    32
  0
VERTEX
  8
0
  5
A99B
 10
311.477
 20
210.275
 30
0.00000
  70
    32
  0
VERTEX
  8
0
  5
A99C
 10
311.487
 20
210.211
 30
0.00000
  70
    32
  0
VERTEX
  8
0
  5
A99D
 10
311.496
 20
210.147
 30
0.00000
  70
    32
  0
VERTEX
  8
0
  5
A99E
 10
311.506
 20
210.083
 30
0.00000
  70
    32
  0
VERTEX
  8
0
  5
A99F
 10
311.515
 20
210.019
 30
0.00000
  70
    32
  0
VERTEX
  8
0
  5
A9A0
 10
311.525
 20
209.956
 30
0.00000
  70
    32
  0
VERTEX
  8
0
  5
A9A1
 10
311.534
 20
209.893
 30
0.00000
  70
    32
  0
VERTEX
  8
0
  5
A9A2
 10
311.544
 20
209.830
 30
0.00000
  70
    32
  0
VERTEX
  8
0
  5
A9A3
 10
311.553
 20
209.767
 30
0.00000
  70
    32
  0
VERTEX
  8
0
  5
A9A4
 10
311.563
 20
209.704
 30
0.00000
  70
    32
  0
VERTEX
  8
0
  5
A9A5
 10
311.572
 20
209.642
 30
0.00000
  70
    32
  0
VERTEX
  8
0
  5
A9A6
 10
311.582
 20
209.580
 30
0.00000
  70
    32
  0
VERTEX
  8
0
  5
A9A7
 10
311.592
 20
209.518
 30
0.00000
  70
    32
  0
VERTEX
  8
0
  5
A9A8
 10
311.601
 20
209.456
 30
0.00000
  70
    32
  0
VERTEX
  8
0
  5
A9A9
 10
311.611
 20
209.394
 30
0.00000
  70
    32
  0
VERTEX
  8
0
  5
A9AA
 10
311.621
 20
209.333
 30
0.00000
  70
    32
  0
VERTEX
  8
0
  5
A9AB
 10
311.630
 20
209.272
 30
0.00000
  70
    32
  0
VERTEX
  8
0
  5
A9AC
 10
311.640
 20
209.211
 30
0.00000
  70
    32
  0
VERTEX
  8
0
  5
A9AD
 10
311.650
 20
209.151
 30
0.00000
  70
    32
  0
VERTEX
  8
0
  5
A9AE
 10
311.659
 20
209.090
 30
0.00000
  70
    32
  0
VERTEX
  8
0
  5
A9AF
 10
311.669
 20
209.030
 30
0.00000
  70
    32
  0
VERTEX
  8
0
  5
A9B0
 10
311.679
 20
208.970
 30
0.00000
  70
    32
  0
VERTEX
  8
0
  5
A9B1
 10
311.689
 20
208.910
 30
0.00000
  70
    32
  0
VERTEX
  8
0
  5
A9B2
 10
311.699
 20
208.850
 30
0.00000
  70
    32
  0
VERTEX
  8
0
  5
A9B3
 10
311.708
 20
208.791
 30
0.00000
  70
    32
  0
VERTEX
  8
0
  5
A9B4
 10
311.718
 20
208.732
 30
0.00000
  70
    32
  0
VERTEX
  8
0
  5
A9B5
 10
311.728
 20
208.673
 30
0.00000
  70
    32
  0
VERTEX
  8
0
  5
A9B6
 10
311.738
 20
208.614
 30
0.00000
  70
    32
  0
VERTEX
  8
0
  5
A9B7
 10
311.748
 20
208.556
 30
0.00000
  70
    32
  0
VERTEX
  8
0
  5
A9B8
 10
311.758
 20
208.498
 30
0.00000
  70
    32
  0
VERTEX
  8
0
  5
A9B9
 10
311.767
 20
208.440
 30
0.00000
  70
    32
  0
VERTEX
  8
0
  5
A9BA
 10
311.777
 20
208.382
 30
0.00000
  70
    32
  0
VERTEX
  8
0
  5
A9BB
 10
311.787
 20
208.324
 30
0.00000
  70
    32
  0
VERTEX
  8
0
  5
A9BC
 10
311.797
 20
208.267
 30
0.00000
  70
    32
  0
VERTEX
  8
0
  5
A9BD
 10
311.807
 20
208.209
 30
0.00000
  70
    32
  0
VERTEX
  8
0
  5
A9BE
 10
311.817
 20
208.153
 30
0.00000
  70
    32
  0
VERTEX
  8
0
  5
A9BF
 10
311.827
 20
208.096
 30
0.00000
  70
    32
  0
VERTEX
  8
0
  5
A9C0
 10
311.837
 20
208.039
 30
0.00000
  70
    32
  0
VERTEX
  8
0
  5
A9C1
 10
311.847
 20
207.983
 30
0.00000
  70
    32
  0
VERTEX
  8
0
  5
A9C2
 10
311.857
 20
207.927
 30
0.00000
  70
    32
  0
VERTEX
  8
0
  5
A9C3
 10
311.867
 20
207.871
 30
0.00000
  70
    32
  0
VERTEX
  8
0
  5
A9C4
 10
311.877
 20
207.815
 30
0.00000
  70
    32
  0
VERTEX
  8
0
  5
A9C5
 10
311.887
 20
207.760
 30
0.00000
  70
    32
  0
VERTEX
  8
0
  5
A9C6
 10
311.897
 20
207.705
 30
0.00000
  70
    32
  0
VERTEX
  8
0
  5
A9C7
 10
311.907
 20
207.650
 30
0.00000
  70
    32
  0
VERTEX
  8
0
  5
A9C8
 10
311.917
 20
207.595
 30
0.00000
  70
    32
  0
VERTEX
  8
0
  5
A9C9
 10
311.927
 20
207.541
 30
0.00000
  70
    32
  0
VERTEX
  8
0
  5
A9CA
 10
311.938
 20
207.486
 30
0.00000
  70
    32
  0
VERTEX
  8
0
  5
A9CB
 10
311.948
 20
207.432
 30
0.00000
  70
    32
  0
VERTEX
  8
0
  5
A9CC
 10
311.958
 20
207.379
 30
0.00000
  70
    32
  0
VERTEX
  8
0
  5
A9CD
 10
311.968
 20
207.325
 30
0.00000
  70
    32
  0
VERTEX
  8
0
  5
A9CE
 10
311.978
 20
207.272
 30
0.00000
  70
    32
  0
VERTEX
  8
0
  5
A9CF
 10
311.988
 20
207.218
 30
0.00000
  70
    32
  0
VERTEX
  8
0
  5
A9D0
 10
311.999
 20
207.165
 30
0.00000
  70
    32
  0
VERTEX
  8
0
  5
A9D1
 10
312.009
 20
207.113
 30
0.00000
  70
    32
  0
VERTEX
  8
0
  5
A9D2
 10
312.019
 20
207.060
 30
0.00000
  70
    32
  0
VERTEX
  8
0
  5
A9D3
 10
312.029
 20
207.008
 30
0.00000
  70
    32
  0
VERTEX
  8
0
  5
A9D4
 10
312.040
 20
206.956
 30
0.00000
  70
    32
  0
VERTEX
  8
0
  5
A9D5
 10
312.050
 20
206.904
 30
0.00000
  70
    32
  0
VERTEX
  8
0
  5
A9D6
 10
312.060
 20
206.853
 30
0.00000
  70
    32
  0
VERTEX
  8
0
  5
A9D7
 10
312.070
 20
206.801
 30
0.00000
  70
    32
  0
VERTEX
  8
0
  5
A9D8
 10
312.081
 20
206.750
 30
0.00000
  70
    32
  0
VERTEX
  8
0
  5
A9D9
 10
312.091
 20
206.699
 30
0.00000
  70
    32
  0
VERTEX
  8
0
  5
A9DA
 10
312.101
 20
206.649
 30
0.00000
  70
    32
  0
VERTEX
  8
0
  5
A9DB
 10
312.112
 20
206.598
 30
0.00000
  70
    32
  0
VERTEX
  8
0
  5
A9DC
 10
312.122
 20
206.548
 30
0.00000
  70
    32
  0
VERTEX
  8
0
  5
A9DD
 10
312.132
 20
206.498
 30
0.00000
  70
    32
  0
VERTEX
  8
0
  5
A9DE
 10
312.143
 20
206.448
 30
0.00000
  70
    32
  0
VERTEX
  8
0
  5
A9DF
 10
312.153
 20
206.399
 30
0.00000
  70
    32
  0
VERTEX
  8
0
  5
A9E0
 10
312.164
 20
206.350
 30
0.00000
  70
    32
  0
VERTEX
  8
0
  5
A9E1
 10
312.174
 20
206.301
 30
0.00000
  70
    32
  0
VERTEX
  8
0
  5
A9E2
 10
312.184
 20
206.252
 30
0.00000
  70
    32
  0
VERTEX
  8
0
  5
A9E3
 10
312.195
 20
206.203
 30
0.00000
  70
    32
  0
VERTEX
  8
0
  5
A9E4
 10
312.205
 20
206.155
 30
0.00000
  70
    32
  0
VERTEX
  8
0
  5
A9E5
 10
312.216
 20
206.107
 30
0.00000
  70
    32
  0
VERTEX
  8
0
  5
A9E6
 10
312.226
 20
206.059
 30
0.00000
  70
    32
  0
VERTEX
  8
0
  5
A9E7
 10
312.237
 20
206.011
 30
0.00000
  70
    32
  0
VERTEX
  8
0
  5
A9E8
 10
312.247
 20
205.964
 30
0.00000
  70
    32
  0
VERTEX
  8
0
  5
A9E9
 10
312.258
 20
205.917
 30
0.00000
  70
    32
  0
VERTEX
  8
0
  5
A9EA
 10
312.268
 20
205.870
 30
0.00000
  70
    32
  0
VERTEX
  8
0
  5
A9EB
 10
312.279
 20
205.823
 30
0.00000
  70
    32
  0
VERTEX
  8
0
  5
A9EC
 10
312.289
 20
205.777
 30
0.00000
  70
    32
  0
VERTEX
  8
0
  5
A9ED
 10
312.300
 20
205.730
 30
0.00000
  70
    32
  0
VERTEX
  8
0
  5
A9EE
 10
312.310
 20
205.684
 30
0.00000
  70
    32
  0
VERTEX
  8
0
  5
A9EF
 10
312.321
 20
205.638
 30
0.00000
  70
    32
  0
VERTEX
  8
0
  5
A9F0
 10
312.332
 20
205.593
 30
0.00000
  70
    32
  0
VERTEX
  8
0
  5
A9F1
 10
312.342
 20
205.548
 30
0.00000
  70
    32
  0
VERTEX
  8
0
  5
A9F2
 10
312.353
 20
205.503
 30
0.00000
  70
    32
  0
VERTEX
  8
0
  5
A9F3
 10
312.363
 20
205.458
 30
0.00000
  70
    32
  0
VERTEX
  8
0
  5
A9F4
 10
312.374
 20
205.413
 30
0.00000
  70
    32
  0
VERTEX
  8
0
  5
A9F5
 10
312.385
 20
205.369
 30
0.00000
  70
    32
  0
VERTEX
  8
0
  5
A9F6
 10
312.395
 20
205.325
 30
0.00000
  70
    32
  0
VERTEX
  8
0
  5
A9F7
 10
312.406
 20
205.281
 30
0.00000
  70
    32
  0
VERTEX
  8
0
  5
A9F8
 10
312.417
 20
205.237
 30
0.00000
  70
    32
  0
VERTEX
  8
0
  5
A9F9
 10
312.427
 20
205.194
 30
0.00000
  70
    32
  0
VERTEX
  8
0
  5
A9FA
 10
312.438
 20
205.150
 30
0.00000
  70
    32
  0
VERTEX
  8
0
  5
A9FB
 10
312.449
 20
205.108
 30
0.00000
  70
    32
  0
VERTEX
  8
0
  5
A9FC
 10
312.459
 20
205.065
 30
0.00000
  70
    32
  0
VERTEX
  8
0
  5
A9FD
 10
312.470
 20
205.022
 30
0.00000
  70
    32
  0
VERTEX
  8
0
  5
A9FE
 10
312.481
 20
204.980
 30
0.00000
  70
    32
  0
VERTEX
  8
0
  5
A9FF
 10
312.492
 20
204.938
 30
0.00000
  70
    32
  0
VERTEX
  8
0
  5
AA00
 10
312.502
 20
204.896
 30
0.00000
  70
    32
  0
VERTEX
  8
0
  5
AA01
 10
312.513
 20
204.855
 30
0.00000
  70
    32
  0
VERTEX
  8
0
  5
AA02
 10
312.524
 20
204.814
 30
0.00000
  70
    32
  0
VERTEX
  8
0
  5
AA03
 10
312.535
 20
204.773
 30
0.00000
  70
    32
  0
VERTEX
  8
0
  5
AA04
 10
312.546
 20
204.732
 30
0.00000
  70
    32
  0
VERTEX
  8
0
  5
AA05
 10
312.556
 20
204.691
 30
0.00000
  70
    32
  0
VERTEX
  8
0
  5
AA06
 10
312.567
 20
204.651
 30
0.00000
  70
    32
  0
VERTEX
  8
0
  5
AA07
 10
312.578
 20
204.611
 30
0.00000
  70
    32
  0
VERTEX
  8
0
  5
AA08
 10
312.589
 20
204.571
 30
0.00000
  70
    32
  0
VERTEX
  8
0
  5
AA09
 10
312.600
 20
204.531
 30
0.00000
  70
    32
  0
VERTEX
  8
0
  5
AA0A
 10
312.611
 20
204.492
 30
0.00000
  70
    32
  0
VERTEX
  8
0
  5
AA0B
 10
312.621
 20
204.453
 30
0.00000
  70
    32
  0
VERTEX
  8
0
  5
AA0C
 10
312.632
 20
204.414
 30
0.00000
  70
    32
  0
VERTEX
  8
0
  5
AA0D
 10
312.643
 20
204.375
 30
0.00000
  70
    32
  0
VERTEX
  8
0
  5
AA0E
 10
312.654
 20
204.337
 30
0.00000
  70
    32
  0
VERTEX
  8
0
  5
AA0F
 10
312.665
 20
204.299
 30
0.00000
  70
    32
  0
VERTEX
  8
0
  5
AA10
 10
312.676
 20
204.261
 30
0.00000
  70
    32
  0
VERTEX
  8
0
  5
AA11
 10
312.687
 20
204.223
 30
0.00000
  70
    32
  0
VERTEX
  8
0
  5
AA12
 10
312.698
 20
204.186
 30
0.00000
  70
    32
  0
VERTEX
  8
0
  5
AA13
 10
312.709
 20
204.149
 30
0.00000
  70
    32
  0
VERTEX
  8
0
  5
AA14
 10
312.720
 20
204.112
 30
0.00000
  70
    32
  0
VERTEX
  8
0
  5
AA15
 10
312.731
 20
204.075
 30
0.00000
  70
    32
  0
VERTEX
  8
0
  5
AA16
 10
312.742
 20
204.039
 30
0.00000
  70
    32
  0
VERTEX
  8
0
  5
AA17
 10
312.753
 20
204.002
 30
0.00000
  70
    32
  0
VERTEX
  8
0
  5
AA18
 10
312.764
 20
203.966
 30
0.00000
  70
    32
  0
VERTEX
  8
0
  5
AA19
 10
312.775
 20
203.931
 30
0.00000
  70
    32
  0
SEQEND
  8
0
  5
AA1A
  0
POLYLINE
  5
9C1C
  8
0
 66
     1
 10
0.0
 20
0.0
 30
0.0
 70
   128
  0
VERTEX
  5
A7CA
  8
0
 10
311.4584226630585135
 20
210.4043666530895109
 30
0.0
  0
VERTEX
  5
A7CB
  8
0
 10
311.4627912292104952
 20
210.5118611092634069
 30
0.0
  0
VERTEX
  5
A7CC
  8
0
 10
311.5047694301081265
 20
210.6108137835703928
 30
0.0
  0
VERTEX
  5
A7CD
  8
0
 10
311.597910069472789
 20
210.7134962883733067
 30
0.0
  0
VERTEX
  5
A7CE
  8
0
 10
311.7837103200924957
 20
210.8183719414240898
 30
0.0
  0
VERTEX
  5
A7CF
  8
0
 10
312.1596850106341208
 20
210.8980365759647952
 30
0.0
  0
VERTEX
  5
A7D0
  8
0
 10
312.3265249306184046
 20
210.9043666590891917
 30
0.0
  0
SEQEND
  5
A7D1
  8
0
  0
LINE
  5
9C1D
  8
0
 10
312.3265249306184046
 20
210.9043666590891917
 30
0.0
 11
316.443737188897785
 21
210.9043666590891917
 31
0.0
  0
POLYLINE
  5
9C1E
  8
0
 66
     1
 10
0.0
 20
0.0
 30
0.0
 70
   128
  0
VERTEX
  5
A7D2
  8
0
 10
316.443737188897785
 20
210.9043666590891917
 30
0.0
  0
VERTEX
  5
A7D3
  8
0
 10
316.9437056058865778
 20
210.8339620484925945
 30
0.0
  0
VERTEX
  5
A7D4
  8
0
 10
317.0941062854450934
 20
210.7669808632649051
 30
0.0
  0
VERTEX
  5
A7D5
  8
0
 10
317.2240499989908926
 20
210.664645625367001
 30
0.0
  0
VERTEX
  5
A7D6
  8
0
 10
317.287822545118388
 20
210.5690132324538979
 30
0.0
  0
VERTEX
  5
A7D7
  8
0
 10
317.3143924796801798
 20
210.4564886270977127
 30
0.0
  0
VERTEX
  5
A7D8
  8
0
 10
317.3114424411185155
 20
210.4043666530909888
 30
0.0
  0
SEQEND
  5
A7D9
  8
0
  0
LINE
  5
9C1F
  8
0
 10
312.3265249306184046
 20
210.9043666590891917
 30
0.0
 11
309.9147838657569878
 21
210.9043666590891917
 31
0.0
  0
LINE
  5
9C20
  8
0
 10
318.8859185321105087
 20
210.9043666590891917
 30
0.0
 11
316.443737188897785
 21
210.9043666590891917
 31
0.0
  0
POLYLINE
  5
9C21
  8
0
 10
308.3140592298762499
 20
209.9306207458193967
 30
0.0
 66
     1
 70
     8
  0
VERTEX
  8
0
  5
AA1B
 10
308.314
 20
209.931
 30
0.00000
  70
    32
  0
VERTEX
  8
0
  5
AA1C
 10
308.287
 20
209.884
 30
0.00000
  70
    32
  0
VERTEX
  8
0
  5
AA1D
 10
308.260
 20
209.838
 30
0.00000
  70
    32
  0
VERTEX
  8
0
  5
AA1E
 10
308.233
 20
209.792
 30
0.00000
  70
    32
  0
VERTEX
  8
0
  5
AA1F
 10
308.206
 20
209.745
 30
0.00000
  70
    32
  0
VERTEX
  8
0
  5
AA20
 10
308.179
 20
209.699
 30
0.00000
  70
    32
  0
VERTEX
  8
0
  5
AA21
 10
308.152
 20
209.652
 30
0.00000
  70
    32
  0
VERTEX
  8
0
  5
AA22
 10
308.125
 20
209.606
 30
0.00000
  70
    32
  0
VERTEX
  8
0
  5
AA23
 10
308.098
 20
209.559
 30
0.00000
  70
    32
  0
VERTEX
  8
0
  5
AA24
 10
308.071
 20
209.513
 30
0.00000
  70
    32
  0
VERTEX
  8
0
  5
AA25
 10
308.044
 20
209.467
 30
0.00000
  70
    32
  0
VERTEX
  8
0
  5
AA26
 10
308.017
 20
209.420
 30
0.00000
  70
    32
  0
VERTEX
  8
0
  5
AA27
 10
307.990
 20
209.374
 30
0.00000
  70
    32
  0
VERTEX
  8
0
  5
AA28
 10
307.963
 20
209.327
 30
0.00000
  70
    32
  0
VERTEX
  8
0
  5
AA29
 10
307.937
 20
209.281
 30
0.00000
  70
    32
  0
VERTEX
  8
0
  5
AA2A
 10
307.910
 20
209.234
 30
0.00000
  70
    32
  0
VERTEX
  8
0
  5
AA2B
 10
307.883
 20
209.188
 30
0.00000
  70
    32
  0
VERTEX
  8
0
  5
AA2C
 10
307.856
 20
209.141
 30
0.00000
  70
    32
  0
VERTEX
  8
0
  5
AA2D
 10
307.829
 20
209.095
 30
0.00000
  70
    32
  0
VERTEX
  8
0
  5
AA2E
 10
307.802
 20
209.048
 30
0.00000
  70
    32
  0
VERTEX
  8
0
  5
AA2F
 10
307.775
 20
209.002
 30
0.00000
  70
    32
  0
VERTEX
  8
0
  5
AA30
 10
307.748
 20
208.955
 30
0.00000
  70
    32
  0
VERTEX
  8
0
  5
AA31
 10
307.721
 20
208.909
 30
0.00000
  70
    32
  0
VERTEX
  8
0
  5
AA32
 10
307.694
 20
208.862
 30
0.00000
  70
    32
  0
VERTEX
  8
0
  5
AA33
 10
307.667
 20
208.815
 30
0.00000
  70
    32
  0
VERTEX
  8
0
  5
AA34
 10
307.641
 20
208.769
 30
0.00000
  70
    32
  0
VERTEX
  8
0
  5
AA35
 10
307.614
 20
208.722
 30
0.00000
  70
    32
  0
VERTEX
  8
0
  5
AA36
 10
307.587
 20
208.676
 30
0.00000
  70
    32
  0
VERTEX
  8
0
  5
AA37
 10
307.560
 20
208.629
 30
0.00000
  70
    32
  0
VERTEX
  8
0
  5
AA38
 10
307.533
 20
208.582
 30
0.00000
  70
    32
  0
VERTEX
  8
0
  5
AA39
 10
307.506
 20
208.536
 30
0.00000
  70
    32
  0
VERTEX
  8
0
  5
AA3A
 10
307.479
 20
208.489
 30
0.00000
  70
    32
  0
VERTEX
  8
0
  5
AA3B
 10
307.453
 20
208.443
 30
0.00000
  70
    32
  0
VERTEX
  8
0
  5
AA3C
 10
307.426
 20
208.396
 30
0.00000
  70
    32
  0
VERTEX
  8
0
  5
AA3D
 10
307.399
 20
208.349
 30
0.00000
  70
    32
  0
VERTEX
  8
0
  5
AA3E
 10
307.372
 20
208.303
 30
0.00000
  70
    32
  0
VERTEX
  8
0
  5
AA3F
 10
307.345
 20
208.256
 30
0.00000
  70
    32
  0
VERTEX
  8
0
  5
AA40
 10
307.318
 20
208.209
 30
0.00000
  70
    32
  0
VERTEX
  8
0
  5
AA41
 10
307.292
 20
208.163
 30
0.00000
  70
    32
  0
VERTEX
  8
0
  5
AA42
 10
307.265
 20
208.116
 30
0.00000
  70
    32
  0
VERTEX
  8
0
  5
AA43
 10
307.238
 20
208.069
 30
0.00000
  70
    32
  0
VERTEX
  8
0
  5
AA44
 10
307.211
 20
208.022
 30
0.00000
  70
    32
  0
VERTEX
  8
0
  5
AA45
 10
307.184
 20
207.976
 30
0.00000
  70
    32
  0
VERTEX
  8
0
  5
AA46
 10
307.158
 20
207.929
 30
0.00000
  70
    32
  0
VERTEX
  8
0
  5
AA47
 10
307.131
 20
207.882
 30
0.00000
  70
    32
  0
VERTEX
  8
0
  5
AA48
 10
307.104
 20
207.836
 30
0.00000
  70
    32
  0
VERTEX
  8
0
  5
AA49
 10
307.077
 20
207.789
 30
0.00000
  70
    32
  0
VERTEX
  8
0
  5
AA4A
 10
307.051
 20
207.742
 30
0.00000
  70
    32
  0
VERTEX
  8
0
  5
AA4B
 10
307.024
 20
207.695
 30
0.00000
  70
    32
  0
VERTEX
  8
0
  5
AA4C
 10
306.997
 20
207.648
 30
0.00000
  70
    32
  0
VERTEX
  8
0
  5
AA4D
 10
306.970
 20
207.602
 30
0.00000
  70
    32
  0
VERTEX
  8
0
  5
AA4E
 10
306.944
 20
207.555
 30
0.00000
  70
    32
  0
VERTEX
  8
0
  5
AA4F
 10
306.917
 20
207.508
 30
0.00000
  70
    32
  0
VERTEX
  8
0
  5
AA50
 10
306.890
 20
207.461
 30
0.00000
  70
    32
  0
VERTEX
  8
0
  5
AA51
 10
306.863
 20
207.414
 30
0.00000
  70
    32
  0
VERTEX
  8
0
  5
AA52
 10
306.837
 20
207.368
 30
0.00000
  70
    32
  0
VERTEX
  8
0
  5
AA53
 10
306.810
 20
207.321
 30
0.00000
  70
    32
  0
VERTEX
  8
0
  5
AA54
 10
306.783
 20
207.274
 30
0.00000
  70
    32
  0
VERTEX
  8
0
  5
AA55
 10
306.757
 20
207.227
 30
0.00000
  70
    32
  0
VERTEX
  8
0
  5
AA56
 10
306.730
 20
207.180
 30
0.00000
  70
    32
  0
VERTEX
  8
0
  5
AA57
 10
306.703
 20
207.133
 30
0.00000
  70
    32
  0
VERTEX
  8
0
  5
AA58
 10
306.677
 20
207.086
 30
0.00000
  70
    32
  0
VERTEX
  8
0
  5
AA59
 10
306.650
 20
207.040
 30
0.00000
  70
    32
  0
VERTEX
  8
0
  5
AA5A
 10
306.623
 20
206.993
 30
0.00000
  70
    32
  0
VERTEX
  8
0
  5
AA5B
 10
306.597
 20
206.946
 30
0.00000
  70
    32
  0
VERTEX
  8
0
  5
AA5C
 10
306.570
 20
206.899
 30
0.00000
  70
    32
  0
VERTEX
  8
0
  5
AA5D
 10
306.543
 20
206.852
 30
0.00000
  70
    32
  0
VERTEX
  8
0
  5
AA5E
 10
306.517
 20
206.805
 30
0.00000
  70
    32
  0
VERTEX
  8
0
  5
AA5F
 10
306.490
 20
206.758
 30
0.00000
  70
    32
  0
VERTEX
  8
0
  5
AA60
 10
306.463
 20
206.711
 30
0.00000
  70
    32
  0
VERTEX
  8
0
  5
AA61
 10
306.437
 20
206.664
 30
0.00000
  70
    32
  0
VERTEX
  8
0
  5
AA62
 10
306.410
 20
206.617
 30
0.00000
  70
    32
  0
VERTEX
  8
0
  5
AA63
 10
306.384
 20
206.570
 30
0.00000
  70
    32
  0
VERTEX
  8
0
  5
AA64
 10
306.357
 20
206.523
 30
0.00000
  70
    32
  0
VERTEX
  8
0
  5
AA65
 10
306.330
 20
206.476
 30
0.00000
  70
    32
  0
VERTEX
  8
0
  5
AA66
 10
306.304
 20
206.429
 30
0.00000
  70
    32
  0
VERTEX
  8
0
  5
AA67
 10
306.277
 20
206.382
 30
0.00000
  70
    32
  0
VERTEX
  8
0
  5
AA68
 10
306.251
 20
206.335
 30
0.00000
  70
    32
  0
VERTEX
  8
0
  5
AA69
 10
306.224
 20
206.288
 30
0.00000
  70
    32
  0
VERTEX
  8
0
  5
AA6A
 10
306.197
 20
206.241
 30
0.00000
  70
    32
  0
VERTEX
  8
0
  5
AA6B
 10
306.171
 20
206.194
 30
0.00000
  70
    32
  0
VERTEX
  8
0
  5
AA6C
 10
306.144
 20
206.147
 30
0.00000
  70
    32
  0
VERTEX
  8
0
  5
AA6D
 10
306.118
 20
206.100
 30
0.00000
  70
    32
  0
VERTEX
  8
0
  5
AA6E
 10
306.091
 20
206.053
 30
0.00000
  70
    32
  0
VERTEX
  8
0
  5
AA6F
 10
306.065
 20
206.006
 30
0.00000
  70
    32
  0
VERTEX
  8
0
  5
AA70
 10
306.038
 20
205.959
 30
0.00000
  70
    32
  0
VERTEX
  8
0
  5
AA71
 10
306.012
 20
205.912
 30
0.00000
  70
    32
  0
VERTEX
  8
0
  5
AA72
 10
305.985
 20
205.865
 30
0.00000
  70
    32
  0
VERTEX
  8
0
  5
AA73
 10
305.959
 20
205.818
 30
0.00000
  70
    32
  0
VERTEX
  8
0
  5
AA74
 10
305.932
 20
205.771
 30
0.00000
  70
    32
  0
VERTEX
  8
0
  5
AA75
 10
305.906
 20
205.724
 30
0.00000
  70
    32
  0
VERTEX
  8
0
  5
AA76
 10
305.879
 20
205.677
 30
0.00000
  70
    32
  0
VERTEX
  8
0
  5
AA77
 10
305.853
 20
205.630
 30
0.00000
  70
    32
  0
VERTEX
  8
0
  5
AA78
 10
305.826
 20
205.583
 30
0.00000
  70
    32
  0
VERTEX
  8
0
  5
AA79
 10
305.800
 20
205.536
 30
0.00000
  70
    32
  0
VERTEX
  8
0
  5
AA7A
 10
305.773
 20
205.489
 30
0.00000
  70
    32
  0
VERTEX
  8
0
  5
AA7B
 10
305.747
 20
205.441
 30
0.00000
  70
    32
  0
VERTEX
  8
0
  5
AA7C
 10
305.720
 20
205.394
 30
0.00000
  70
    32
  0
VERTEX
  8
0
  5
AA7D
 10
305.694
 20
205.347
 30
0.00000
  70
    32
  0
VERTEX
  8
0
  5
AA7E
 10
305.667
 20
205.300
 30
0.00000
  70
    32
  0
VERTEX
  8
0
  5
AA7F
 10
305.641
 20
205.253
 30
0.00000
  70
    32
  0
VERTEX
  8
0
  5
AA80
 10
305.614
 20
205.206
 30
0.00000
  70
    32
  0
VERTEX
  8
0
  5
AA81
 10
305.588
 20
205.159
 30
0.00000
  70
    32
  0
VERTEX
  8
0
  5
AA82
 10
305.562
 20
205.111
 30
0.00000
  70
    32
  0
VERTEX
  8
0
  5
AA83
 10
305.535
 20
205.064
 30
0.00000
  70
    32
  0
VERTEX
  8
0
  5
AA84
 10
305.509
 20
205.017
 30
0.00000
  70
    32
  0
VERTEX
  8
0
  5
AA85
 10
305.482
 20
204.970
 30
0.00000
  70
    32
  0
VERTEX
  8
0
  5
AA86
 10
305.456
 20
204.923
 30
0.00000
  70
    32
  0
VERTEX
  8
0
  5
AA87
 10
305.430
 20
204.876
 30
0.00000
  70
    32
  0
VERTEX
  8
0
  5
AA88
 10
305.403
 20
204.828
 30
0.00000
  70
    32
  0
VERTEX
  8
0
  5
AA89
 10
305.377
 20
204.781
 30
0.00000
  70
    32
  0
VERTEX
  8
0
  5
AA8A
 10
305.351
 20
204.734
 30
0.00000
  70
    32
  0
VERTEX
  8
0
  5
AA8B
 10
305.324
 20
204.687
 30
0.00000
  70
    32
  0
VERTEX
  8
0
  5
AA8C
 10
305.298
 20
204.640
 30
0.00000
  70
    32
  0
VERTEX
  8
0
  5
AA8D
 10
305.271
 20
204.592
 30
0.00000
  70
    32
  0
VERTEX
  8
0
  5
AA8E
 10
305.245
 20
204.545
 30
0.00000
  70
    32
  0
VERTEX
  8
0
  5
AA8F
 10
305.219
 20
204.498
 30
0.00000
  70
    32
  0
VERTEX
  8
0
  5
AA90
 10
305.193
 20
204.451
 30
0.00000
  70
    32
  0
VERTEX
  8
0
  5
AA91
 10
305.166
 20
204.403
 30
0.00000
  70
    32
  0
VERTEX
  8
0
  5
AA92
 10
305.140
 20
204.356
 30
0.00000
  70
    32
  0
VERTEX
  8
0
  5
AA93
 10
305.114
 20
204.309
 30
0.00000
  70
    32
  0
VERTEX
  8
0
  5
AA94
 10
305.087
 20
204.262
 30
0.00000
  70
    32
  0
VERTEX
  8
0
  5
AA95
 10
305.061
 20
204.214
 30
0.00000
  70
    32
  0
VERTEX
  8
0
  5
AA96
 10
305.035
 20
204.167
 30
0.00000
  70
    32
  0
VERTEX
  8
0
  5
AA97
 10
305.008
 20
204.120
 30
0.00000
  70
    32
  0
VERTEX
  8
0
  5
AA98
 10
304.982
 20
204.072
 30
0.00000
  70
    32
  0
VERTEX
  8
0
  5
AA99
 10
304.956
 20
204.025
 30
0.00000
  70
    32
  0
VERTEX
  8
0
  5
AA9A
 10
304.930
 20
203.978
 30
0.00000
  70
    32
  0
VERTEX
  8
0
  5
AA9B
 10
304.903
 20
203.931
 30
0.00000
  70
    32
  0
SEQEND
  8
0
  5
AA9C
  0
LINE
  5
9C22
  8
0
 10
323.8969949072123882
 20
203.9306206936653894
 30
0.0
 11
304.9034872328647907
 21
203.9306206936653894
 31
0.0
  0
POLYLINE
  5
9C23
  8
0
 10
323.8969949072123313
 20
203.9306206936653609
 30
0.0
 66
     1
 70
     8
  0
VERTEX
  8
0
  5
AA9D
 10
323.897
 20
203.931
 30
0.00000
  70
    32
  0
VERTEX
  8
0
  5
AA9E
 10
323.871
 20
203.978
 30
0.00000
  70
    32
  0
VERTEX
  8
0
  5
AA9F
 10
323.845
 20
204.025
 30
0.00000
  70
    32
  0
VERTEX
  8
0
  5
AAA0
 10
323.818
 20
204.072
 30
0.00000
  70
    32
  0
VERTEX
  8
0
  5
AAA1
 10
323.792
 20
204.120
 30
0.00000
  70
    32
  0
VERTEX
  8
0
  5
AAA2
 10
323.766
 20
204.167
 30
0.00000
  70
    32
  0
VERTEX
  8
0
  5
AAA3
 10
323.739
 20
204.214
 30
0.00000
  70
    32
  0
VERTEX
  8
0
  5
AAA4
 10
323.713
 20
204.262
 30
0.00000
  70
    32
  0
VERTEX
  8
0
  5
AAA5
 10
323.687
 20
204.309
 30
0.00000
  70
    32
  0
VERTEX
  8
0
  5
AAA6
 10
323.661
 20
204.356
 30
0.00000
  70
    32
  0
VERTEX
  8
0
  5
AAA7
 10
323.634
 20
204.403
 30
0.00000
  70
    32
  0
VERTEX
  8
0
  5
AAA8
 10
323.608
 20
204.451
 30
0.00000
  70
    32
  0
VERTEX
  8
0
  5
AAA9
 10
323.582
 20
204.498
 30
0.00000
  70
    32
  0
VERTEX
  8
0
  5
AAAA
 10
323.555
 20
204.545
 30
0.00000
  70
    32
  0
VERTEX
  8
0
  5
AAAB
 10
323.529
 20
204.592
 30
0.00000
  70
    32
  0
VERTEX
  8
0
  5
AAAC
 10
323.503
 20
204.640
 30
0.00000
  70
    32
  0
VERTEX
  8
0
  5
AAAD
 10
323.476
 20
204.687
 30
0.00000
  70
    32
  0
VERTEX
  8
0
  5
AAAE
 10
323.450
 20
204.734
 30
0.00000
  70
    32
  0
VERTEX
  8
0
  5
AAAF
 10
323.424
 20
204.781
 30
0.00000
  70
    32
  0
VERTEX
  8
0
  5
AAB0
 10
323.397
 20
204.828
 30
0.00000
  70
    32
  0
VERTEX
  8
0
  5
AAB1
 10
323.371
 20
204.876
 30
0.00000
  70
    32
  0
VERTEX
  8
0
  5
AAB2
 10
323.344
 20
204.923
 30
0.00000
  70
    32
  0
VERTEX
  8
0
  5
AAB3
 10
323.318
 20
204.970
 30
0.00000
  70
    32
  0
VERTEX
  8
0
  5
AAB4
 10
323.292
 20
205.017
 30
0.00000
  70
    32
  0
VERTEX
  8
0
  5
AAB5
 10
323.265
 20
205.064
 30
0.00000
  70
    32
  0
VERTEX
  8
0
  5
AAB6
 10
323.239
 20
205.111
 30
0.00000
  70
    32
  0
VERTEX
  8
0
  5
AAB7
 10
323.212
 20
205.159
 30
0.00000
  70
    32
  0
VERTEX
  8
0
  5
AAB8
 10
323.186
 20
205.206
 30
0.00000
  70
    32
  0
VERTEX
  8
0
  5
AAB9
 10
323.160
 20
205.253
 30
0.00000
  70
    32
  0
VERTEX
  8
0
  5
AABA
 10
323.133
 20
205.300
 30
0.00000
  70
    32
  0
VERTEX
  8
0
  5
AABB
 10
323.107
 20
205.347
 30
0.00000
  70
    32
  0
VERTEX
  8
0
  5
AABC
 10
323.080
 20
205.394
 30
0.00000
  70
    32
  0
VERTEX
  8
0
  5
AABD
 10
323.054
 20
205.441
 30
0.00000
  70
    32
  0
VERTEX
  8
0
  5
AABE
 10
323.027
 20
205.489
 30
0.00000
  70
    32
  0
VERTEX
  8
0
  5
AABF
 10
323.001
 20
205.536
 30
0.00000
  70
    32
  0
VERTEX
  8
0
  5
AAC0
 10
322.974
 20
205.583
 30
0.00000
  70
    32
  0
VERTEX
  8
0
  5
AAC1
 10
322.948
 20
205.630
 30
0.00000
  70
    32
  0
VERTEX
  8
0
  5
AAC2
 10
322.921
 20
205.677
 30
0.00000
  70
    32
  0
VERTEX
  8
0
  5
AAC3
 10
322.895
 20
205.724
 30
0.00000
  70
    32
  0
VERTEX
  8
0
  5
AAC4
 10
322.868
 20
205.771
 30
0.00000
  70
    32
  0
VERTEX
  8
0
  5
AAC5
 10
322.842
 20
205.818
 30
0.00000
  70
    32
  0
VERTEX
  8
0
  5
AAC6
 10
322.815
 20
205.865
 30
0.00000
  70
    32
  0
VERTEX
  8
0
  5
AAC7
 10
322.789
 20
205.912
 30
0.00000
  70
    32
  0
VERTEX
  8
0
  5
AAC8
 10
322.762
 20
205.959
 30
0.00000
  70
    32
  0
VERTEX
  8
0
  5
AAC9
 10
322.736
 20
206.006
 30
0.00000
  70
    32
  0
VERTEX
  8
0
  5
AACA
 10
322.709
 20
206.053
 30
0.00000
  70
    32
  0
VERTEX
  8
0
  5
AACB
 10
322.683
 20
206.100
 30
0.00000
  70
    32
  0
VERTEX
  8
0
  5
AACC
 10
322.656
 20
206.147
 30
0.00000
  70
    32
  0
VERTEX
  8
0
  5
AACD
 10
322.630
 20
206.194
 30
0.00000
  70
    32
  0
VERTEX
  8
0
  5
AACE
 10
322.603
 20
206.241
 30
0.00000
  70
    32
  0
VERTEX
  8
0
  5
AACF
 10
322.577
 20
206.288
 30
0.00000
  70
    32
  0
VERTEX
  8
0
  5
AAD0
 10
322.550
 20
206.335
 30
0.00000
  70
    32
  0
VERTEX
  8
0
  5
AAD1
 10
322.523
 20
206.382
 30
0.00000
  70
    32
  0
VERTEX
  8
0
  5
AAD2
 10
322.497
 20
206.429
 30
0.00000
  70
    32
  0
VERTEX
  8
0
  5
AAD3
 10
322.470
 20
206.476
 30
0.00000
  70
    32
  0
VERTEX
  8
0
  5
AAD4
 10
322.444
 20
206.523
 30
0.00000
  70
    32
  0
VERTEX
  8
0
  5
AAD5
 10
322.417
 20
206.570
 30
0.00000
  70
    32
  0
VERTEX
  8
0
  5
AAD6
 10
322.390
 20
206.617
 30
0.00000
  70
    32
  0
VERTEX
  8
0
  5
AAD7
 10
322.364
 20
206.664
 30
0.00000
  70
    32
  0
VERTEX
  8
0
  5
AAD8
 10
322.337
 20
206.711
 30
0.00000
  70
    32
  0
VERTEX
  8
0
  5
AAD9
 10
322.310
 20
206.758
 30
0.00000
  70
    32
  0
VERTEX
  8
0
  5
AADA
 10
322.284
 20
206.805
 30
0.00000
  70
    32
  0
VERTEX
  8
0
  5
AADB
 10
322.257
 20
206.852
 30
0.00000
  70
    32
  0
VERTEX
  8
0
  5
AADC
 10
322.231
 20
206.899
 30
0.00000
  70
    32
  0
VERTEX
  8
0
  5
AADD
 10
322.204
 20
206.946
 30
0.00000
  70
    32
  0
VERTEX
  8
0
  5
AADE
 10
322.177
 20
206.993
 30
0.00000
  70
    32
  0
VERTEX
  8
0
  5
AADF
 10
322.151
 20
207.040
 30
0.00000
  70
    32
  0
VERTEX
  8
0
  5
AAE0
 10
322.124
 20
207.086
 30
0.00000
  70
    32
  0
VERTEX
  8
0
  5
AAE1
 10
322.097
 20
207.133
 30
0.00000
  70
    32
  0
VERTEX
  8
0
  5
AAE2
 10
322.071
 20
207.180
 30
0.00000
  70
    32
  0
VERTEX
  8
0
  5
AAE3
 10
322.044
 20
207.227
 30
0.00000
  70
    32
  0
VERTEX
  8
0
  5
AAE4
 10
322.017
 20
207.274
 30
0.00000
  70
    32
  0
VERTEX
  8
0
  5
AAE5
 10
321.990
 20
207.321
 30
0.00000
  70
    32
  0
VERTEX
  8
0
  5
AAE6
 10
321.964
 20
207.368
 30
0.00000
  70
    32
  0
VERTEX
  8
0
  5
AAE7
 10
321.937
 20
207.414
 30
0.00000
  70
    32
  0
VERTEX
  8
0
  5
AAE8
 10
321.910
 20
207.461
 30
0.00000
  70
    32
  0
VERTEX
  8
0
  5
AAE9
 10
321.884
 20
207.508
 30
0.00000
  70
    32
  0
VERTEX
  8
0
  5
AAEA
 10
321.857
 20
207.555
 30
0.00000
  70
    32
  0
VERTEX
  8
0
  5
AAEB
 10
321.830
 20
207.602
 30
0.00000
  70
    32
  0
VERTEX
  8
0
  5
AAEC
 10
321.803
 20
207.648
 30
0.00000
  70
    32
  0
VERTEX
  8
0
  5
AAED
 10
321.777
 20
207.695
 30
0.00000
  70
    32
  0
VERTEX
  8
0
  5
AAEE
 10
321.750
 20
207.742
 30
0.00000
  70
    32
  0
VERTEX
  8
0
  5
AAEF
 10
321.723
 20
207.789
 30
0.00000
  70
    32
  0
VERTEX
  8
0
  5
AAF0
 10
321.696
 20
207.836
 30
0.00000
  70
    32
  0
VERTEX
  8
0
  5
AAF1
 10
321.670
 20
207.882
 30
0.00000
  70
    32
  0
VERTEX
  8
0
  5
AAF2
 10
321.643
 20
207.929
 30
0.00000
  70
    32
  0
VERTEX
  8
0
  5
AAF3
 10
321.616
 20
207.976
 30
0.00000
  70
    32
  0
VERTEX
  8
0
  5
AAF4
 10
321.589
 20
208.022
 30
0.00000
  70
    32
  0
VERTEX
  8
0
  5
AAF5
 10
321.562
 20
208.069
 30
0.00000
  70
    32
  0
VERTEX
  8
0
  5
AAF6
 10
321.536
 20
208.116
 30
0.00000
  70
    32
  0
VERTEX
  8
0
  5
AAF7
 10
321.509
 20
208.163
 30
0.00000
  70
    32
  0
VERTEX
  8
0
  5
AAF8
 10
321.482
 20
208.209
 30
0.00000
  70
    32
  0
VERTEX
  8
0
  5
AAF9
 10
321.455
 20
208.256
 30
0.00000
  70
    32
  0
VERTEX
  8
0
  5
AAFA
 10
321.428
 20
208.303
 30
0.00000
  70
    32
  0
VERTEX
  8
0
  5
AAFB
 10
321.402
 20
208.349
 30
0.00000
  70
    32
  0
VERTEX
  8
0
  5
AAFC
 10
321.375
 20
208.396
 30
0.00000
  70
    32
  0
VERTEX
  8
0
  5
AAFD
 10
321.348
 20
208.443
 30
0.00000
  70
    32
  0
VERTEX
  8
0
  5
AAFE
 10
321.321
 20
208.489
 30
0.00000
  70
    32
  0
VERTEX
  8
0
  5
AAFF
 10
321.294
 20
208.536
 30
0.00000
  70
    32
  0
VERTEX
  8
0
  5
AB00
 10
321.267
 20
208.582
 30
0.00000
  70
    32
  0
VERTEX
  8
0
  5
AB01
 10
321.240
 20
208.629
 30
0.00000
  70
    32
  0
VERTEX
  8
0
  5
AB02
 10
321.214
 20
208.676
 30
0.00000
  70
    32
  0
VERTEX
  8
0
  5
AB03
 10
321.187
 20
208.722
 30
0.00000
  70
    32
  0
VERTEX
  8
0
  5
AB04
 10
321.160
 20
208.769
 30
0.00000
  70
    32
  0
VERTEX
  8
0
  5
AB05
 10
321.133
 20
208.815
 30
0.00000
  70
    32
  0
VERTEX
  8
0
  5
AB06
 10
321.106
 20
208.862
 30
0.00000
  70
    32
  0
VERTEX
  8
0
  5
AB07
 10
321.079
 20
208.909
 30
0.00000
  70
    32
  0
VERTEX
  8
0
  5
AB08
 10
321.052
 20
208.955
 30
0.00000
  70
    32
  0
VERTEX
  8
0
  5
AB09
 10
321.025
 20
209.002
 30
0.00000
  70
    32
  0
VERTEX
  8
0
  5
AB0A
 10
320.999
 20
209.048
 30
0.00000
  70
    32
  0
VERTEX
  8
0
  5
AB0B
 10
320.972
 20
209.095
 30
0.00000
  70
    32
  0
VERTEX
  8
0
  5
AB0C
 10
320.945
 20
209.141
 30
0.00000
  70
    32
  0
VERTEX
  8
0
  5
AB0D
 10
320.918
 20
209.188
 30
0.00000
  70
    32
  0
VERTEX
  8
0
  5
AB0E
 10
320.891
 20
209.234
 30
0.00000
  70
    32
  0
VERTEX
  8
0
  5
AB0F
 10
320.864
 20
209.281
 30
0.00000
  70
    32
  0
VERTEX
  8
0
  5
AB10
 10
320.837
 20
209.327
 30
0.00000
  70
    32
  0
VERTEX
  8
0
  5
AB11
 10
320.810
 20
209.374
 30
0.00000
  70
    32
  0
VERTEX
  8
0
  5
AB12
 10
320.783
 20
209.420
 30
0.00000
  70
    32
  0
VERTEX
  8
0
  5
AB13
 10
320.756
 20
209.467
 30
0.00000
  70
    32
  0
VERTEX
  8
0
  5
AB14
 10
320.729
 20
209.513
 30
0.00000
  70
    32
  0
VERTEX
  8
0
  5
AB15
 10
320.702
 20
209.559
 30
0.00000
  70
    32
  0
VERTEX
  8
0
  5
AB16
 10
320.675
 20
209.606
 30
0.00000
  70
    32
  0
VERTEX
  8
0
  5
AB17
 10
320.648
 20
209.652
 30
0.00000
  70
    32
  0
VERTEX
  8
0
  5
AB18
 10
320.621
 20
209.699
 30
0.00000
  70
    32
  0
VERTEX
  8
0
  5
AB19
 10
320.594
 20
209.745
 30
0.00000
  70
    32
  0
VERTEX
  8
0
  5
AB1A
 10
320.567
 20
209.792
 30
0.00000
  70
    32
  0
VERTEX
  8
0
  5
AB1B
 10
320.540
 20
209.838
 30
0.00000
  70
    32
  0
VERTEX
  8
0
  5
AB1C
 10
320.513
 20
209.884
 30
0.00000
  70
    32
  0
VERTEX
  8
0
  5
AB1D
 10
320.486
 20
209.931
 30
0.00000
  70
    32
  0
SEQEND
  8
0
  5
AB1E
  0
LINE
  5
9C24
  8
0
 10
310.0205150550079907
 20
209.9306207458193967
 30
0.0
 11
282.900240563399791
 21
209.9306207458195104
 31
0.0
  0
CIRCLE
  5
9C25
  8
0
 10
331.4002410688015061
 20
204.4306214976963076
 30
0.0
 40
2.0000003340384351
  0
CIRCLE
  5
9C26
  8
0
 10
297.400241296444392
 20
183.4306189360700898
 30
0.0
 40
1.9999996154585811
  0
CIRCLE
  5
9C27
  8
0
 10
297.4002414024387235
 20
204.4306195989969979
 30
0.0
 40
1.9999997214521319
  0
CIRCLE
  5
9C28
  8
0
 10
331.4002409264132893
 20
183.4306208273607126
 30
0.0
 40
2.0000001916500438
  0
LINE
  5
9C29
  8
0
 10
282.900240563399791
 20
199.9306209693368999
 30
0.0
 11
296.3325831224989884
 21
199.9306209693368999
 31
0.0
  0
LINE
  5
9C2A
  8
0
 10
296.3325831224989884
 20
187.9306208650287999
 30
0.0
 11
282.900240563399791
 21
187.9306208650287999
 31
0.0
  0
LINE
  5
9C2B
  8
0
 10
296.3325831224989884
 20
199.9306209693368999
 30
0.0
 11
296.3325831224989884
 21
187.9306208650287999
 31
0.0
  0
LINE
  5
9C2C
  8
0
 10
345.900241576678809
 20
187.9306208650287999
 30
0.0
 11
332.4678990175796116
 21
187.9306208650287999
 31
0.0
  0
LINE
  5
9C2D
  8
0
 10
332.4678990175796116
 20
199.9306209693368999
 30
0.0
 11
345.900241576678809
 21
199.9306209693368999
 31
0.0
  0
LINE
  5
9C2E
  8
0
 10
332.4678990175796116
 20
187.9306208650287999
 30
0.0
 11
332.4678990175796116
 21
199.9306209693368999
 31
0.0
  0
LINE
  5
9C2F
  8
0
 10
318.779967085070723
 20
209.9306207458195956
 30
0.0
 11
322.5738064503145779
 21
203.9306206936653894
 31
0.0
  0
LINE
  5
9C30
  8
0
 10
345.900241576678809
 20
209.9306207458195104
 30
0.0
 11
318.779967085070723
 21
209.9306207458197946
 31
0.0
  0
LINE
  5
9C31
  8
0
 10
306.2266756897640789
 20
203.9306206936653894
 30
0.0
 11
310.0205150550079907
 21
209.9306207458195104
 31
0.0
  0
LINE
  5
9C32
  8
0
 10
335.0219245185924137
 20
196.1806208203252879
 30
0.0
 11
342.1502414276671971
 21
196.1806208203252879
 31
0.0
  0
ARC
  5
9C33
  8
0
 10
335.2065336427040165
 20
198.9550112351950872
 30
0.0
 40
2.7805256162866878
 50
189.9582095709496059
 51
266.1931261961677251
  0
ARC
  5
9C34
  8
0
 10
335.2018160452990969
 20
188.9108771312662896
 30
0.0
 40
2.775579603892782
 50
93.7160724570477441
 51
170.0601783314237991
  0
LINE
  5
9C35
  8
0
 10
342.1502414276671971
 20
191.6806210140404119
 30
0.0
 11
335.0219245185924137
 21
191.6806210140404119
 31
0.0
  0
LINE
  5
9C36
  8
0
 10
335.0219245185924137
 20
196.1806208203252879
 30
0.0
 11
335.0219245185924137
 21
191.6806210140404119
 31
0.0
  0
ARC
  5
9C37
  8
0
 10
293.5939470788940753
 20
188.9062296644518995
 30
0.0
 40
2.7805266431212781
 50
9.9581610594181384
 51
86.1930983101178327
  0
LINE
  5
9C38
  8
0
 10
293.7785576214861862
 20
191.6806210140404119
 30
0.0
 11
293.7785576214861862
 21
196.1806208203252879
 31
0.0
  0
ARC
  5
9C39
  8
0
 10
293.5986677110236087
 20
198.9503634655542044
 30
0.0
 40
2.775578264197534
 50
273.716040819070713
 51
350.060142854222704
  0
LINE
  5
9C3A
  8
0
 10
286.6502407124114029
 20
196.1806208203252879
 30
0.0
 11
293.7785576214861862
 21
196.1806208203252879
 31
0.0
  0
LINE
  5
9C3B
  8
0
 10
293.7785576214861862
 20
191.6806210140404119
 30
0.0
 11
286.6502407124114029
 21
191.6806210140404119
 31
0.0
  0
CIRCLE
  5
9C3C
  8
0
 10
331.4002410700393284
 20
204.4306207458195104
 30
0.0
 40
1.25
  0
CIRCLE
  5
9C3D
  8
0
 10
331.4002410700393284
 20
183.4306207458195104
 30
0.0
 40
1.25
  0
CIRCLE
  5
9C3E
  8
0
 10
297.4002410700393284
 20
204.4306207458195104
 30
0.0
 40
1.25
  0
CIRCLE
  5
9C3F
  8
0
 10
297.4002410700393284
 20
183.4306207458195104
 30
0.0
 40
1.25
  0
CIRCLE
  5
9C40
  8
3
 10
297.4002414024387235
 20
204.4306195989971116
 30
0.0
 40
1.5
  0
CIRCLE
  5
9C41
  8
3
 10
331.4002414024390077
 20
204.4306195989971116
 30
0.0
 40
1.5
  0
CIRCLE
  5
9C42
  8
3
 10
331.4002414024390077
 20
183.4306195989960031
 30
0.0
 40
1.5
  0
CIRCLE
  5
9C43
  8
3
 10
297.4002414024387235
 20
183.4306195989960031
 30
0.0
 40
1.5
  0
LINE
  5
9C44
  8
1
 10
297.4002414024387235
 20
208.4306193204492104
 30
0.0
 11
297.4002414024387235
 21
200.4306198775448991
 31
0.0
  0
LINE
  5
9C45
  8
1
 10
293.4002416809865963
 20
204.4306195989971116
 30
0.0
 11
301.4002411238909076
 21
204.4306195989971116
 31
0.0
  0
LINE
  5
9C46
  8
1
 10
331.4002414024390077
 20
208.4306218317346975
 30
0.0
 11
331.4002414024390077
 21
200.4306211636578041
 31
0.0
  0
LINE
  5
9C47
  8
1
 10
327.4002407347634858
 20
204.4306195989969979
 30
0.0
 11
335.4002414028395265
 21
204.4306195989971116
 31
0.0
  0
LINE
  5
9C48
  8
1
 10
331.4002414024390077
 20
187.4306210190106867
 30
0.0
 11
331.4002414024390077
 21
179.4306206357107101
 31
0.0
  0
LINE
  5
9C49
  8
1
 10
327.4002407347633721
 20
183.4306195989960031
 30
0.0
 11
335.4002411180632066
 21
183.4306195989960031
 31
0.0
  0
LINE
  5
9C4A
  8
1
 10
297.4002414024387235
 20
187.4306185515287098
 30
0.0
 11
297.4002414024387235
 21
179.4306193206114983
 31
0.0
  0
LINE
  5
9C4B
  8
1
 10
293.4002416809859142
 20
183.4306195989960031
 30
0.0
 11
301.4002409119029835
 21
183.4306195989960031
 31
0.0
  0
LINE
  5
9C4C
  8
1
 10
314.4002410700393852
 20
164.9306216398890967
 30
0.0
 11
314.4002410700393852
 21
215.9043666591140038
 31
0.0
  0
LINE
  5
9C74
  8
2
 10
298.6502410700393852
 20
175.9306216398890967
 30
0.0
 11
330.1502410700393852
 21
175.9306216398890967
 31
0.0
  0
LINE
  5
9C75
  8
2
 10
330.1502410700393852
 20
169.9306216398890967
 30
0.0
 11
330.1502410700393852
 21
175.9306216398890967
 31
0.0
  0
LINE
  5
9C76
  8
2
 10
298.6502410700393852
 20
175.9306216398890967
 30
0.0
 11
298.6502410700393852
 21
169.9306216398890967
 31
0.0
  0
LINE
  5
9C7A
  8
1
 10
71.4716185877999379
 20
182.6806227574890897
 30
0.0
 11
71.4716185877999237
 21
169.6806216398890967
 31
0.0
  0
LINE
  5
9C7B
  8
1
 10
66.0000001775999294
 20
176.9306207457892128
 30
0.0
 11
77.0000001775999294
 21
176.9306207457890991
 31
0.0
  0
LINE
  5
9C7C
  8
1
 10
91.5000001775999152
 20
182.6806227574890897
 30
0.0
 11
91.5000001775999152
 21
169.6806216398890967
 31
0.0
  0
LINE
  5
9C7D
  8
1
 10
86.0000001775999152
 20
176.9306207457892128
 30
0.0
 11
97.0000001775999152
 21
176.9306207457892128
 31
0.0
  0
LINE
  5
A2DA
  8
0
 10
67.9500001775999465
 20
177.5306227574891125
 30
0.0
 11
67.9500001775999323
 21
175.6306216398891991
 31
0.0
  0
LINE
  5
A2DB
  8
0
 10
75.0500001775999408
 20
177.5306227574891125
 30
0.0
 11
75.0500001775999408
 21
175.6306216398891138
 31
0.0
  0
CIRCLE
  5
A2EB
  8
0
 10
71.5000001775999152
 20
176.9306207457890991
 30
0.0
 40
3.5
  0
LINE
  5
A2EC
  8
0
 10
70.0000000492057097
 20
176.0645952383891029
 30
0.0
 11
70.0000000492057097
 21
177.7966466108890984
 31
0.0
  0
LINE
  5
A2ED
  8
0
 10
71.5000002951057922
 20
175.1985695520891113
 30
0.0
 11
70.0000000492057097
 21
176.0645952383891029
 31
0.0
  0
LINE
  5
A2EE
  8
0
 10
72.9999996097058101
 20
176.0645952383891029
 30
0.0
 11
71.5000002951057922
 21
175.1985695520891113
 31
0.0
  0
LINE
  5
A2EF
  8
0
 10
72.9999996097058101
 20
177.7966466108890984
 30
0.0
 11
72.9999996097058101
 21
176.0645952383891029
 31
0.0
  0
LINE
  5
A2F0
  8
0
 10
71.5000002951057922
 20
178.6626722971890899
 30
0.0
 11
72.9999996097058101
 21
177.7966466108890984
 31
0.0
  0
LINE
  5
A2F1
  8
0
 10
70.0000000492057097
 20
177.7966466108890984
 30
0.0
 11
71.5000002951057922
 21
178.6626722971890899
 31
0.0
  0
LINE
  5
A2F2
  8
0
 10
90.000000049205596
 20
176.0645952383891029
 30
0.0
 11
90.000000049205596
 21
177.7966466108892121
 31
0.0
  0
LINE
  5
A2F3
  8
0
 10
91.5000002951056786
 20
175.1985695520891966
 30
0.0
 11
90.000000049205596
 21
176.0645952383891029
 31
0.0
  0
LINE
  5
A2F4
  8
0
 10
92.9999996097056965
 20
176.0645952383891029
 30
0.0
 11
91.5000002951056786
 21
175.1985695520891966
 31
0.0
  0
LINE
  5
A2F5
  8
0
 10
92.9999996097056965
 20
177.7966466108892121
 30
0.0
 11
92.9999996097056965
 21
176.0645952383891029
 31
0.0
  0
LINE
  5
A2F6
  8
0
 10
91.5000002951056786
 20
178.6626722971892036
 30
0.0
 11
92.9999996097056965
 21
177.7966466108892121
 31
0.0
  0
LINE
  5
A2F7
  8
0
 10
90.000000049205596
 20
177.7966466108892121
 30
0.0
 11
91.5000002951056786
 21
178.6626722971892036
 31
0.0
  0
CIRCLE
  5
A2F8
  8
0
 10
91.5000001775999152
 20
176.9306207457892128
 30
0.0
 40
3.5
  0
LINE
  5
A300
  8
0
 10
80.5000001852999247
 20
178.8806227574891068
 30
0.0
 11
82.5000001638999549
 21
178.8806227574891068
 31
0.0
  0
LINE
  5
A301
  8
1
 10
81.4999999999999574
 20
178.4806227574891864
 30
0.0
 11
81.4999999999999432
 21
215.9043666590891917
 31
0.0
  0
ARC
  5
A304
  8
0
 10
71.5000001775999579
 20
177.5306227574891125
 30
0.0
 40
3.5499999999999989
 50
0.0
 51
179.9999999999994884
  0
ARC
  5
A307
  8
0
 10
71.5000001775999152
 20
175.6306216398891991
 30
0.0
 40
3.5499999999999989
 50
179.9999999999994884
 51
0.0
  0
LINE
  5
A309
  8
0
 10
87.9500001775999181
 20
177.5306227574891125
 30
0.0
 11
87.9500001775999039
 21
175.6306216398891991
 31
0.0
  0
LINE
  5
A30A
  8
0
 10
95.0500001775999124
 20
177.5306227574891125
 30
0.0
 11
95.0500001775999124
 21
175.6306216398891991
 31
0.0
  0
ARC
  5
A30B
  8
0
 10
91.5000001775999152
 20
177.5306227574891125
 30
0.0
 40
3.5499999999999989
 50
0.0
 51
179.9999999999994884
  0
ARC
  5
A30C
  8
0
 10
91.5000001775999152
 20
175.6306216398891991
 30
0.0
 40
3.5499999999999989
 50
179.9999999999994884
 51
0.0
  0
LINE
  5
A30D
  8
0
 10
66.5000000334999299
 20
170.3306216398891024
 30
0.0
 11
96.4999999664999564
 21
170.3306216398891024
 31
0.0
  0
LINE
  5
A433
  8
1
 10
201.4002405633999047
 20
164.9306216398890967
 30
0.0
 11
201.4002405633999047
 21
215.9043666590891064
 31
0.0
  0
LINE
  5
A434
  8
0
 10
163.2002405633998876
 20
170.3306216398891024
 30
0.0
 11
163.2002405633998876
 21
182.8306216398891024
 31
0.0
  0
LINE
  5
A435
  8
0
 10
174.4002393563999078
 20
210.4043666352891933
 30
0.0
 11
174.4002393563999078
 21
203.9306206936892067
 31
0.0
  0
ARC
  5
A436
  8
0
 10
174.9002435571833871
 20
210.404364213591208
 30
0.0
 40
0.5000042007893726
 50
89.8481812031326541
 51
179.999722496187502
  0
POLYLINE
  5
A437
  8
0
 10
183.5148509918893467
 20
209.9306207457891844
 30
0.0
 66
     1
 70
     8
  0
VERTEX
  8
0
  5
AB1F
 10
183.515
 20
209.931
 30
0.00000
  70
    32
  0
VERTEX
  8
0
  5
AB20
 10
183.514
 20
209.934
 30
0.00000
  70
    32
  0
VERTEX
  8
0
  5
AB21
 10
183.514
 20
209.938
 30
0.00000
  70
    32
  0
VERTEX
  8
0
  5
AB22
 10
183.514
 20
209.942
 30
0.00000
  70
    32
  0
VERTEX
  8
0
  5
AB23
 10
183.513
 20
209.945
 30
0.00000
  70
    32
  0
VERTEX
  8
0
  5
AB24
 10
183.513
 20
209.949
 30
0.00000
  70
    32
  0
VERTEX
  8
0
  5
AB25
 10
183.513
 20
209.953
 30
0.00000
  70
    32
  0
VERTEX
  8
0
  5
AB26
 10
183.512
 20
209.956
 30
0.00000
  70
    32
  0
VERTEX
  8
0
  5
AB27
 10
183.512
 20
209.960
 30
0.00000
  70
    32
  0
VERTEX
  8
0
  5
AB28
 10
183.511
 20
209.964
 30
0.00000
  70
    32
  0
VERTEX
  8
0
  5
AB29
 10
183.511
 20
209.967
 30
0.00000
  70
    32
  0
VERTEX
  8
0
  5
AB2A
 10
183.511
 20
209.971
 30
0.00000
  70
    32
  0
VERTEX
  8
0
  5
AB2B
 10
183.510
 20
209.975
 30
0.00000
  70
    32
  0
VERTEX
  8
0
  5
AB2C
 10
183.510
 20
209.978
 30
0.00000
  70
    32
  0
VERTEX
  8
0
  5
AB2D
 10
183.509
 20
209.982
 30
0.00000
  70
    32
  0
VERTEX
  8
0
  5
AB2E
 10
183.509
 20
209.986
 30
0.00000
  70
    32
  0
VERTEX
  8
0
  5
AB2F
 10
183.509
 20
209.989
 30
0.00000
  70
    32
  0
VERTEX
  8
0
  5
AB30
 10
183.508
 20
209.993
 30
0.00000
  70
    32
  0
VERTEX
  8
0
  5
AB31
 10
183.508
 20
209.997
 30
0.00000
  70
    32
  0
VERTEX
  8
0
  5
AB32
 10
183.508
 20
210.000
 30
0.00000
  70
    32
  0
VERTEX
  8
0
  5
AB33
 10
183.507
 20
210.004
 30
0.00000
  70
    32
  0
VERTEX
  8
0
  5
AB34
 10
183.507
 20
210.008
 30
0.00000
  70
    32
  0
VERTEX
  8
0
  5
AB35
 10
183.506
 20
210.011
 30
0.00000
  70
    32
  0
VERTEX
  8
0
  5
AB36
 10
183.506
 20
210.015
 30
0.00000
  70
    32
  0
VERTEX
  8
0
  5
AB37
 10
183.506
 20
210.019
 30
0.00000
  70
    32
  0
VERTEX
  8
0
  5
AB38
 10
183.505
 20
210.022
 30
0.00000
  70
    32
  0
VERTEX
  8
0
  5
AB39
 10
183.505
 20
210.026
 30
0.00000
  70
    32
  0
VERTEX
  8
0
  5
AB3A
 10
183.505
 20
210.030
 30
0.00000
  70
    32
  0
VERTEX
  8
0
  5
AB3B
 10
183.504
 20
210.033
 30
0.00000
  70
    32
  0
VERTEX
  8
0
  5
AB3C
 10
183.504
 20
210.037
 30
0.00000
  70
    32
  0
VERTEX
  8
0
  5
AB3D
 10
183.503
 20
210.041
 30
0.00000
  70
    32
  0
VERTEX
  8
0
  5
AB3E
 10
183.503
 20
210.044
 30
0.00000
  70
    32
  0
VERTEX
  8
0
  5
AB3F
 10
183.503
 20
210.048
 30
0.00000
  70
    32
  0
VERTEX
  8
0
  5
AB40
 10
183.502
 20
210.052
 30
0.00000
  70
    32
  0
VERTEX
  8
0
  5
AB41
 10
183.502
 20
210.055
 30
0.00000
  70
    32
  0
VERTEX
  8
0
  5
AB42
 10
183.501
 20
210.059
 30
0.00000
  70
    32
  0
VERTEX
  8
0
  5
AB43
 10
183.501
 20
210.063
 30
0.00000
  70
    32
  0
VERTEX
  8
0
  5
AB44
 10
183.501
 20
210.066
 30
0.00000
  70
    32
  0
VERTEX
  8
0
  5
AB45
 10
183.500
 20
210.070
 30
0.00000
  70
    32
  0
VERTEX
  8
0
  5
AB46
 10
183.500
 20
210.074
 30
0.00000
  70
    32
  0
VERTEX
  8
0
  5
AB47
 10
183.500
 20
210.077
 30
0.00000
  70
    32
  0
VERTEX
  8
0
  5
AB48
 10
183.499
 20
210.081
 30
0.00000
  70
    32
  0
VERTEX
  8
0
  5
AB49
 10
183.499
 20
210.085
 30
0.00000
  70
    32
  0
VERTEX
  8
0
  5
AB4A
 10
183.498
 20
210.088
 30
0.00000
  70
    32
  0
VERTEX
  8
0
  5
AB4B
 10
183.498
 20
210.092
 30
0.00000
  70
    32
  0
VERTEX
  8
0
  5
AB4C
 10
183.498
 20
210.096
 30
0.00000
  70
    32
  0
VERTEX
  8
0
  5
AB4D
 10
183.497
 20
210.100
 30
0.00000
  70
    32
  0
VERTEX
  8
0
  5
AB4E
 10
183.497
 20
210.103
 30
0.00000
  70
    32
  0
VERTEX
  8
0
  5
AB4F
 10
183.496
 20
210.107
 30
0.00000
  70
    32
  0
VERTEX
  8
0
  5
AB50
 10
183.496
 20
210.111
 30
0.00000
  70
    32
  0
VERTEX
  8
0
  5
AB51
 10
183.496
 20
210.114
 30
0.00000
  70
    32
  0
VERTEX
  8
0
  5
AB52
 10
183.495
 20
210.118
 30
0.00000
  70
    32
  0
VERTEX
  8
0
  5
AB53
 10
183.495
 20
210.122
 30
0.00000
  70
    32
  0
VERTEX
  8
0
  5
AB54
 10
183.494
 20
210.125
 30
0.00000
  70
    32
  0
VERTEX
  8
0
  5
AB55
 10
183.494
 20
210.129
 30
0.00000
  70
    32
  0
VERTEX
  8
0
  5
AB56
 10
183.494
 20
210.133
 30
0.00000
  70
    32
  0
VERTEX
  8
0
  5
AB57
 10
183.493
 20
210.136
 30
0.00000
  70
    32
  0
VERTEX
  8
0
  5
AB58
 10
183.493
 20
210.140
 30
0.00000
  70
    32
  0
VERTEX
  8
0
  5
AB59
 10
183.493
 20
210.144
 30
0.00000
  70
    32
  0
VERTEX
  8
0
  5
AB5A
 10
183.492
 20
210.148
 30
0.00000
  70
    32
  0
VERTEX
  8
0
  5
AB5B
 10
183.492
 20
210.151
 30
0.00000
  70
    32
  0
VERTEX
  8
0
  5
AB5C
 10
183.491
 20
210.155
 30
0.00000
  70
    32
  0
VERTEX
  8
0
  5
AB5D
 10
183.491
 20
210.159
 30
0.00000
  70
    32
  0
VERTEX
  8
0
  5
AB5E
 10
183.491
 20
210.162
 30
0.00000
  70
    32
  0
VERTEX
  8
0
  5
AB5F
 10
183.490
 20
210.166
 30
0.00000
  70
    32
  0
VERTEX
  8
0
  5
AB60
 10
183.490
 20
210.170
 30
0.00000
  70
    32
  0
VERTEX
  8
0
  5
AB61
 10
183.489
 20
210.173
 30
0.00000
  70
    32
  0
VERTEX
  8
0
  5
AB62
 10
183.489
 20
210.177
 30
0.00000
  70
    32
  0
VERTEX
  8
0
  5
AB63
 10
183.489
 20
210.181
 30
0.00000
  70
    32
  0
VERTEX
  8
0
  5
AB64
 10
183.488
 20
210.185
 30
0.00000
  70
    32
  0
VERTEX
  8
0
  5
AB65
 10
183.488
 20
210.188
 30
0.00000
  70
    32
  0
VERTEX
  8
0
  5
AB66
 10
183.488
 20
210.192
 30
0.00000
  70
    32
  0
VERTEX
  8
0
  5
AB67
 10
183.487
 20
210.196
 30
0.00000
  70
    32
  0
VERTEX
  8
0
  5
AB68
 10
183.487
 20
210.199
 30
0.00000
  70
    32
  0
VERTEX
  8
0
  5
AB69
 10
183.486
 20
210.203
 30
0.00000
  70
    32
  0
VERTEX
  8
0
  5
AB6A
 10
183.486
 20
210.207
 30
0.00000
  70
    32
  0
VERTEX
  8
0
  5
AB6B
 10
183.486
 20
210.211
 30
0.00000
  70
    32
  0
VERTEX
  8
0
  5
AB6C
 10
183.485
 20
210.214
 30
0.00000
  70
    32
  0
VERTEX
  8
0
  5
AB6D
 10
183.485
 20
210.218
 30
0.00000
  70
    32
  0
VERTEX
  8
0
  5
AB6E
 10
183.484
 20
210.222
 30
0.00000
  70
    32
  0
VERTEX
  8
0
  5
AB6F
 10
183.484
 20
210.225
 30
0.00000
  70
    32
  0
VERTEX
  8
0
  5
AB70
 10
183.484
 20
210.229
 30
0.00000
  70
    32
  0
VERTEX
  8
0
  5
AB71
 10
183.483
 20
210.233
 30
0.00000
  70
    32
  0
VERTEX
  8
0
  5
AB72
 10
183.483
 20
210.237
 30
0.00000
  70
    32
  0
VERTEX
  8
0
  5
AB73
 10
183.482
 20
210.240
 30
0.00000
  70
    32
  0
VERTEX
  8
0
  5
AB74
 10
183.482
 20
210.244
 30
0.00000
  70
    32
  0
VERTEX
  8
0
  5
AB75
 10
183.482
 20
210.248
 30
0.00000
  70
    32
  0
VERTEX
  8
0
  5
AB76
 10
183.481
 20
210.251
 30
0.00000
  70
    32
  0
VERTEX
  8
0
  5
AB77
 10
183.481
 20
210.255
 30
0.00000
  70
    32
  0
VERTEX
  8
0
  5
AB78
 10
183.481
 20
210.259
 30
0.00000
  70
    32
  0
VERTEX
  8
0
  5
AB79
 10
183.480
 20
210.263
 30
0.00000
  70
    32
  0
VERTEX
  8
0
  5
AB7A
 10
183.480
 20
210.266
 30
0.00000
  70
    32
  0
VERTEX
  8
0
  5
AB7B
 10
183.479
 20
210.270
 30
0.00000
  70
    32
  0
VERTEX
  8
0
  5
AB7C
 10
183.479
 20
210.274
 30
0.00000
  70
    32
  0
VERTEX
  8
0
  5
AB7D
 10
183.479
 20
210.277
 30
0.00000
  70
    32
  0
VERTEX
  8
0
  5
AB7E
 10
183.478
 20
210.281
 30
0.00000
  70
    32
  0
VERTEX
  8
0
  5
AB7F
 10
183.478
 20
210.285
 30
0.00000
  70
    32
  0
VERTEX
  8
0
  5
AB80
 10
183.477
 20
210.289
 30
0.00000
  70
    32
  0
VERTEX
  8
0
  5
AB81
 10
183.477
 20
210.292
 30
0.00000
  70
    32
  0
VERTEX
  8
0
  5
AB82
 10
183.477
 20
210.296
 30
0.00000
  70
    32
  0
VERTEX
  8
0
  5
AB83
 10
183.476
 20
210.300
 30
0.00000
  70
    32
  0
VERTEX
  8
0
  5
AB84
 10
183.476
 20
210.303
 30
0.00000
  70
    32
  0
VERTEX
  8
0
  5
AB85
 10
183.475
 20
210.307
 30
0.00000
  70
    32
  0
VERTEX
  8
0
  5
AB86
 10
183.475
 20
210.311
 30
0.00000
  70
    32
  0
VERTEX
  8
0
  5
AB87
 10
183.475
 20
210.315
 30
0.00000
  70
    32
  0
VERTEX
  8
0
  5
AB88
 10
183.474
 20
210.318
 30
0.00000
  70
    32
  0
VERTEX
  8
0
  5
AB89
 10
183.474
 20
210.322
 30
0.00000
  70
    32
  0
VERTEX
  8
0
  5
AB8A
 10
183.474
 20
210.326
 30
0.00000
  70
    32
  0
VERTEX
  8
0
  5
AB8B
 10
183.473
 20
210.330
 30
0.00000
  70
    32
  0
VERTEX
  8
0
  5
AB8C
 10
183.473
 20
210.333
 30
0.00000
  70
    32
  0
VERTEX
  8
0
  5
AB8D
 10
183.472
 20
210.337
 30
0.00000
  70
    32
  0
VERTEX
  8
0
  5
AB8E
 10
183.472
 20
210.341
 30
0.00000
  70
    32
  0
VERTEX
  8
0
  5
AB8F
 10
183.472
 20
210.345
 30
0.00000
  70
    32
  0
VERTEX
  8
0
  5
AB90
 10
183.471
 20
210.348
 30
0.00000
  70
    32
  0
VERTEX
  8
0
  5
AB91
 10
183.471
 20
210.352
 30
0.00000
  70
    32
  0
VERTEX
  8
0
  5
AB92
 10
183.470
 20
210.356
 30
0.00000
  70
    32
  0
VERTEX
  8
0
  5
AB93
 10
183.470
 20
210.359
 30
0.00000
  70
    32
  0
VERTEX
  8
0
  5
AB94
 10
183.470
 20
210.363
 30
0.00000
  70
    32
  0
VERTEX
  8
0
  5
AB95
 10
183.469
 20
210.367
 30
0.00000
  70
    32
  0
VERTEX
  8
0
  5
AB96
 10
183.469
 20
210.371
 30
0.00000
  70
    32
  0
VERTEX
  8
0
  5
AB97
 10
183.468
 20
210.374
 30
0.00000
  70
    32
  0
VERTEX
  8
0
  5
AB98
 10
183.468
 20
210.378
 30
0.00000
  70
    32
  0
VERTEX
  8
0
  5
AB99
 10
183.468
 20
210.382
 30
0.00000
  70
    32
  0
VERTEX
  8
0
  5
AB9A
 10
183.467
 20
210.386
 30
0.00000
  70
    32
  0
VERTEX
  8
0
  5
AB9B
 10
183.467
 20
210.389
 30
0.00000
  70
    32
  0
VERTEX
  8
0
  5
AB9C
 10
183.466
 20
210.393
 30
0.00000
  70
    32
  0
VERTEX
  8
0
  5
AB9D
 10
183.466
 20
210.397
 30
0.00000
  70
    32
  0
VERTEX
  8
0
  5
AB9E
 10
183.466
 20
210.401
 30
0.00000
  70
    32
  0
VERTEX
  8
0
  5
AB9F
 10
183.465
 20
210.404
 30
0.00000
  70
    32
  0
SEQEND
  8
0
  5
ABA0
  0
LINE
  5
A438
  8
0
 10
183.4094944527060136
 20
210.9043666590891917
 30
0.0
 11
174.9015684356998861
 21
210.9043666590891917
 31
0.0
  0
ARC
  5
A439
  8
0
 10
161.048485163853087
 20
208.1544445747209977
 30
0.0
 40
22.52946532624021
 50
5.7314401453754789
 51
7.0109433270375607
  0
LINE
  5
A43A
  8
0
 10
181.4002405038000063
 20
203.9306206936892067
 30
0.0
 11
169.9002400567999871
 21
203.9306206936892067
 31
0.0
  0
LINE
  5
A43B
  8
0
 10
181.4002405038000063
 20
209.9306207457890991
 30
0.0
 11
181.4002405038000063
 21
203.9306206936892067
 31
0.0
  0
LINE
  5
A43C
  8
0
 10
232.3066858339205965
 20
209.9306207457890991
 30
0.0
 11
181.4002405038000063
 21
209.9306207457890991
 31
0.0
  0
LINE
  5
A43D
  8
0
 10
175.5969497491998936
 20
199.9306209693891958
 30
0.0
 11
227.2035303643000077
 21
199.9306209693891958
 31
0.0
  0
LINE
  5
A43E
  8
0
 10
175.5969497491998936
 20
187.9306208649892085
 30
0.0
 11
175.5969497491998936
 21
199.9306209693891958
 31
0.0
  0
LINE
  5
A43F
  8
0
 10
227.2035303643000077
 20
187.9306208649892085
 30
0.0
 11
175.5969497491998936
 21
187.9306208649892085
 31
0.0
  0
LINE
  5
A440
  8
0
 10
173.7002405633998876
 20
169.9306216398890967
 30
0.0
 11
232.9002405633999047
 21
169.9306216398890967
 31
0.0
  0
POLYLINE
  5
A441
  8
0
 66
     1
 10
0.0
 20
0.0
 30
0.0
 70
   128
  0
VERTEX
  5
A7DA
  8
0
 10
175.5969497491998936
 20
199.9306209693891958
 30
0.0
  0
VERTEX
  5
A7DB
  8
0
 10
176.3440138776998936
 20
199.3142018402892006
 30
0.0
  0
VERTEX
  5
A7DC
  8
0
 10
177.1098776837999935
 20
198.7231146851891879
 30
0.0
  0
VERTEX
  5
A7DD
  8
0
 10
177.9116681893999896
 20
198.1519513139892013
 30
0.0
  0
VERTEX
  5
A7DE
  8
0
 10
178.7297959557000127
 20
197.6247100467892039
 30
0.0
  0
VERTEX
  5
A7DF
  8
0
 10
179.7872829368000112
 20
197.0379451597891887
 30
0.0
  0
VERTEX
  5
A7E0
  8
0
 10
180.8738979627999015
 20
196.5674996683891038
 30
0.0
  0
VERTEX
  5
A7E1
  8
0
 10
181.8632307579999008
 20
196.284363635889207
 30
0.0
  0
VERTEX
  5
A7E2
  8
0
 10
182.8312139143999957
 20
196.1806208202891071
 30
0.0
  0
SEQEND
  5
A7E3
  8
0
  0
POLYLINE
  5
A442
  8
0
 66
     1
 10
0.0
 20
0.0
 30
0.0
 70
   128
  0
VERTEX
  5
A7E4
  8
0
 10
219.9692661990999909
 20
196.1806208202891071
 30
0.0
  0
VERTEX
  5
A7E5
  8
0
 10
220.9175500204999878
 20
196.2803813005891129
 30
0.0
  0
VERTEX
  5
A7E6
  8
0
 10
221.9663850149001121
 20
196.582017124689088
 30
0.0
  0
VERTEX
  5
A7E7
  8
0
 10
222.9918866534999893
 20
197.0273392582890892
 30
0.0
  0
VERTEX
  5
A7E8
  8
0
 10
224.0362662007999859
 20
197.6038540089890887
 30
0.0
  0
VERTEX
  5
A7E9
  8
0
 10
224.8438942363000876
 20
198.121495203189113
 30
0.0
  0
VERTEX
  5
A7EA
  8
0
 10
225.6357791951000991
 20
198.682460592189102
 30
0.0
  0
VERTEX
  5
A7EB
  8
0
 10
226.4297112007998862
 20
199.2928345063891982
 30
0.0
  0
VERTEX
  5
A7EC
  8
0
 10
227.2035303643000077
 20
199.9306209693891958
 30
0.0
  0
SEQEND
  5
A7ED
  8
0
  0
LINE
  5
A443
  8
0
 10
182.8312139143999957
 20
196.1806208202891071
 30
0.0
 11
219.9692661990999909
 21
196.1806208202891071
 31
0.0
  0
POLYLINE
  5
A444
  8
0
 66
     1
 10
0.0
 20
0.0
 30
0.0
 70
   128
  0
VERTEX
  5
A7EE
  8
0
 10
182.8312139143999957
 20
191.6806210140890983
 30
0.0
  0
VERTEX
  5
A7EF
  8
0
 10
181.8829300930999864
 20
191.5808596024891983
 30
0.0
  0
VERTEX
  5
A7F0
  8
0
 10
180.8340950985999029
 20
191.279224709689089
 30
0.0
  0
VERTEX
  5
A7F1
  8
0
 10
179.8085934599999121
 20
190.8339016447891083
 30
0.0
  0
VERTEX
  5
A7F2
  8
0
 10
178.764213912699887
 20
190.2573868939890929
 30
0.0
  0
VERTEX
  5
A7F3
  8
0
 10
177.9565858772000126
 20
189.7397466311890923
 30
0.0
  0
VERTEX
  5
A7F4
  8
0
 10
177.1647009184000012
 20
189.1787812421891033
 30
0.0
  0
VERTEX
  5
A7F5
  8
0
 10
176.3707689126999867
 20
188.5684073278891049
 30
0.0
  0
VERTEX
  5
A7F6
  8
0
 10
175.5969497491998936
 20
187.9306208649892085
 30
0.0
  0
SEQEND
  5
A7F7
  8
0
  0
LINE
  5
A445
  8
0
 10
219.9692661990999909
 20
191.6806210140890983
 30
0.0
 11
182.8312139143999957
 21
191.6806210140890983
 31
0.0
  0
POLYLINE
  5
A446
  8
0
 66
     1
 10
0.0
 20
0.0
 30
0.0
 70
   128
  0
VERTEX
  5
A7F8
  8
0
 10
227.2035303643000077
 20
187.9306208649892085
 30
0.0
  0
VERTEX
  5
A7F9
  8
0
 10
226.456466235800093
 20
188.5470390627891106
 30
0.0
  0
VERTEX
  5
A7FA
  8
0
 10
225.6906024297001068
 20
189.138127149189188
 30
0.0
  0
VERTEX
  5
A7FB
  8
0
 10
224.8888119240999117
 20
189.709290520389203
 30
0.0
  0
VERTEX
  5
A7FC
  8
0
 10
224.0706841578000024
 20
190.2365308562891073
 30
0.0
  0
VERTEX
  5
A7FD
  8
0
 10
223.0131971767000039
 20
190.8232957432892078
 30
0.0
  0
VERTEX
  5
A7FE
  8
0
 10
221.9265821506999998
 20
191.2937421659891868
 30
0.0
  0
VERTEX
  5
A7FF
  8
0
 10
220.9372493556001018
 20
191.5768772671891043
 30
0.0
  0
VERTEX
  5
A800
  8
0
 10
219.9692661990999909
 20
191.6806210140890983
 30
0.0
  0
SEQEND
  5
A801
  8
0
  0
LINE
  5
A447
  8
0
 10
170.0482464996998999
 20
197.9306207457890991
 30
0.0
 11
170.0482464996998999
 21
190.4306207457890991
 31
0.0
  0
LINE
  5
A448
  8
0
 10
169.9002400567999871
 20
203.9306206936892067
 30
0.0
 11
169.9002400567999871
 21
200.9806207457891958
 31
0.0
  0
LINE
  5
A449
  8
0
 10
169.9002400567999871
 20
187.3806207457892015
 30
0.0
 11
169.9002400567999871
 21
186.9644857030891103
 31
0.0
  0
POLYLINE
  5
A44A
  8
0
 66
     1
 10
0.0
 20
0.0
 30
0.0
  0
VERTEX
  5
A802
  8
0
 10
170.0482464996998999
 20
190.4306207457890991
 30
0.0
  0
VERTEX
  5
A803
  8
0
 10
170.0418527920905944
 20
189.7974131648682885
 30
0.0
  0
VERTEX
  5
A804
  8
0
 10
170.0231729592580905
 20
189.1764917091051075
 30
0.0
  0
VERTEX
  5
A805
  8
0
 10
169.9929155704934089
 20
188.5671478092739903
 30
0.0
  0
VERTEX
  5
A806
  8
0
 10
169.9517357363208134
 20
187.9687263548509009
 30
0.0
  0
VERTEX
  5
A807
  8
0
 10
169.9002400567999871
 20
187.3806207457892015
 30
0.0
  0
SEQEND
  5
A808
  8
0
  0
POLYLINE
  5
A44B
  8
0
 66
     1
 10
0.0
 20
0.0
 30
0.0
  0
VERTEX
  5
A809
  8
0
 10
169.9002400567536029
 20
186.9644857030565959
 30
0.0
  0
VERTEX
  5
A80A
  8
0
 10
169.9469067234201987
 20
186.0778190363899967
 30
0.0
  0
VERTEX
  5
A80B
  8
0
 10
169.9683481648615953
 20
185.2163775949483977
 30
0.0
  0
VERTEX
  5
A80C
  8
0
 10
169.9665558462274078
 20
184.3781699135828944
 30
0.0
  0
VERTEX
  5
A80D
  8
0
 10
169.9433169798307119
 20
183.5614087799797005
 30
0.0
  0
VERTEX
  5
A80E
  8
0
 10
169.9038153925382915
 20
182.8306216398891024
 30
0.0
  0
SEQEND
  5
A80F
  8
0
  0
POLYLINE
  5
A44C
  8
0
 66
     1
 10
0.0
 20
0.0
 30
0.0
  0
VERTEX
  5
A810
  8
0
 10
169.9002400567999871
 20
200.9806207457891958
 30
0.0
  0
VERTEX
  5
A811
  8
0
 10
169.9363557202566994
 20
200.5817558876915996
 30
0.0
  0
VERTEX
  5
A812
  8
0
 10
169.9670631185163074
 20
200.1882992948042954
 30
0.0
  0
VERTEX
  5
A813
  8
0
 10
170.0130404551422032
 20
199.4168235689230073
 30
0.0
  0
VERTEX
  5
A814
  8
0
 10
170.0396534839395031
 20
198.6647121508704004
 30
0.0
  0
VERTEX
  5
A815
  8
0
 10
170.0482464996998999
 20
197.9306207457890991
 30
0.0
  0
SEQEND
  5
A816
  8
0
  0
LINE
  5
A44D
  8
0
 10
163.2002405633998876
 20
170.3306216398891024
 30
0.0
 11
173.7002405633998876
 21
170.3306216398891024
 31
0.0
  0
LINE
  5
A44E
  8
0
 10
173.7002405633998876
 20
170.3306216398891024
 30
0.0
 11
173.7002405633998876
 21
182.8306216398891024
 31
0.0
  0
LINE
  5
A44F
  8
0
 10
173.7002405633998876
 20
182.8306216398891024
 30
0.0
 11
163.2002405633998876
 21
182.8306216398891024
 31
0.0
  0
LINE
  5
A450
  8
0
 10
227.2035303643000077
 20
199.9306209693891958
 30
0.0
 11
227.2035303643000077
 21
187.9306208649892085
 31
0.0
  0
LINE
  5
A451
  8
0
 10
232.9002405633999047
 20
169.9306216398890967
 30
0.0
 11
232.9002405633999047
 21
203.9306206936892067
 31
0.0
  0
POLYLINE
  5
A452
  8
0
 10
231.4345815098965318
 20
203.9306206936890078
 30
0.0
 66
     1
 70
     8
  0
VERTEX
  8
0
  5
ABA1
 10
231.435
 20
203.931
 30
0.00000
  70
    32
  0
VERTEX
  8
0
  5
ABA2
 10
231.443
 20
203.978
 30
0.00000
  70
    32
  0
VERTEX
  8
0
  5
ABA3
 10
231.451
 20
204.025
 30
0.00000
  70
    32
  0
VERTEX
  8
0
  5
ABA4
 10
231.459
 20
204.072
 30
0.00000
  70
    32
  0
VERTEX
  8
0
  5
ABA5
 10
231.468
 20
204.120
 30
0.00000
  70
    32
  0
VERTEX
  8
0
  5
ABA6
 10
231.476
 20
204.167
 30
0.00000
  70
    32
  0
VERTEX
  8
0
  5
ABA7
 10
231.484
 20
204.214
 30
0.00000
  70
    32
  0
VERTEX
  8
0
  5
ABA8
 10
231.492
 20
204.262
 30
0.00000
  70
    32
  0
VERTEX
  8
0
  5
ABA9
 10
231.500
 20
204.309
 30
0.00000
  70
    32
  0
VERTEX
  8
0
  5
ABAA
 10
231.508
 20
204.356
 30
0.00000
  70
    32
  0
VERTEX
  8
0
  5
ABAB
 10
231.516
 20
204.403
 30
0.00000
  70
    32
  0
VERTEX
  8
0
  5
ABAC
 10
231.524
 20
204.451
 30
0.00000
  70
    32
  0
VERTEX
  8
0
  5
ABAD
 10
231.532
 20
204.498
 30
0.00000
  70
    32
  0
VERTEX
  8
0
  5
ABAE
 10
231.540
 20
204.545
 30
0.00000
  70
    32
  0
VERTEX
  8
0
  5
ABAF
 10
231.548
 20
204.592
 30
0.00000
  70
    32
  0
VERTEX
  8
0
  5
ABB0
 10
231.556
 20
204.640
 30
0.00000
  70
    32
  0
VERTEX
  8
0
  5
ABB1
 10
231.564
 20
204.687
 30
0.00000
  70
    32
  0
VERTEX
  8
0
  5
ABB2
 10
231.572
 20
204.734
 30
0.00000
  70
    32
  0
VERTEX
  8
0
  5
ABB3
 10
231.580
 20
204.781
 30
0.00000
  70
    32
  0
VERTEX
  8
0
  5
ABB4
 10
231.588
 20
204.828
 30
0.00000
  70
    32
  0
VERTEX
  8
0
  5
ABB5
 10
231.596
 20
204.876
 30
0.00000
  70
    32
  0
VERTEX
  8
0
  5
ABB6
 10
231.604
 20
204.923
 30
0.00000
  70
    32
  0
VERTEX
  8
0
  5
ABB7
 10
231.612
 20
204.970
 30
0.00000
  70
    32
  0
VERTEX
  8
0
  5
ABB8
 10
231.619
 20
205.017
 30
0.00000
  70
    32
  0
VERTEX
  8
0
  5
ABB9
 10
231.627
 20
205.064
 30
0.00000
  70
    32
  0
VERTEX
  8
0
  5
ABBA
 10
231.635
 20
205.111
 30
0.00000
  70
    32
  0
VERTEX
  8
0
  5
ABBB
 10
231.643
 20
205.159
 30
0.00000
  70
    32
  0
VERTEX
  8
0
  5
ABBC
 10
231.650
 20
205.206
 30
0.00000
  70
    32
  0
VERTEX
  8
0
  5
ABBD
 10
231.658
 20
205.253
 30
0.00000
  70
    32
  0
VERTEX
  8
0
  5
ABBE
 10
231.665
 20
205.300
 30
0.00000
  70
    32
  0
VERTEX
  8
0
  5
ABBF
 10
231.673
 20
205.347
 30
0.00000
  70
    32
  0
VERTEX
  8
0
  5
ABC0
 10
231.681
 20
205.394
 30
0.00000
  70
    32
  0
VERTEX
  8
0
  5
ABC1
 10
231.688
 20
205.441
 30
0.00000
  70
    32
  0
VERTEX
  8
0
  5
ABC2
 10
231.696
 20
205.489
 30
0.00000
  70
    32
  0
VERTEX
  8
0
  5
ABC3
 10
231.703
 20
205.536
 30
0.00000
  70
    32
  0
VERTEX
  8
0
  5
ABC4
 10
231.711
 20
205.583
 30
0.00000
  70
    32
  0
VERTEX
  8
0
  5
ABC5
 10
231.718
 20
205.630
 30
0.00000
  70
    32
  0
VERTEX
  8
0
  5
ABC6
 10
231.726
 20
205.677
 30
0.00000
  70
    32
  0
VERTEX
  8
0
  5
ABC7
 10
231.733
 20
205.724
 30
0.00000
  70
    32
  0
VERTEX
  8
0
  5
ABC8
 10
231.741
 20
205.771
 30
0.00000
  70
    32
  0
VERTEX
  8
0
  5
ABC9
 10
231.748
 20
205.818
 30
0.00000
  70
    32
  0
VERTEX
  8
0
  5
ABCA
 10
231.755
 20
205.865
 30
0.00000
  70
    32
  0
VERTEX
  8
0
  5
ABCB
 10
231.763
 20
205.912
 30
0.00000
  70
    32
  0
VERTEX
  8
0
  5
ABCC
 10
231.770
 20
205.959
 30
0.00000
  70
    32
  0
VERTEX
  8
0
  5
ABCD
 10
231.777
 20
206.006
 30
0.00000
  70
    32
  0
VERTEX
  8
0
  5
ABCE
 10
231.785
 20
206.053
 30
0.00000
  70
    32
  0
VERTEX
  8
0
  5
ABCF
 10
231.792
 20
206.100
 30
0.00000
  70
    32
  0
VERTEX
  8
0
  5
ABD0
 10
231.799
 20
206.147
 30
0.00000
  70
    32
  0
VERTEX
  8
0
  5
ABD1
 10
231.806
 20
206.194
 30
0.00000
  70
    32
  0
VERTEX
  8
0
  5
ABD2
 10
231.813
 20
206.241
 30
0.00000
  70
    32
  0
VERTEX
  8
0
  5
ABD3
 10
231.821
 20
206.288
 30
0.00000
  70
    32
  0
VERTEX
  8
0
  5
ABD4
 10
231.828
 20
206.335
 30
0.00000
  70
    32
  0
VERTEX
  8
0
  5
ABD5
 10
231.835
 20
206.382
 30
0.00000
  70
    32
  0
VERTEX
  8
0
  5
ABD6
 10
231.842
 20
206.429
 30
0.00000
  70
    32
  0
VERTEX
  8
0
  5
ABD7
 10
231.849
 20
206.476
 30
0.00000
  70
    32
  0
VERTEX
  8
0
  5
ABD8
 10
231.856
 20
206.523
 30
0.00000
  70
    32
  0
VERTEX
  8
0
  5
ABD9
 10
231.863
 20
206.570
 30
0.00000
  70
    32
  0
VERTEX
  8
0
  5
ABDA
 10
231.870
 20
206.617
 30
0.00000
  70
    32
  0
VERTEX
  8
0
  5
ABDB
 10
231.877
 20
206.664
 30
0.00000
  70
    32
  0
VERTEX
  8
0
  5
ABDC
 10
231.884
 20
206.711
 30
0.00000
  70
    32
  0
VERTEX
  8
0
  5
ABDD
 10
231.891
 20
206.758
 30
0.00000
  70
    32
  0
VERTEX
  8
0
  5
ABDE
 10
231.898
 20
206.805
 30
0.00000
  70
    32
  0
VERTEX
  8
0
  5
ABDF
 10
231.905
 20
206.852
 30
0.00000
  70
    32
  0
VERTEX
  8
0
  5
ABE0
 10
231.911
 20
206.899
 30
0.00000
  70
    32
  0
VERTEX
  8
0
  5
ABE1
 10
231.918
 20
206.946
 30
0.00000
  70
    32
  0
VERTEX
  8
0
  5
ABE2
 10
231.925
 20
206.993
 30
0.00000
  70
    32
  0
VERTEX
  8
0
  5
ABE3
 10
231.932
 20
207.040
 30
0.00000
  70
    32
  0
VERTEX
  8
0
  5
ABE4
 10
231.939
 20
207.086
 30
0.00000
  70
    32
  0
VERTEX
  8
0
  5
ABE5
 10
231.945
 20
207.133
 30
0.00000
  70
    32
  0
VERTEX
  8
0
  5
ABE6
 10
231.952
 20
207.180
 30
0.00000
  70
    32
  0
VERTEX
  8
0
  5
ABE7
 10
231.959
 20
207.227
 30
0.00000
  70
    32
  0
VERTEX
  8
0
  5
ABE8
 10
231.965
 20
207.274
 30
0.00000
  70
    32
  0
VERTEX
  8
0
  5
ABE9
 10
231.972
 20
207.321
 30
0.00000
  70
    32
  0
VERTEX
  8
0
  5
ABEA
 10
231.979
 20
207.368
 30
0.00000
  70
    32
  0
VERTEX
  8
0
  5
ABEB
 10
231.985
 20
207.414
 30
0.00000
  70
    32
  0
VERTEX
  8
0
  5
ABEC
 10
231.992
 20
207.461
 30
0.00000
  70
    32
  0
VERTEX
  8
0
  5
ABED
 10
231.998
 20
207.508
 30
0.00000
  70
    32
  0
VERTEX
  8
0
  5
ABEE
 10
232.005
 20
207.555
 30
0.00000
  70
    32
  0
VERTEX
  8
0
  5
ABEF
 10
232.011
 20
207.602
 30
0.00000
  70
    32
  0
VERTEX
  8
0
  5
ABF0
 10
232.018
 20
207.648
 30
0.00000
  70
    32
  0
VERTEX
  8
0
  5
ABF1
 10
232.024
 20
207.695
 30
0.00000
  70
    32
  0
VERTEX
  8
0
  5
ABF2
 10
232.031
 20
207.742
 30
0.00000
  70
    32
  0
VERTEX
  8
0
  5
ABF3
 10
232.037
 20
207.789
 30
0.00000
  70
    32
  0
VERTEX
  8
0
  5
ABF4
 10
232.044
 20
207.836
 30
0.00000
  70
    32
  0
VERTEX
  8
0
  5
ABF5
 10
232.050
 20
207.882
 30
0.00000
  70
    32
  0
VERTEX
  8
0
  5
ABF6
 10
232.056
 20
207.929
 30
0.00000
  70
    32
  0
VERTEX
  8
0
  5
ABF7
 10
232.063
 20
207.976
 30
0.00000
  70
    32
  0
VERTEX
  8
0
  5
ABF8
 10
232.069
 20
208.022
 30
0.00000
  70
    32
  0
VERTEX
  8
0
  5
ABF9
 10
232.075
 20
208.069
 30
0.00000
  70
    32
  0
VERTEX
  8
0
  5
ABFA
 10
232.081
 20
208.116
 30
0.00000
  70
    32
  0
VERTEX
  8
0
  5
ABFB
 10
232.088
 20
208.163
 30
0.00000
  70
    32
  0
VERTEX
  8
0
  5
ABFC
 10
232.094
 20
208.209
 30
0.00000
  70
    32
  0
VERTEX
  8
0
  5
ABFD
 10
232.100
 20
208.256
 30
0.00000
  70
    32
  0
VERTEX
  8
0
  5
ABFE
 10
232.106
 20
208.303
 30
0.00000
  70
    32
  0
VERTEX
  8
0
  5
ABFF
 10
232.112
 20
208.349
 30
0.00000
  70
    32
  0
VERTEX
  8
0
  5
AC00
 10
232.118
 20
208.396
 30
0.00000
  70
    32
  0
VERTEX
  8
0
  5
AC01
 10
232.125
 20
208.443
 30
0.00000
  70
    32
  0
VERTEX
  8
0
  5
AC02
 10
232.131
 20
208.489
 30
0.00000
  70
    32
  0
VERTEX
  8
0
  5
AC03
 10
232.137
 20
208.536
 30
0.00000
  70
    32
  0
VERTEX
  8
0
  5
AC04
 10
232.143
 20
208.582
 30
0.00000
  70
    32
  0
VERTEX
  8
0
  5
AC05
 10
232.149
 20
208.629
 30
0.00000
  70
    32
  0
VERTEX
  8
0
  5
AC06
 10
232.155
 20
208.676
 30
0.00000
  70
    32
  0
VERTEX
  8
0
  5
AC07
 10
232.160
 20
208.722
 30
0.00000
  70
    32
  0
VERTEX
  8
0
  5
AC08
 10
232.166
 20
208.769
 30
0.00000
  70
    32
  0
VERTEX
  8
0
  5
AC09
 10
232.172
 20
208.815
 30
0.00000
  70
    32
  0
VERTEX
  8
0
  5
AC0A
 10
232.178
 20
208.862
 30
0.00000
  70
    32
  0
VERTEX
  8
0
  5
AC0B
 10
232.184
 20
208.909
 30
0.00000
  70
    32
  0
VERTEX
  8
0
  5
AC0C
 10
232.190
 20
208.955
 30
0.00000
  70
    32
  0
VERTEX
  8
0
  5
AC0D
 10
232.196
 20
209.002
 30
0.00000
  70
    32
  0
VERTEX
  8
0
  5
AC0E
 10
232.201
 20
209.048
 30
0.00000
  70
    32
  0
VERTEX
  8
0
  5
AC0F
 10
232.207
 20
209.095
 30
0.00000
  70
    32
  0
VERTEX
  8
0
  5
AC10
 10
232.213
 20
209.141
 30
0.00000
  70
    32
  0
VERTEX
  8
0
  5
AC11
 10
232.219
 20
209.188
 30
0.00000
  70
    32
  0
VERTEX
  8
0
  5
AC12
 10
232.224
 20
209.234
 30
0.00000
  70
    32
  0
VERTEX
  8
0
  5
AC13
 10
232.230
 20
209.281
 30
0.00000
  70
    32
  0
VERTEX
  8
0
  5
AC14
 10
232.236
 20
209.327
 30
0.00000
  70
    32
  0
VERTEX
  8
0
  5
AC15
 10
232.241
 20
209.374
 30
0.00000
  70
    32
  0
VERTEX
  8
0
  5
AC16
 10
232.247
 20
209.420
 30
0.00000
  70
    32
  0
VERTEX
  8
0
  5
AC17
 10
232.252
 20
209.467
 30
0.00000
  70
    32
  0
VERTEX
  8
0
  5
AC18
 10
232.258
 20
209.513
 30
0.00000
  70
    32
  0
VERTEX
  8
0
  5
AC19
 10
232.263
 20
209.559
 30
0.00000
  70
    32
  0
VERTEX
  8
0
  5
AC1A
 10
232.269
 20
209.606
 30
0.00000
  70
    32
  0
VERTEX
  8
0
  5
AC1B
 10
232.274
 20
209.652
 30
0.00000
  70
    32
  0
VERTEX
  8
0
  5
AC1C
 10
232.280
 20
209.699
 30
0.00000
  70
    32
  0
VERTEX
  8
0
  5
AC1D
 10
232.285
 20
209.745
 30
0.00000
  70
    32
  0
VERTEX
  8
0
  5
AC1E
 10
232.291
 20
209.792
 30
0.00000
  70
    32
  0
VERTEX
  8
0
  5
AC1F
 10
232.296
 20
209.838
 30
0.00000
  70
    32
  0
VERTEX
  8
0
  5
AC20
 10
232.301
 20
209.884
 30
0.00000
  70
    32
  0
VERTEX
  8
0
  5
AC21
 10
232.307
 20
209.931
 30
0.00000
  70
    32
  0
SEQEND
  8
0
  5
AC22
  0
LINE
  5
A453
  8
0
 10
232.9002405633999047
 20
203.9306206936892067
 30
0.0
 11
231.4345815098965033
 21
203.9306206936892067
 31
0.0
  0
POLYLINE
  5
A454
  8
0
 66
     1
 10
0.0
 20
0.0
 30
0.0
 70
   128
  0
VERTEX
  5
A817
  8
0
 10
226.5249296208999112
 20
183.430621058789086
 30
0.0
  0
VERTEX
  5
A818
  8
0
 10
226.5868737478998867
 20
183.9980833540892036
 30
0.0
  0
VERTEX
  5
A819
  8
0
 10
226.755631261099893
 20
184.4985463032890891
 30
0.0
  0
VERTEX
  5
A81A
  8
0
 10
227.0196500350999997
 20
184.9265635321891921
 30
0.0
  0
VERTEX
  5
A81B
  8
0
 10
227.3970498820999069
 20
185.2688059518891066
 30
0.0
  0
VERTEX
  5
A81C
  8
0
 10
227.8718306799999027
 20
185.4292691061891105
 30
0.0
  0
VERTEX
  5
A81D
  8
0
 10
228.1265716185997974
 20
185.4032963821890974
 30
0.0
  0
VERTEX
  5
A81E
  8
0
 10
228.3691252698999108
 20
185.295227573289111
 30
0.0
  0
VERTEX
  5
A81F
  8
0
 10
228.5835138638998956
 20
185.1109169731890916
 30
0.0
  0
VERTEX
  5
A820
  8
0
 10
228.771521814699895
 20
184.849507764989113
 30
0.0
  0
VERTEX
  5
A821
  8
0
 10
228.9063549717999138
 20
184.5621463218892018
 30
0.0
  0
VERTEX
  5
A822
  8
0
 10
229.0093573858999036
 20
184.2268068651891042
 30
0.0
  0
VERTEX
  5
A823
  8
0
 10
229.0965086897998901
 20
183.5795842418891084
 30
0.0
  0
VERTEX
  5
A824
  8
0
 10
229.0710705449999125
 20
182.975751937389191
 30
0.0
  0
VERTEX
  5
A825
  8
0
 10
228.9541113306999023
 20
182.4349478194891105
 30
0.0
  0
VERTEX
  5
A826
  8
0
 10
228.7494755466998981
 20
181.9743659654891133
 30
0.0
  0
VERTEX
  5
A827
  8
0
 10
228.4522588481999037
 20
181.6258687833891088
 30
0.0
  0
VERTEX
  5
A828
  8
0
 10
228.0582907726999053
 20
181.4426590064890945
 30
0.0
  0
VERTEX
  5
A829
  8
0
 10
227.8211220285000138
 20
181.4365122774891006
 30
0.0
  0
VERTEX
  5
A82A
  8
0
 10
227.5812263717999997
 20
181.4982980797892083
 30
0.0
  0
VERTEX
  5
A82B
  8
0
 10
227.3260048707998919
 20
181.6404328057890893
 30
0.0
  0
VERTEX
  5
A82C
  8
0
 10
227.0839671720999036
 20
181.8592246929891019
 30
0.0
  0
VERTEX
  5
A82D
  8
0
 10
226.7605803092999111
 20
182.3521364787891059
 30
0.0
  0
VERTEX
  5
A82E
  8
0
 10
226.5820569475999946
 20
182.8852963010891131
 30
0.0
  0
VERTEX
  5
A82F
  8
0
 10
226.5249296208999112
 20
183.430621058789086
 30
0.0
  0
SEQEND
  5
A830
  8
0
  0
POLYLINE
  5
A455
  8
0
 66
     1
 10
0.0
 20
0.0
 30
0.0
 70
   128
  0
VERTEX
  5
A831
  8
0
 10
226.5249296208999112
 20
204.4306207755892046
 30
0.0
  0
VERTEX
  5
A832
  8
0
 10
226.5868737478998867
 20
204.9980840022892039
 30
0.0
  0
VERTEX
  5
A833
  8
0
 10
226.755631261099893
 20
205.4985455544891124
 30
0.0
  0
VERTEX
  5
A834
  8
0
 10
227.0196500350999997
 20
205.9265632489891118
 30
0.0
  0
VERTEX
  5
A835
  8
0
 10
227.3970498820999069
 20
206.2688061343891945
 30
0.0
  0
VERTEX
  5
A836
  8
0
 10
227.8718306799999027
 20
206.4292692886891132
 30
0.0
  0
VERTEX
  5
A837
  8
0
 10
228.1265716185997974
 20
206.4032970303890977
 30
0.0
  0
VERTEX
  5
A838
  8
0
 10
228.3691252698999108
 20
206.2952275229891939
 30
0.0
  0
VERTEX
  5
A839
  8
0
 10
228.5835138638998956
 20
206.1109176213892056
 30
0.0
  0
VERTEX
  5
A83A
  8
0
 10
228.771521814699895
 20
205.8495074818891908
 30
0.0
  0
VERTEX
  5
A83B
  8
0
 10
228.9063549717999138
 20
205.562146504489192
 30
0.0
  0
VERTEX
  5
A83C
  8
0
 10
229.0093573858999036
 20
205.2268065819891092
 30
0.0
  0
VERTEX
  5
A83D
  8
0
 10
229.0965086897998901
 20
204.5795844244892123
 30
0.0
  0
VERTEX
  5
A83E
  8
0
 10
229.0710705449999125
 20
203.975752585589106
 30
0.0
  0
VERTEX
  5
A83F
  8
0
 10
228.9541113306999023
 20
203.4349475363891031
 30
0.0
  0
VERTEX
  5
A840
  8
0
 10
228.7494755466998981
 20
202.9743652167890957
 30
0.0
  0
VERTEX
  5
A841
  8
0
 10
228.4522588481999037
 20
202.6258685002891866
 30
0.0
  0
VERTEX
  5
A842
  8
0
 10
228.0582907726999053
 20
202.4426587233890871
 30
0.0
  0
VERTEX
  5
A843
  8
0
 10
227.8211220285000138
 20
202.4365115287891967
 30
0.0
  0
VERTEX
  5
A844
  8
0
 10
227.5812263717999997
 20
202.4982982622892109
 30
0.0
  0
VERTEX
  5
A845
  8
0
 10
227.3260048707998919
 20
202.6404325226891103
 30
0.0
  0
VERTEX
  5
A846
  8
0
 10
227.0839671720999036
 20
202.8592239441890968
 30
0.0
  0
VERTEX
  5
A847
  8
0
 10
226.7605803092999111
 20
203.3521371269891915
 30
0.0
  0
VERTEX
  5
A848
  8
0
 10
226.5820569475999946
 20
203.8852969492891987
 30
0.0
  0
VERTEX
  5
A849
  8
0
 10
226.5249296208999112
 20
204.4306207755892046
 30
0.0
  0
SEQEND
  5
A84A
  8
0
  0
LINE
  5
A456
  8
0
 10
183.4094944524632922
 20
210.9043666591853992
 30
0.0
 11
183.4094944524632922
 21
210.9043666591853992
 31
0.0
  0
LINE
  5
A457
  8
0
 10
183.4094944517080137
 20
210.9043666594020863
 30
0.0
 11
183.4094944517080137
 21
210.9043666594020863
 31
0.0
  0
POLYLINE
  5
A458
  8
0
 66
     1
 10
0.0
 20
0.0
 30
0.0
 70
   128
  0
VERTEX
  5
A84B
  8
0
 10
227.074887591158614
 20
204.4306216398890967
 30
0.0
  0
VERTEX
  5
A84C
  8
0
 10
227.112239901563612
 20
204.071618789923491
 30
0.0
  0
VERTEX
  5
A84D
  8
0
 10
227.2148558587356888
 20
203.7546727671069959
 30
0.0
  0
VERTEX
  5
A84E
  8
0
 10
227.3758867740183973
 20
203.4862790178310092
 30
0.0
  0
VERTEX
  5
A84F
  8
0
 10
227.6048604991117088
 20
203.2766635074775934
 30
0.0
  0
VERTEX
  5
A850
  8
0
 10
227.8942021004729099
 20
203.1812233201956133
 30
0.0
  0
VERTEX
  5
A851
  8
0
 10
228.2043152311628091
 20
203.265729995101907
 30
0.0
  0
VERTEX
  5
A852
  8
0
 10
228.4647317908159039
 20
203.54568142893919
 30
0.0
  0
VERTEX
  5
A853
  8
0
 10
228.6020904525285005
 20
203.8670620182188884
 30
0.0
  0
VERTEX
  5
A854
  8
0
 10
228.673593763743213
 20
204.2639523547767908
 30
0.0
  0
VERTEX
  5
A855
  8
0
 10
228.6694194623923977
 20
204.6442053070360032
 30
0.0
  0
VERTEX
  5
A856
  8
0
 10
228.604714602379687
 20
204.9851928829565111
 30
0.0
  0
VERTEX
  5
A857
  8
0
 10
228.4842131998576065
 20
205.2816241459609898
 30
0.0
  0
VERTEX
  5
A858
  8
0
 10
228.3050998090918995
 20
205.5173144664497045
 30
0.0
  0
VERTEX
  5
A859
  8
0
 10
228.0645504851109138
 20
205.6594558584191077
 30
0.0
  0
VERTEX
  5
A85A
  8
0
 10
227.7709534316562099
 20
205.659482106245207
 30
0.0
  0
VERTEX
  5
A85B
  8
0
 10
227.461834320574809
 20
205.4709142072541965
 30
0.0
  0
VERTEX
  5
A85C
  8
0
 10
227.2489394825794875
 20
205.1770992214206899
 30
0.0
  0
VERTEX
  5
A85D
  8
0
 10
227.12473875591499
 20
204.8440127679882039
 30
0.0
  0
VERTEX
  5
A85E
  8
0
 10
227.0763325195021878
 20
204.5018832318747002
 30
0.0
  0
VERTEX
  5
A85F
  8
0
 10
227.074887591158614
 20
204.4306216398890967
 30
0.0
  0
SEQEND
  5
A860
  8
0
  0
POLYLINE
  5
A459
  8
0
 66
     1
 10
0.0
 20
0.0
 30
0.0
 70
   128
  0
VERTEX
  5
A861
  8
0
 10
227.074887591158614
 20
183.4306216398890967
 30
0.0
  0
VERTEX
  5
A862
  8
0
 10
227.112239901563612
 20
183.0716187899234058
 30
0.0
  0
VERTEX
  5
A863
  8
0
 10
227.2148558587356888
 20
182.7546727671069959
 30
0.0
  0
VERTEX
  5
A864
  8
0
 10
227.3758867740183973
 20
182.4862790178310092
 30
0.0
  0
VERTEX
  5
A865
  8
0
 10
227.6048604991117088
 20
182.2766635074775934
 30
0.0
  0
VERTEX
  5
A866
  8
0
 10
227.8942021004729099
 20
182.1812233201956133
 30
0.0
  0
VERTEX
  5
A867
  8
0
 10
228.2043152311628091
 20
182.265729995101907
 30
0.0
  0
VERTEX
  5
A868
  8
0
 10
228.4647317908159039
 20
182.54568142893919
 30
0.0
  0
VERTEX
  5
A869
  8
0
 10
228.6020904525285005
 20
182.8670620182188884
 30
0.0
  0
VERTEX
  5
A86A
  8
0
 10
228.673593763743213
 20
183.2639523547767908
 30
0.0
  0
VERTEX
  5
A86B
  8
0
 10
228.6694194623923977
 20
183.6442053070360032
 30
0.0
  0
VERTEX
  5
A86C
  8
0
 10
228.604714602379687
 20
183.9851928829565111
 30
0.0
  0
VERTEX
  5
A86D
  8
0
 10
228.4842131998576065
 20
184.2816241459609898
 30
0.0
  0
VERTEX
  5
A86E
  8
0
 10
228.3050998090918995
 20
184.5173144664497045
 30
0.0
  0
VERTEX
  5
A86F
  8
0
 10
228.0645504851109138
 20
184.6594558584191077
 30
0.0
  0
VERTEX
  5
A870
  8
0
 10
227.7709534316562099
 20
184.659482106245207
 30
0.0
  0
VERTEX
  5
A871
  8
0
 10
227.461834320574809
 20
184.4709142072541965
 30
0.0
  0
VERTEX
  5
A872
  8
0
 10
227.2489394825794875
 20
184.1770992214206046
 30
0.0
  0
VERTEX
  5
A873
  8
0
 10
227.12473875591499
 20
183.8440127679882039
 30
0.0
  0
VERTEX
  5
A874
  8
0
 10
227.0763325195021878
 20
183.5018832318745865
 30
0.0
  0
VERTEX
  5
A875
  8
0
 10
227.074887591158614
 20
183.4306216398890967
 30
0.0
  0
SEQEND
  5
A876
  8
0
  0
LINE
  5
A45A
  8
1
 10
231.0920071761364056
 20
204.4306216398890967
 30
0.0
 11
224.5139851241108886
 21
204.4306216398890967
 31
0.0
  0
LINE
  5
A45B
  8
1
 10
227.9177519583836045
 20
208.4349554230751949
 30
0.0
 11
227.9177519583836045
 21
200.4383444015554119
 31
0.0
  0
POLYLINE
  5
A45C
  8
3
 66
     1
 10
0.0
 20
0.0
 30
0.0
 70
   128
  0
VERTEX
  5
A877
  8
3
 10
226.8894505750263875
 20
204.4306216398890967
 30
0.0
  0
VERTEX
  5
A878
  8
3
 10
226.935020697521395
 20
203.9926352430217946
 30
0.0
  0
VERTEX
  5
A879
  8
3
 10
227.0602129998866872
 20
203.6059585173408095
 30
0.0
  0
VERTEX
  5
A87A
  8
3
 10
227.2566720262585136
 20
203.2785159602738077
 30
0.0
  0
VERTEX
  5
A87B
  8
3
 10
227.5360218332043019
 20
203.0227833327583937
 30
0.0
  0
VERTEX
  5
A87C
  8
3
 10
227.8890209401924949
 20
202.9063455280222001
 30
0.0
  0
VERTEX
  5
A87D
  8
3
 10
228.2673614819042882
 20
203.0094443587335888
 30
0.0
  0
VERTEX
  5
A87E
  8
3
 10
228.5850718027498942
 20
203.350987384968505
 30
0.0
  0
VERTEX
  5
A87F
  8
3
 10
228.7526504872305111
 20
203.7430743178028081
 30
0.0
  0
VERTEX
  5
A880
  8
3
 10
228.8398851084766932
 20
204.2272837564661927
 30
0.0
  0
VERTEX
  5
A881
  8
3
 10
228.8347924268772999
 20
204.6911954509670863
 30
0.0
  0
VERTEX
  5
A882
  8
3
 10
228.7558519713923033
 20
205.1072030669741935
 30
0.0
  0
VERTEX
  5
A883
  8
3
 10
228.6088392802307112
 20
205.4688516188300014
 30
0.0
  0
VERTEX
  5
A884
  8
3
 10
228.3903194866979049
 20
205.7563957267869057
 30
0.0
  0
VERTEX
  5
A885
  8
3
 10
228.0968473549600901
 20
205.9298093810807018
 30
0.0
  0
VERTEX
  5
A886
  8
3
 10
227.7386565618068914
 20
205.9298414036420013
 30
0.0
  0
VERTEX
  5
A887
  8
3
 10
227.3615287321021015
 20
205.6997870331771878
 30
0.0
  0
VERTEX
  5
A888
  8
3
 10
227.1017952981914902
 20
205.3413303607491116
 30
0.0
  0
VERTEX
  5
A889
  8
3
 10
226.9502694014882138
 20
204.9349621784402018
 30
0.0
  0
VERTEX
  5
A88A
  8
3
 10
226.8912133993578095
 20
204.5175613617097099
 30
0.0
  0
VERTEX
  5
A88B
  8
3
 10
226.8894505750263875
 20
204.4306216398890967
 30
0.0
  0
SEQEND
  5
A88C
  8
3
  0
LINE
  5
A45D
  8
1
 10
231.092007185933312
 20
183.4306216398879883
 30
0.0
 11
224.5139851910622895
 21
183.4306216398879883
 31
0.0
  0
LINE
  5
A45E
  8
1
 10
227.9177519583836045
 20
187.4349555274822876
 30
0.0
 11
227.9177519583836045
 21
179.438345062283986
 31
0.0
  0
POLYLINE
  5
A45F
  8
3
 66
     1
 10
0.0
 20
0.0
 30
0.0
 70
   128
  0
VERTEX
  5
A88D
  8
3
 10
226.8894505750263875
 20
183.430621639888102
 30
0.0
  0
VERTEX
  5
A88E
  8
3
 10
226.935020697521395
 20
182.9926352430206862
 30
0.0
  0
VERTEX
  5
A88F
  8
3
 10
227.0602129998866872
 20
182.6059585173397011
 30
0.0
  0
VERTEX
  5
A890
  8
3
 10
227.2566720262585136
 20
182.2785159602726992
 30
0.0
  0
VERTEX
  5
A891
  8
3
 10
227.5360218332043019
 20
182.0227833327573137
 30
0.0
  0
VERTEX
  5
A892
  8
3
 10
227.8890209401924949
 20
181.9063455280212054
 30
0.0
  0
VERTEX
  5
A893
  8
3
 10
228.2673614819042882
 20
182.0094443587325088
 30
0.0
  0
VERTEX
  5
A894
  8
3
 10
228.5850718027498942
 20
182.3509873849673966
 30
0.0
  0
VERTEX
  5
A895
  8
3
 10
228.7526504872305111
 20
182.7430743178015859
 30
0.0
  0
VERTEX
  5
A896
  8
3
 10
228.8398851084766932
 20
183.2272837564651979
 30
0.0
  0
VERTEX
  5
A897
  8
3
 10
228.8347924268772999
 20
183.6911954509660916
 30
0.0
  0
VERTEX
  5
A898
  8
3
 10
228.7558519713923033
 20
184.1072030669731134
 30
0.0
  0
VERTEX
  5
A899
  8
3
 10
228.6088392802307112
 20
184.4688516188290066
 30
0.0
  0
VERTEX
  5
A89A
  8
3
 10
228.3903194866979049
 20
184.7563957267859109
 30
0.0
  0
VERTEX
  5
A89B
  8
3
 10
228.0968473549600901
 20
184.9298093810795933
 30
0.0
  0
VERTEX
  5
A89C
  8
3
 10
227.7386565618068914
 20
184.9298414036410065
 30
0.0
  0
VERTEX
  5
A89D
  8
3
 10
227.3615287321021015
 20
184.6997870331761931
 30
0.0
  0
VERTEX
  5
A89E
  8
3
 10
227.1017952981914902
 20
184.3413303607480032
 30
0.0
  0
VERTEX
  5
A89F
  8
3
 10
226.9502694014882138
 20
183.934962178439207
 30
0.0
  0
VERTEX
  5
A8A0
  8
3
 10
226.8912133993578095
 20
183.5175613617084878
 30
0.0
  0
VERTEX
  5
A8A1
  8
3
 10
226.8894505750263875
 20
183.430621639888102
 30
0.0
  0
SEQEND
  5
A8A2
  8
3
  0
LINE
  5
A460
  8
2
 10
185.650240563399791
 20
175.9306216398890967
 30
0.0
 11
217.1502405633999047
 21
175.9306216398890967
 31
0.0
  0
LINE
  5
A461
  8
2
 10
217.1502405633999047
 20
169.9306216398890967
 30
0.0
 11
217.1502405633999047
 21
175.9306216398890967
 31
0.0
  0
LINE
  5
A462
  8
2
 10
185.650240563399791
 20
175.9306216398890967
 30
0.0
 11
185.650240563399791
 21
169.9306216398890967
 31
0.0
  0
ARC
  5
A463
  8
0
 10
165.3002406193407126
 20
197.4306202056862105
 30
0.0
 40
2.5000000558895441
 50
90.0242294180868754
 51
269.9999987188379009
  0
LINE
  5
A464
  8
0
 10
169.2318852602211052
 20
199.9306200380380858
 30
0.0
 11
169.0002397230138911
 21
199.9306200380380858
 31
0.0
  0
LINE
  5
A465
  8
0
 10
169.7728798320760859
 20
194.9306201497967947
 30
0.0
 11
170.0482464996998999
 21
194.9306201497967947
 31
0.0
  0
LINE
  5
A466
  8
0
 10
169.2323679980711972
 20
189.0972925661073134
 30
0.0
 11
168.2366351541953122
 21
189.1895558413991125
 31
0.0
  0
LINE
  5
A467
  8
0
 10
170.0482464996998999
 20
197.9024746510029047
 30
0.0
 11
169.2348026266564887
 21
189.1235461301114071
 31
0.0
  0
LINE
  5
A468
  8
0
 10
168.6517085383351002
 20
182.8306216398891877
 30
0.0
 11
169.2348026266564887
 21
189.1235461301114071
 31
0.0
  0
LINE
  5
A469
  8
0
 10
169.9002512326707972
 20
201.4145754585917985
 30
0.0
 11
169.3739049664011134
 21
201.4633460278566872
 31
0.0
  0
LINE
  5
A46A
  8
0
 10
165.6144388547411097
 20
199.9306200380380858
 30
0.0
 11
165.2991834115445897
 21
199.9306200380380858
 31
0.0
  0
ARC
  5
A46B
  8
0
 10
165.6380005796544879
 20
197.4306200939174119
 30
0.0
 40
2.50011097263384
 50
90.5399789828464208
 51
269.4600210171536219
  0
LINE
  5
A46C
  8
0
 10
165.6144388547411097
 20
194.9306201497967947
 30
0.0
 11
165.3002405634395018
 21
194.9306201497967947
 31
0.0
  0
LINE
  5
A46D
  8
0
 10
165.6144388547411097
 20
194.9306201497967947
 30
0.0
 11
168.7685937216749892
 21
194.9306201497967947
 31
0.0
  0
LINE
  5
A46E
  8
0
 10
169.0002397230138911
 20
199.9306200380380858
 30
0.0
 11
165.6144388547411097
 21
199.9306200380380858
 31
0.0
  0
LINE
  5
A46F
  8
0
 10
169.3739049664011134
 20
201.4633460278566872
 30
0.0
 11
167.6474264586483116
 21
182.8306216398891024
 31
0.0
  0
ARC
  5
A470
  8
0
 10
199.5868476368183906
 20
183.8006969434474911
 30
0.0
 40
30.7963728629757902
 50
178.9056996414306866
 51
181.8050962236393104
  0
ARC
  5
A471
  8
0
 10
138.189625387013308
 20
187.062148211654403
 30
0.0
 40
31.2086009097914499
 50
352.2073501469654957
 51
355.8159914610578198
  0
POLYLINE
  5
A472
  8
0
 66
     1
 10
0.0
 20
0.0
 30
0.0
 70
   128
  0
VERTEX
  5
A8A3
  8
0
 10
169.2427556912921034
 20
185.390646962470214
 30
0.0
  0
VERTEX
  5
A8A4
  8
0
 10
169.2367614707723078
 20
185.3893017703562975
 30
0.0
  0
VERTEX
  5
A8A5
  8
0
 10
169.2484038441974974
 20
185.3085589687817958
 30
0.0
  0
VERTEX
  5
A8A6
  8
0
 10
169.2720824903209973
 20
185.1465458545200988
 30
0.0
  0
VERTEX
  5
A8A7
  8
0
 10
169.2994811883658031
 20
184.9269608766956878
 30
0.0
  0
VERTEX
  5
A8A8
  8
0
 10
169.3280823876110048
 20
184.666512997403089
 30
0.0
  0
VERTEX
  5
A8A9
  8
0
 10
169.3838340836435066
 20
184.0830082988009053
 30
0.0
  0
VERTEX
  5
A8AA
  8
0
 10
169.4368140163296061
 20
183.4867756114041129
 30
0.0
  0
VERTEX
  5
A8AB
  8
0
 10
169.4912514099034127
 20
182.9043041867680017
 30
0.0
  0
VERTEX
  5
A8AC
  8
0
 10
169.4999402091181082
 20
182.8306216398891024
 30
0.0
  0
SEQEND
  5
A8AD
  8
0
  0
POLYLINE
  5
A474
  8
0
 66
     1
 10
0.0
 20
0.0
 30
0.0
 70
   128
  0
VERTEX
  5
A8AE
  8
0
 10
169.9637003917601987
 20
184.2742437766677881
 30
0.0
  0
VERTEX
  5
A8AF
  8
0
 10
169.9635585917542926
 20
184.272827384418207
 30
0.0
  0
VERTEX
  5
A8B0
  8
0
 10
169.909452435658693
 20
183.6682906352419025
 30
0.0
  0
VERTEX
  5
A8B1
  8
0
 10
169.8555317834016023
 20
183.0748005497322879
 30
0.0
  0
VERTEX
  5
A8B2
  8
0
 10
169.8310921822076978
 20
182.8306216398891024
 30
0.0
  0
SEQEND
  5
A8B3
  8
0
  0
LINE
  5
A477
  8
0
 10
169.9002405633999047
 20
170.3306216398891024
 30
0.0
 11
169.9002405633999047
 21
169.9306216398890967
 31
0.0
  0
LINE
  5
A478
  8
0
 10
173.7002405633998876
 20
169.9306216398890967
 30
0.0
 11
169.9002405633999899
 21
169.9306216398890967
 31
0.0
  0
LINE
  5
A479
  8
0
 10
168.7685937216749892
 20
194.9306201497967947
 30
0.0
 11
168.7685937216749892
 21
199.9306200380380858
 31
0.0
  0
ARC
  5
A482
  8
0
 10
81.4999999999999432
 20
197.1806206936890931
 30
0.0
 40
4.25
 50
39.8575672517907407
 51
140.142432748209302
  0
LINE
  5
A491
  8
0
 10
82.505501262310645
 20
181.1042354827798135
 30
0.0
 11
80.5055012837106574
 21
181.1042354827798135
 31
0.0
  0
LINE
  5
A492
  8
0
 10
75.4999999999999574
 20
182.8306227574890954
 30
0.0
 11
75.4999999999999432
 21
189.1895558413991125
 31
0.0
  0
LINE
  5
A493
  8
0
 10
87.4999999999999858
 20
182.8306227574890954
 30
0.0
 11
87.4999999999999858
 21
189.1895558413989988
 31
0.0
  0
LINE
  5
A504
  8
0
 10
86.3334775492548374
 20
194.9043663302892071
 30
0.0
 11
87.5000000521540358
 21
189.1895555858955049
 31
0.0
  0
LINE
  5
A505
  8
0
 10
75.4999999999999432
 20
189.1895558413991125
 30
0.0
 11
76.6665224507450631
 21
194.9043663302892071
 31
0.0
  0
LINE
  5
A59F
  8
0
 10
87.5036904700000093
 20
189.171476175078709
 30
0.0
 11
86.3334775492548658
 21
194.9043663302892071
 31
0.0
  0
LINE
  5
A659
  8
1
 10
44.9999999999999432
 20
81.5
 30
0.0
 11
117.9999999999999005
 21
81.5
 31
0.0
  0
LINE
  5
A65A
  8
1
 10
81.4999999999999432
 20
45.0
 30
0.0
 11
81.4999999999999432
 21
125.0999999999999943
 31
0.0
  0
LINE
  5
A65B
  8
1
 10
102.7132034356328063
 20
60.2867965643674708
 30
0.0
 11
95.6421356237677287
 21
67.3578643762331239
 31
0.0
  0
LINE
  5
A65C
  8
1
 10
67.3578643762826346
 20
95.6421356237173086
 30
0.0
 11
60.2867965644172727
 21
102.7132034355826988
 31
0.0
  0
LINE
  5
A65D
  8
1
 10
102.7132034355826988
 20
102.7132034355826988
 30
0.0
 11
95.6421356237173654
 21
95.6421356237171949
 31
0.0
  0
LINE
  5
A65E
  8
1
 10
67.3578643762328966
 20
67.3578643762324418
 30
0.0
 11
60.2867965643673571
 21
60.2867965643671866
 31
0.0
  0
LINE
  5
A65F
  8
1
 10
44.999907515545047
 20
299.8042491348508065
 30
0.0
 11
117.9999075155450043
 21
299.8042491348508065
 31
0.0
  0
LINE
  5
A660
  8
1
 10
81.5000185071883863
 20
256.2042847540147932
 30
0.0
 11
81.4998145981530229
 21
336.3042491347401892
 31
0.0
  0
LINE
  5
A661
  8
0
 10
75.4999899379641732
 20
267.4268982095073284
 30
0.0
 11
75.5000048012938123
 21
261.5882546586738044
 31
0.0
  0
LINE
  5
A662
  8
0
 10
87.5000049167126122
 20
261.5429308871113108
 30
0.0
 11
87.4999893985443151
 21
267.6388094968755809
 31
0.0
  0
ARC
  5
A663
  8
0
 10
81.6874879048608591
 20
311.2039281182073864
 30
0.0
 40
50.0
 50
262.8914439183977834
 51
276.6757480068220048
  0
LINE
  5
A664
  8
0
 10
66.5000047588472825
 20
261.6049171363216033
 30
0.0
 11
75.5000047588181076
 21
261.6049400474594222
 31
0.0
  0
LINE
  5
A665
  8
0
 10
74.9999966641251063
 20
267.1049387743477723
 30
0.0
 11
75.4999907575672751
 21
267.104940047173784
 31
0.0
  0
LINE
  5
A666
  8
0
 10
87.4999907575283657
 20
267.1049705953573721
 30
0.0
 11
87.9999936856793568
 21
267.1049718682057801
 31
0.0
  0
LINE
  5
A667
  8
0
 10
87.5000047589153382
 20
261.6049171363216033
 30
0.0
 11
96.5000047589445131
 21
261.6049171363216033
 31
0.0
  0
LINE
  5
A668
  8
0
 10
74.9999966641251063
 20
268.9750778618566756
 30
0.0
 11
74.9999966641251063
 21
265.9049716863694925
 31
0.0
  0
ARC
  5
A669
  8
0
 10
75.9999966641251348
 20
265.9049716863694925
 30
0.0
 40
1.0000000000000351
 50
180.0
 51
239.999967276973706
  0
ARC
  5
A66A
  8
0
 10
86.9999938831793713
 20
265.9047116666167199
 30
0.0
 40
1.0000000000000271
 50
300.0001513091755214
 51
0.0
  0
LINE
  5
A66B
  8
0
 10
96.5000047589445131
 20
272.1050251960389801
 30
0.0
 11
96.5000047589445131
 21
261.6049171363216033
 31
0.0
  0
POLYLINE
  5
A66C
  8
0
 66
     1
 10
0.0
 20
0.0
 30
0.0
 70
   128
  0
VERTEX
  5
A8B4
  8
0
 10
75.4999899378912005
 20
267.4269268743544217
 30
0.0
  0
VERTEX
  5
A8B5
  8
0
 10
78.6322291413412842
 20
267.415111391007315
 30
0.0
  0
VERTEX
  5
A8B6
  8
0
 10
79.0287150474412812
 20
267.4136138243072196
 30
0.0
  0
VERTEX
  5
A8B7
  8
0
 10
79.4696231777412123
 20
267.4119486196071875
 30
0.0
  0
VERTEX
  5
A8B8
  8
0
 10
79.947062901641246
 20
267.4101455791072226
 30
0.0
  0
VERTEX
  5
A8B9
  8
0
 10
80.4524891017412784
 20
267.408238230407278
 30
0.0
  0
VERTEX
  5
A8BA
  8
0
 10
80.9768558418412141
 20
267.4062563760073203
 30
0.0
  0
VERTEX
  5
A8BB
  8
0
 10
82.0447011673412163
 20
267.4022256119072267
 30
0.0
  0
VERTEX
  5
A8BC
  8
0
 10
82.5690679656411959
 20
267.4002437574072246
 30
0.0
  0
VERTEX
  5
A8BD
  8
0
 10
83.0744941657412141
 20
267.3983364088073245
 30
0.0
  0
VERTEX
  5
A8BE
  8
0
 10
83.5519338897412069
 20
267.3965333683073027
 30
0.0
  0
VERTEX
  5
A8BF
  8
0
 10
83.9928420199411789
 20
267.3948681635072262
 30
0.0
  0
VERTEX
  5
A8C0
  8
0
 10
84.3893276932412277
 20
267.3933705968071877
 30
0.0
  0
VERTEX
  5
A8C1
  8
0
 10
87.4999900532249342
 20
267.3816365171762754
 30
0.0
  0
SEQEND
  5
A8C2
  8
0
  0
CIRCLE
  5
A66D
  8
0
 10
81.4999639826483673
 20
277.8042495049508034
 30
0.0
 40
6.0000000000000266
  0
CIRCLE
  5
A66E
  8
0
 10
59.4999075155450328
 20
302.3042491348506928
 30
0.0
 40
2.3999999999999768
  0
CIRCLE
  5
A66F
  8
0
 10
103.4999075155450043
 20
302.3042491348506928
 30
0.0
 40
2.3999999999999768
  0
LINE
  5
A670
  8
0
 10
105.5074551336936963
 20
302.9204898028252728
 30
0.0
 11
105.5136335562449972
 21
303.4348432524507757
 31
0.0
  0
LINE
  5
A671
  8
0
 10
105.0712810761559979
 20
303.6973697803845766
 30
0.0
 11
105.5136335562449972
 21
303.4348432524507757
 31
0.0
  0
ARC
  5
A672
  8
0
 10
103.4999075155450043
 20
302.3042491348506928
 30
0.0
 40
2.100000000000025
 50
41.5589888181443428
 51
77.0646081300355945
  0
LINE
  5
A673
  8
0
 10
103.527647770545002
 20
304.6134834261508217
 30
0.0
 11
103.9699971101636038
 21
304.3509576566074202
 31
0.0
  0
LINE
  5
A674
  8
0
 10
103.0791175674252003
 20
304.361659113333701
 30
0.0
 11
103.527647770545002
 21
304.6134834261508217
 31
0.0
  0
ARC
  5
A675
  8
0
 10
103.4999075155450043
 20
302.3042491348506928
 30
0.0
 40
2.0999999999999921
 50
101.5589570390062022
 51
137.0645872075666887
  0
LINE
  5
A676
  8
0
 10
101.5139216106449993
 20
303.482889485550686
 30
0.0
 11
101.9624512612259934
 21
303.7347134881484862
 31
0.0
  0
LINE
  5
A677
  8
0
 10
101.5077432245316942
 20
302.9685393106107085
 30
0.0
 11
101.5139216106449993
 21
303.482889485550686
 31
0.0
  0
ARC
  5
A678
  8
0
 10
103.4999075155450043
 20
302.3042491348506928
 30
0.0
 40
2.0999999999999921
 50
161.558957865947491
 51
197.0646375301710975
  0
LINE
  5
A679
  8
0
 10
101.4861812364451055
 20
301.1736550219508217
 30
0.0
 11
101.4923614604657018
 21
301.6880033748365122
 31
0.0
  0
LINE
  5
A67A
  8
0
 10
101.9285342108587997
 20
300.911128200645976
 30
0.0
 11
101.4861812364451055
 21
301.1736550219508217
 31
0.0
  0
ARC
  5
A67B
  8
0
 10
103.4999075155450043
 20
302.3042491348506928
 30
0.0
 40
2.100000000000005
 50
221.5589993437278906
 51
257.064584161377411
  0
LINE
  5
A67C
  8
0
 10
103.4721670221451006
 20
299.9950146590508098
 30
0.0
 11
103.0298170647251936
 21
300.2575408097471836
 31
0.0
  0
LINE
  5
A67D
  8
0
 10
103.9206971572989033
 20
300.2468390937086156
 30
0.0
 11
103.4721670221451006
 21
299.9950146590508098
 31
0.0
  0
ARC
  5
A67E
  8
0
 10
103.4999075155450043
 20
302.3042491348506928
 30
0.0
 40
2.1000000000000281
 50
281.5589485071096192
 51
317.0645798414533942
  0
LINE
  5
A67F
  8
0
 10
105.4858931820450039
 20
301.1256086723507792
 30
0.0
 11
105.037363585959298
 21
300.873784583893098
 31
0.0
  0
LINE
  5
A680
  8
0
 10
105.4920715577406014
 20
301.6399582129021724
 30
0.0
 11
105.4858931820450039
 21
301.1256086723507792
 31
0.0
  0
ARC
  5
A681
  8
0
 10
103.4999075155450043
 20
302.3042491348506928
 30
0.0
 40
2.1000000000000392
 50
341.5589364050738936
 51
17.0644922022907295
  0
LINE
  5
A682
  8
0
 10
61.506909645745047
 20
302.9222661247508199
 30
0.0
 11
61.5126335542450988
 21
303.4366223113507886
 31
0.0
  0
LINE
  5
A683
  8
0
 10
61.0700504403450779
 20
303.6987577183508051
 30
0.0
 11
61.5126335542450988
 21
303.4366223113507886
 31
0.0
  0
ARC
  5
A684
  8
0
 10
59.4999075155450328
 20
302.3042491348506928
 30
0.0
 40
2.0999999999999992
 50
41.60961256429934
 51
77.1151928881979813
  0
LINE
  5
A685
  8
0
 10
59.5256065498450582
 20
304.6135071748507812
 30
0.0
 11
59.9681896638451306
 21
304.3513720007508141
 31
0.0
  0
LINE
  5
A686
  8
0
 10
59.0772995274451205
 20
304.3612863952507723
 30
0.0
 11
59.5256065498450582
 21
304.6135071748507812
 31
0.0
  0
ARC
  5
A687
  8
0
 10
59.4999075155450328
 20
302.3042491348506928
 30
0.0
 40
2.0999999999999961
 50
101.6096125643011021
 51
137.115192888200113
  0
LINE
  5
A688
  8
0
 10
57.5128806304451174
 20
303.4811341753508032
 30
0.0
 11
57.9611876528450694
 21
303.7333551878508047
 31
0.0
  0
LINE
  5
A689
  8
0
 10
57.5071567218450426
 20
302.9667777558507851
 30
0.0
 11
57.5128806304451174
 21
303.4811341753508032
 31
0.0
  0
ARC
  5
A68A
  8
0
 10
59.4999075155450328
 20
302.3042491348506928
 30
0.0
 40
2.1000000000000121
 50
161.6096125643007895
 51
197.1151928882013067
  0
LINE
  5
A68B
  8
0
 10
57.4871817152450717
 20
301.1718759629508213
 30
0.0
 11
57.4929056238450968
 21
301.6862322660508084
 31
0.0
  0
LINE
  5
A68C
  8
0
 10
57.9297648291450784
 20
300.9097406724507096
 30
0.0
 11
57.4871817152450717
 21
301.1718759629508213
 31
0.0
  0
ARC
  5
A68D
  8
0
 10
59.4999075155450328
 20
302.3042491348506928
 30
0.0
 40
2.100000000000021
 50
221.6096125642993968
 51
257.1151928882013067
  0
LINE
  5
A68E
  8
0
 10
59.4742087196450484
 20
299.9949910558507895
 30
0.0
 11
59.0316256057450914
 21
300.2571263900508143
 31
0.0
  0
LINE
  5
A68F
  8
0
 10
59.9225157421450305
 20
300.2472119955507992
 30
0.0
 11
59.4742087196450484
 21
299.9949910558507895
 31
0.0
  0
ARC
  5
A690
  8
0
 10
59.4999075155450328
 20
302.3042491348506928
 30
0.0
 40
2.1000000000000041
 50
281.6096125642977768
 51
317.1151928882002267
  0
LINE
  5
A691
  8
0
 10
61.4869346391450904
 20
301.1273642154508252
 30
0.0
 11
61.0386257540450927
 21
300.8751433193507978
 31
0.0
  0
LINE
  5
A692
  8
0
 10
61.4926585476450711
 20
301.6417205184508248
 30
0.0
 11
61.4869346391450904
 21
301.1273642154508252
 31
0.0
  0
ARC
  5
A693
  8
0
 10
59.4999075155450328
 20
302.3042491348506928
 30
0.0
 40
2.1000000000000001
 50
341.6096125643007895
 51
17.1151928882017117
  0
ARC
  5
A694
  8
0
 10
83.8466081246493786
 20
284.6612139950507867
 30
0.0
 40
2.8762364052676062
 50
264.554972702097416
 51
281.942409410488608
  0
LINE
  5
A695
  8
0
 10
83.5736801220493817
 20
281.7979560317506866
 30
0.0
 11
79.4564678638494115
 21
281.8135035308507099
 31
0.0
  0
POLYLINE
  5
A696
  8
0
 66
     1
 10
0.0
 20
0.0
 30
0.0
 70
   128
  0
VERTEX
  5
A8C3
  8
0
 10
79.4564678638494115
 20
281.8135035308507099
 30
0.0
  0
VERTEX
  5
A8C4
  8
0
 10
78.9564994468494206
 20
281.8227925421508075
 30
0.0
  0
VERTEX
  5
A8C5
  8
0
 10
78.8060987672494093
 20
281.8303995849507828
 30
0.0
  0
VERTEX
  5
A8C6
  8
0
 10
78.6761550537494259
 20
281.8416462363508117
 30
0.0
  0
VERTEX
  5
A8C7
  8
0
 10
78.6123825075493414
 20
281.8519392134508053
 30
0.0
  0
VERTEX
  5
A8C8
  8
0
 10
78.5858125730493242
 20
281.8638657303507102
 30
0.0
  0
VERTEX
  5
A8C9
  8
0
 10
78.5887633003010251
 20
281.8693340079353788
 30
0.0
  0
SEQEND
  5
A8CA
  8
0
  0
ARC
  5
A697
  8
0
 10
351.799907515545101
 20
206.4545364310507978
 30
0.0
 40
299.9599999999819033
 50
156.3083531156788979
 51
165.845842717377991
  0
LINE
  5
A698
  8
0
 10
60.9462996976524209
 20
279.8042495818507973
 30
0.0
 11
57.1637203466450501
 21
279.8042495818507973
 31
0.0
  0
LINE
  5
A699
  8
0
 10
75.4137258772184964
 20
330.7106949522736272
 30
0.0
 11
77.1201815005450726
 21
326.9827471198507851
 31
0.0
  0
CIRCLE
  5
A69A
  8
0
 10
59.4999075155450328
 20
302.3042491348506928
 30
0.0
 40
6.0
  0
LINE
  5
A69B
  8
0
 10
102.0535153334358967
 20
279.8042495818507973
 30
0.0
 11
105.8360949301750935
 21
279.8042495818507973
 31
0.0
  0
ARC
  5
A69C
  8
0
 10
-188.8000924844548933
 20
206.4545364310507978
 30
0.0
 40
299.9599999999800843
 50
14.1541572826220108
 51
23.6916468843198302
  0
LINE
  5
A69D
  8
0
 10
85.8796335305451066
 20
326.9827471198507851
 30
0.0
 11
87.5860891539634139
 21
330.7106949522556079
 31
0.0
  0
CIRCLE
  5
A69E
  8
0
 10
103.4999075155450043
 20
302.3042491348506928
 30
0.0
 40
6.0
  0
ARC
  5
A69F
  8
0
 10
57.9999075155450328
 20
299.8042491348508065
 30
0.0
 40
4.4000000000000004
 50
35.1016964078989702
 51
82.9707905279007463
  0
ARC
  5
A6A0
  8
0
 10
104.9999075155450043
 20
299.8042491348508065
 30
0.0
 40
4.4000000000000057
 50
97.0292094720992679
 51
144.898303592099893
  0
CIRCLE
  5
A6A1
  8
0
 10
81.4999635205484481
 20
277.8042491348506928
 30
0.0
 40
5.0000004756731258
  0
LINE
  5
A6A2
  8
0
 10
66.5000000334999299
 20
109.1992779870703032
 30
0.0
 11
66.5000000334999299
 21
119.6992779689290956
 31
0.0
  0
LINE
  5
A6A3
  8
0
 10
96.4999999664999564
 20
119.6992779689289961
 30
0.0
 11
96.4999999664999564
 21
109.1992779870703032
 31
0.0
  0
ARC
  5
A6A4
  8
0
 10
103.4999999999999005
 20
79.0
 30
0.0
 40
2.1000000000000112
 50
42.9354201463633487
 51
78.4410515006992028
  0
LINE
  5
A6A5
  8
0
 10
103.4722595065998973
 20
81.3092344757999967
 30
0.0
 11
103.9207896414735046
 21
81.0574100411994749
 31
0.0
  0
LINE
  5
A6A6
  8
0
 10
103.0299095494549988
 20
81.046708325166648
 30
0.0
 11
103.4722595065998973
 21
81.3092344757999967
 31
0.0
  0
ARC
  5
A6A7
  8
0
 10
103.4999999999999005
 20
79.0
 30
0.0
 40
2.1000000000000192
 50
102.9354158309249954
 51
138.4410006562671924
  0
LINE
  5
A6A8
  8
0
 10
101.4862737208999022
 20
80.1305941128999848
 30
0.0
 11
101.9286266953137954
 21
80.3931209342048874
 31
0.0
  0
LINE
  5
A6A9
  8
0
 10
101.4924539449194043
 20
79.6162457600103721
 30
0.0
 11
101.4862737208999022
 21
80.1305941128999848
 31
0.0
  0
ARC
  5
A6AA
  8
0
 10
103.4999999999999005
 20
79.0
 30
0.0
 40
2.1000000000000458
 50
162.9353624699444936
 51
175.3815708820374937
  0
ARC
  5
A6AB
  8
0
 10
103.4999999999999005
 20
79.0
 30
0.0
 40
2.099999999999993
 50
302.6909160538139076
 51
318.4410111818652922
  0
LINE
  5
A6AC
  8
0
 10
105.5137260406998934
 20
77.869405882399974
 30
0.0
 11
105.0713735606109935
 21
77.6068793544662867
 31
0.0
  0
LINE
  5
A6AD
  8
0
 10
105.5075476181473988
 20
78.3837593320216683
 30
0.0
 11
105.5137260406998934
 21
77.869405882399974
 31
0.0
  0
ARC
  5
A6AE
  8
0
 10
103.4999999999999005
 20
79.0
 30
0.0
 40
2.0999999999999752
 50
342.9355077975970971
 51
18.4410635949292683
  0
LINE
  5
A6AF
  8
0
 10
105.4859856664999995
 20
80.1786404623999687
 30
0.0
 11
105.4921640421954976
 21
79.6642909219483499
 31
0.0
  0
LINE
  5
A6B0
  8
0
 10
105.0374560707183065
 20
80.4304645506307452
 30
0.0
 11
105.4859856664999995
 21
80.1786404623999687
 31
0.0
  0
ARC
  5
A6B1
  8
0
 10
59.4999999999999432
 20
79.0
 30
0.0
 40
2.1000000000000232
 50
42.8847662620204702
 51
78.3904114262051905
  0
LINE
  5
A6B2
  8
0
 10
59.4743012040999588
 20
81.309258079000017
 30
0.0
 11
59.9226078900108519
 21
81.0570373286113863
 31
0.0
  0
LINE
  5
A6B3
  8
0
 10
59.0317184400239015
 20
81.0471229519954477
 30
0.0
 11
59.4743012040999588
 21
81.309258079000017
 31
0.0
  0
ARC
  5
A6B4
  8
0
 10
59.4999999999999432
 20
79.0
 30
0.0
 40
2.1000000000000152
 50
102.8847826800071061
 51
138.3903607582140012
  0
LINE
  5
A6B5
  8
0
 10
57.4872741996999181
 20
80.1323731717999834
 30
0.0
 11
57.9298585950913889
 21
80.3945092214079864
 31
0.0
  0
LINE
  5
A6B6
  8
0
 10
57.4929981208420031
 20
79.6180157417547321
 30
0.0
 11
57.4872741996999181
 21
80.1323731717999834
 31
0.0
  0
ARC
  5
A6B7
  8
0
 10
59.4999999999999432
 20
79.0
 30
0.0
 40
2.1000000000000489
 50
162.8848399808744887
 51
198.3903885338496877
  0
LINE
  5
A6B8
  8
0
 10
57.5129731147999266
 20
77.8231149595000034
 30
0.0
 11
57.507249206299953
 21
78.337471378899977
 31
0.0
  0
LINE
  5
A6B9
  8
0
 10
57.9612821290099305
 20
77.5708928264485849
 30
0.0
 11
57.5129731147999266
 21
77.8231149595000034
 31
0.0
  0
ARC
  5
A6BA
  8
0
 10
59.4999999999999432
 20
79.0
 30
0.0
 40
2.1000000000000321
 50
222.8848560532545946
 51
237.3090839464921089
  0
ARC
  5
A6BB
  8
0
 10
59.4999999999999432
 20
79.0
 30
0.0
 40
2.100000000000001
 50
4.6184291176554382
 51
18.3903672076893017
  0
LINE
  5
A6BC
  8
0
 10
61.487027123599951
 20
80.1768849193999671
 30
0.0
 11
61.4927510394280219
 21
79.662527957793813
 31
0.0
  0
LINE
  5
A6BD
  8
0
 10
61.0387201106302086
 20
80.4291047621298389
 30
0.0
 11
61.487027123599951
 21
80.1768849193999671
 31
0.0
  0
CIRCLE
  5
A6BE
  8
0
 10
81.4999999999999432
 20
103.7249999999999943
 30
0.0
 40
2.0
  0
CIRCLE
  5
A6BF
  8
0
 10
81.4999999999999432
 20
56.5
 30
0.0
 40
3.0
  0
CIRCLE
  5
A6C0
  8
0
 10
81.4999999999999432
 20
81.5
 30
0.0
 40
15.75
  0
CIRCLE
  5
A6C1
  8
0
 10
81.4999999999999432
 20
81.5
 30
0.0
 40
31.4999999999999893
  0
ARC
  5
A6C2
  8
0
 10
59.500000249999907
 20
78.9999992533000182
 30
0.0
 40
3.1500004091452118
 50
31.2083720161146694
 51
210.7191343740877016
  0
ARC
  5
A6C3
  8
0
 10
103.4999998471999021
 20
78.9999994152000227
 30
0.0
 40
3.1500004187919211
 50
329.2808623968829238
 51
148.7916312149388034
  0
CIRCLE
  5
A6C4
  8
0
 10
81.4999999999999432
 20
103.5
 30
0.0
 40
1.6210000000000031
  0
CIRCLE
  5
A6C5
  8
3
 10
63.8223304702999599
 20
99.1776695295999957
 30
0.0
 40
2.9999999999999392
  0
CIRCLE
  5
A6C6
  8
3
 10
99.1776695296999264
 20
99.1776695295999957
 30
0.0
 40
2.9999999999999392
  0
CIRCLE
  5
A6C7
  8
3
 10
99.1776695296999264
 20
63.8223304703000167
 30
0.0
 40
2.9999999999999392
  0
CIRCLE
  5
A6C8
  8
3
 10
63.8223304702999599
 20
63.8223304703000167
 30
0.0
 40
2.9999999999999392
  0
ARC
  5
A6C9
  8
1
 10
81.4999999999999432
 20
81.5
 30
0.0
 40
24.9999999999806413
 50
350.2930975639192752
 51
349.0459834334503171
  0
LINE
  5
A6CA
  8
0
 10
66.5000047586423051
 20
272.1049185060527975
 30
0.0
 11
66.5000047586423051
 21
261.6049171365830261
 31
0.0
  0
LINE
  5
A6CB
  8
0
 10
96.4999999999999432
 20
119.6992779689289961
 30
0.0
 11
66.4999999999999432
 21
119.6992779689290956
 31
0.0
  0
LINE
  5
A6CC
  8
0
 10
87.9999999999999289
 20
114.1992779689290956
 30
0.0
 11
74.9999999999999432
 21
114.1992779689290956
 31
0.0
  0
LINE
  5
A6CD
  8
0
 10
75.4999999999999432
 20
119.6992779689290956
 30
0.0
 11
75.4999999999999432
 21
119.7386945839633938
 31
0.0
  0
LINE
  5
A6CE
  8
0
 10
87.4999999999999574
 20
119.7386945839633938
 30
0.0
 11
87.4999999999999432
 21
119.6992779689289961
 31
0.0
  0
CIRCLE
  5
A6CF
  8
0
 10
81.4999075155450186
 20
299.8042491348508065
 30
0.0
 40
31.4999999999999893
  0
LINE
  5
A6D0
  8
0
 10
66.5000072878300443
 20
261.6203366982783791
 30
0.0
 11
66.5000072878300443
 21
261.6203366982783791
 31
0.0
  0
LINE
  5
A6D1
  8
1
 10
57.9999999999999432
 20
88.3639999999999191
 30
0.0
 11
57.9999999999999432
 21
74.6360000000000809
 31
0.0
  0
LINE
  5
A6D2
  8
1
 10
104.9999999999999005
 20
88.3639999999999191
 30
0.0
 11
104.9999999999999005
 21
74.6360000000000809
 31
0.0
  0
CIRCLE
  5
A6D3
  8
3
 10
57.9999999999999432
 20
81.5
 30
0.0
 40
4.8639999999999191
  0
CIRCLE
  5
A6D4
  8
0
 10
57.9999999999999432
 20
81.5
 30
0.0
 40
4.2830000000000146
  0
CIRCLE
  5
A6D5
  8
3
 10
104.9999999999999005
 20
81.5
 30
0.0
 40
4.8639999999999191
  0
CIRCLE
  5
A6D6
  8
0
 10
104.9999999999999005
 20
81.5
 30
0.0
 40
4.2830000000000146
  0
CIRCLE
  5
A6D7
  8
0
 10
63.8223304703225836
 20
99.1776695296499042
 30
0.0
 40
2.458499999999999
  0
CIRCLE
  5
A6D8
  8
0
 10
99.1776695296500321
 20
99.1776695296499042
 30
0.0
 40
2.458499999999999
  0
CIRCLE
  5
A6D9
  8
0
 10
63.8223304703225836
 20
63.8223304703225267
 30
0.0
 40
2.458499999999999
  0
CIRCLE
  5
A6DA
  8
0
 10
99.1776695296500321
 20
63.8223304703225267
 30
0.0
 40
2.458499999999999
  0
LINE
  5
A6DB
  8
0
 10
87.9999936856793568
 20
268.9821788195433783
 30
0.0
 11
87.9999936856793568
 21
265.9049716863694925
 31
0.0
  0
ARC
  5
A6DC
  8
0
 10
82.3040123398110808
 20
250.3082253040919056
 30
0.0
 40
17.4869617910558617
 50
78.8294795744484844
 51
92.5469973137470845
  0
LINE
  5
A6DD
  8
0
 10
85.6917532662313732
 20
267.4638959414918986
 30
0.0
 11
85.8593333594632071
 21
267.3878254229667277
 31
0.0
  0
LINE
  5
A6DE
  8
0
 10
77.2125494498522897
 20
267.4204667296846765
 30
0.0
 11
77.3082221428316529
 21
267.4638959414918986
 31
0.0
  0
ARC
  5
A6DF
  8
0
 10
80.6959657490180433
 20
250.3082253040919056
 30
0.0
 40
17.4869617910558617
 50
87.4530026862529155
 51
101.170520425553093
  0
LINE
  5
A6E0
  8
0
 10
81.4730662168134785
 20
267.7779118366200919
 30
0.0
 11
81.5269118720156456
 21
267.7779118366200919
 31
0.0
  0
ARC
  5
A6E1
  8
0
 10
81.4999892423386143
 20
256.9917870741820138
 30
0.0
 40
10.7083758318653697
 50
76.2817559911955954
 51
103.2855217378978949
  0
POLYLINE
  5
A6E2
  8
0
 66
     1
 10
0.0
 20
0.0
 30
0.0
 70
   128
  0
VERTEX
  5
A8CB
  8
0
 10
77.6110792878154427
 20
268.5452181995319734
 30
0.0
  0
VERTEX
  5
A8CC
  8
0
 10
77.5134557194373457
 20
268.5239869005640116
 30
0.0
  0
VERTEX
  5
A8CD
  8
0
 10
77.3082238889596312
 20
268.4596325106580821
 30
0.0
  0
SEQEND
  5
A8CE
  8
0
  0
LINE
  5
A6E3
  8
0
 10
75.4999893985054342
 20
267.6388094968755809
 30
0.0
 11
77.3082238889596312
 21
268.4596325106580821
 31
0.0
  0
LINE
  5
A6E4
  8
0
 10
75.4999899379641732
 20
267.4268982095073284
 30
0.0
 11
75.4999893985054342
 21
267.6388094968755809
 31
0.0
  0
POLYLINE
  5
A6E5
  8
0
 66
     1
 10
0.0
 20
0.0
 30
0.0
 70
   128
  0
VERTEX
  5
A8CF
  8
0
 10
85.3888055424763621
 20
268.5452268830890716
 30
0.0
  0
VERTEX
  5
A8D0
  8
0
 10
85.4865185708781752
 20
268.5239766492626927
 30
0.0
  0
VERTEX
  5
A8D1
  8
0
 10
85.6917507290048661
 20
268.4596233042674953
 30
0.0
  0
SEQEND
  5
A8D2
  8
0
  0
LINE
  5
A6E6
  8
0
 10
87.4999893985443151
 20
267.6388094968755809
 30
0.0
 11
85.6917507290048661
 21
268.4596233042674953
 31
0.0
  0
ARC
  5
A6E8
  8
0
 10
75.9453245550898259
 20
189.0077686938925012
 30
0.0
 40
75.2666908636266783
 50
273.1416180307634249
 51
275.4445792655369019
  0
ARC
  5
A6E9
  8
0
 10
83.6281454016352086
 20
133.2226427904311095
 30
0.0
 40
19.9197657289129815
 50
258.4615032084058157
 51
266.907567031839676
  0
POLYLINE
  5
A6EA
  8
0
 66
     1
 10
0.0
 20
0.0
 30
0.0
 70
   128
  0
VERTEX
  5
A8D3
  8
0
 10
83.1652245948284303
 20
113.4096426064365062
 30
0.0
  0
VERTEX
  5
A8D4
  8
0
 10
83.1656460096223213
 20
113.413488361848195
 30
0.0
  0
VERTEX
  5
A8D5
  8
0
 10
83.1083761090077928
 20
113.4057349490932012
 30
0.0
  0
VERTEX
  5
A8D6
  8
0
 10
82.9849198374367347
 20
113.3858315740286002
 30
0.0
  0
VERTEX
  5
A8D7
  8
0
 10
82.8048876123404369
 20
113.3611684488360964
 30
0.0
  0
VERTEX
  5
A8D8
  8
0
 10
82.575604282968186
 20
113.3340897568368035
 30
0.0
  0
VERTEX
  5
A8D9
  8
0
 10
82.0215717452748976
 20
113.2787194713430949
 30
0.0
  0
VERTEX
  5
A8DA
  8
0
 10
81.4308596954828658
 20
113.2258168579476063
 30
0.0
  0
VERTEX
  5
A8DB
  8
0
 10
80.8353347700214755
 20
113.1714828763978034
 30
0.0
  0
VERTEX
  5
A8DC
  8
0
 10
80.4647547443868802
 20
113.1294175050949065
 30
0.0
  0
VERTEX
  5
A8DD
  8
0
 10
80.0668908880952159
 20
113.0616858212175941
 30
0.0
  0
VERTEX
  5
A8DE
  8
0
 10
79.7200259281389094
 20
112.9546679746931943
 30
0.0
  0
VERTEX
  5
A8DF
  8
0
 10
79.7110180153766947
 20
112.9491580723345976
 30
0.0
  0
SEQEND
  5
A8E0
  8
0
  0
POLYLINE
  5
A6EB
  8
0
 66
     1
 10
0.0
 20
0.0
 30
0.0
 70
   128
  0
VERTEX
  5
A8E1
  8
0
 10
82.1670755291146833
 20
112.9929358783593045
 30
0.0
  0
VERTEX
  5
A8E2
  8
0
 10
82.6373229162690563
 20
113.0404342308724068
 30
0.0
  0
VERTEX
  5
A8E3
  8
0
 10
83.0868454551954869
 20
113.1038205810929043
 30
0.0
  0
VERTEX
  5
A8E4
  8
0
 10
83.3625819122088956
 20
113.1887612309383968
 30
0.0
  0
VERTEX
  5
A8E5
  8
0
 10
83.4275480465439045
 20
113.2503152568790057
 30
0.0
  0
VERTEX
  5
A8E6
  8
0
 10
83.4500897803472554
 20
113.3320658819891946
 30
0.0
  0
VERTEX
  5
A8E7
  8
0
 10
83.426318666152099
 20
113.4146550252529977
 30
0.0
  0
VERTEX
  5
A8E8
  8
0
 10
83.3542594658405847
 20
113.4785890583209067
 30
0.0
  0
VERTEX
  5
A8E9
  8
0
 10
83.0215509455369443
 20
113.5708764035560989
 30
0.0
  0
VERTEX
  5
A8EA
  8
0
 10
82.506122259712285
 20
113.6377704355787017
 30
0.0
  0
VERTEX
  5
A8EB
  8
0
 10
81.9121713383003112
 20
113.6951982580648064
 30
0.0
  0
VERTEX
  5
A8EC
  8
0
 10
81.3042849448178941
 20
113.7492476165666062
 30
0.0
  0
VERTEX
  5
A8ED
  8
0
 10
80.7226968020035542
 20
113.8030648863419998
 30
0.0
  0
VERTEX
  5
A8EE
  8
0
 10
80.174997284402906
 20
113.8600167503802965
 30
0.0
  0
SEQEND
  5
A8EF
  8
0
  0
ARC
  5
A6EC
  8
0
 10
81.4999999999999432
 20
70.1000000000000085
 30
0.0
 40
50.0000000000000071
 50
83.1078974206549788
 51
96.8921025793466129
  0
LINE
  5
A6ED
  8
0
 10
74.9999999999999432
 20
112.3220700148447975
 30
0.0
 11
74.9999999999999432
 21
114.1992779689290956
 31
0.0
  0
LINE
  5
A6EE
  8
0
 10
87.9999999999999432
 20
114.1992779689290956
 30
0.0
 11
87.9999999999999432
 21
112.3220700148447975
 31
0.0
  0
LINE
  5
A6EF
  8
0
 10
75.4999999999999432
 20
113.6654372430660942
 30
0.0
 11
77.3082343044883942
 21
112.8446159748526014
 31
0.0
  0
LINE
  5
A6F0
  8
0
 10
75.4999999999999432
 20
113.6654372430660942
 30
0.0
 11
75.4999999999999432
 21
114.1992779689290956
 31
0.0
  0
LINE
  5
A6F1
  8
0
 10
85.6917656955114921
 20
112.8446159748526014
 30
0.0
 11
87.4999999999999432
 21
113.6654372430660942
 31
0.0
  0
POLYLINE
  5
A6F2
  8
0
 66
     1
 10
0.0
 20
0.0
 30
0.0
 70
   128
  0
VERTEX
  5
A8F0
  8
0
 10
85.6917656955114921
 20
112.8446159748526014
 30
0.0
  0
VERTEX
  5
A8F1
  8
0
 10
85.4865335168226039
 20
112.7802621203422007
 30
0.0
  0
VERTEX
  5
A8F2
  8
0
 10
85.3888800290550734
 20
112.7590245036078045
 30
0.0
  0
SEQEND
  5
A8F3
  8
0
  0
POLYLINE
  5
A6F3
  8
0
 66
     1
 10
0.0
 20
0.0
 30
0.0
 70
   128
  0
VERTEX
  5
A8F4
  8
0
 10
77.6111199709409334
 20
112.7590245036086003
 30
0.0
  0
VERTEX
  5
A8F5
  8
0
 10
77.513466483177524
 20
112.7802621203421012
 30
0.0
  0
VERTEX
  5
A8F6
  8
0
 10
77.3082343044883942
 20
112.8446159748526014
 30
0.0
  0
SEQEND
  5
A8F7
  8
0
  0
ARC
  5
A6F4
  8
0
 10
80.1744609997242037
 20
109.6067579063139021
 30
0.0
 40
3.5004162593345951
 50
87.665705693242657
 51
109.8306633638133007
  0
ARC
  5
A6F5
  8
0
 10
83.1074552805443432
 20
110.8850668259614025
 30
0.0
 40
2.207668172608062
 50
65.8709414378915739
 51
93.217386607041675
  0
LINE
  5
A6F6
  8
0
 10
87.4999999999999147
 20
114.1992779689290956
 30
0.0
 11
87.4999999999999432
 21
113.6654372430660942
 31
0.0
  0
POLYLINE
  5
A6F7
  8
0
 66
     1
 10
0.0
 20
0.0
 30
0.0
 70
   128
  0
VERTEX
  5
A8F8
  8
0
 10
83.0868454551953164
 20
114.080647884441305
 30
0.0
  0
VERTEX
  5
A8F9
  8
0
 10
83.0868454551955011
 20
114.080647884441305
 30
0.0
  0
VERTEX
  5
A8FA
  8
0
 10
83.3625819122088956
 20
114.1655885342867975
 30
0.0
  0
VERTEX
  5
A8FB
  8
0
 10
83.3981388445653664
 20
114.1992779689290956
 30
0.0
  0
SEQEND
  5
A8FC
  8
0
  0
POLYLINE
  5
A6F8
  8
0
 66
     1
 10
0.0
 20
0.0
 30
0.0
 70
   128
  0
VERTEX
  5
A8FD
  8
0
 10
79.643668433248024
 20
113.7054449899483046
 30
0.0
  0
VERTEX
  5
A8FE
  8
0
 10
79.5805128316022206
 20
113.7688552943213978
 30
0.0
  0
VERTEX
  5
A8FF
  8
0
 10
79.560348933133568
 20
113.8512246555386014
 30
0.0
  0
VERTEX
  5
A900
  8
0
 10
79.5865027358158841
 20
113.9330904668420033
 30
0.0
  0
VERTEX
  5
A901
  8
0
 10
79.6603839044202715
 20
113.9949100580692942
 30
0.0
  0
VERTEX
  5
A902
  8
0
 10
79.9956264038965372
 20
114.077519864497603
 30
0.0
  0
VERTEX
  5
A903
  8
0
 10
80.7908688155221739
 20
114.1992779689290956
 30
0.0
  0
SEQEND
  5
A904
  8
0
  0
POLYLINE
  5
A71B
  8
0
 66
     1
 10
0.0
 20
0.0
 30
0.0
 70
   128
  0
VERTEX
  5
A905
  8
0
 10
169.7976411992119949
 20
182.8306216398891024
 30
0.0
  0
VERTEX
  5
A906
  8
0
 10
169.7869058181742901
 20
182.9451697199359046
 30
0.0
  0
VERTEX
  5
A907
  8
0
 10
169.733526068736893
 20
183.5234468259990024
 30
0.0
  0
VERTEX
  5
A908
  8
0
 10
169.6794793336688087
 20
184.1314048600721094
 30
0.0
  0
VERTEX
  5
A909
  8
0
 10
169.622030586890304
 20
184.7276907532555867
 30
0.0
  0
VERTEX
  5
A90A
  8
0
 10
169.5548617806173866
 20
185.2478977082294875
 30
0.0
  0
VERTEX
  5
A90B
  8
0
 10
169.4619841326131962
 20
185.585592205711805
 30
0.0
  0
VERTEX
  5
A90C
  8
0
 10
169.3977797343476084
 20
185.6580111086630893
 30
0.0
  0
VERTEX
  5
A90D
  8
0
 10
169.3150205761205029
 20
185.6819209388141019
 30
0.0
  0
VERTEX
  5
A90E
  8
0
 10
169.2332887155156129
 20
185.6595608654396017
 30
0.0
  0
VERTEX
  5
A90F
  8
0
 10
169.1719513284658944
 20
185.5951072822819867
 30
0.0
  0
VERTEX
  5
A910
  8
0
 10
169.0877261902298017
 20
185.3230155419444998
 30
0.0
  0
VERTEX
  5
A911
  8
0
 10
169.0246978248918879
 20
184.8794385314716919
 30
0.0
  0
VERTEX
  5
A912
  8
0
 10
168.9674800152949956
 20
184.3149349377503938
 30
0.0
  0
VERTEX
  5
A913
  8
0
 10
168.9133451137589077
 20
183.7125267922390037
 30
0.0
  0
VERTEX
  5
A914
  8
0
 10
168.859394069534801
 20
183.1153899286800879
 30
0.0
  0
VERTEX
  5
A915
  8
0
 10
168.8312018727320947
 20
182.8306216398891024
 30
0.0
  0
SEQEND
  5
A916
  8
0
  0
CIRCLE
  5
A72D
  8
0
 10
81.4999639826483673
 20
277.8042495049508034
 30
0.0
 40
5.2886751346451879
  0
LINE
  5
A769
  8
0
 10
66.5000072880348938
 20
261.6049171363216033
 30
0.0
 11
66.4999792823927578
 21
261.6049171363216033
 31
0.0
  0
ENDSEC
  0
EOF
