  0
SECTION
  2
HEADER
  9
$ACADVER
  1
AC1009
  9
$INSBASE
 10
0.0
 20
0.0
 30
0.0
  9
$EXTMIN
 10
0.0
 20
-2.960436562073669
 30
0.0
  9
$EXTMAX
 10
155.60660031438951
 20
62.111565418445139
 30
0.0
  9
$LIMMIN
 10
0.0
 20
0.0
  9
$LIMMAX
 10
375.0
 20
270.0
  9
$ORTHOMODE
 70
     1
  9
$REGENMODE
 70
     1
  9
$FILLMODE
 70
     1
  9
$QTEXTMODE
 70
     0
  9
$MIRRTEXT
 70
     0
  9
$DRAGMODE
 70
     2
  9
$LTSCALE
 40
10.0
  9
$OSMODE
 70
    55
  9
$ATTMODE
 70
     1
  9
$TEXTSIZE
 40
2.0
  9
$TRACEWID
 40
0.05
  9
$TEXTSTYLE
  7
STANDARD
  9
$CLAYER
  8
0
  9
$CELTYPE
  6
BYLAYER
  9
$CECOLOR
 62
   256
  9
$DIMSCALE
 40
1.0
  9
$DIMASZ
 40
2.5
  9
$DIMEXO
 40
2.0
  9
$DIMDLI
 40
0.38
  9
$DIMRND
 40
0.0
  9
$DIMDLE
 40
0.0
  9
$DIMEXE
 40
2.0
  9
$DIMTP
 40
0.0
  9
$DIMTM
 40
0.0
  9
$DIMTXT
 40
3.0
  9
$DIMCEN
 40
0.09
  9
$DIMTSZ
 40
0.0
  9
$DIMTOL
 70
     0
  9
$DIMLIM
 70
     0
  9
$DIMTIH
 70
     0
  9
$DIMTOH
 70
     0
  9
$DIMSE1
 70
     0
  9
$DIMSE2
 70
     0
  9
$DIMTAD
 70
     1
  9
$DIMZIN
 70
     0
  9
$DIMBLK
  1

  9
$DIMASO
 70
     1
  9
$DIMSHO
 70
     0
  9
$DIMPOST
  1

  9
$DIMAPOST
  1

  9
$DIMALT
 70
     0
  9
$DIMALTD
 70
     2
  9
$DIMALTF
 40
25.399999999999999
  9
$DIMLFAC
 40
1.0
  9
$DIMTOFL
 70
     0
  9
$DIMTVP
 40
1.6000000000000001
  9
$DIMTIX
 70
     1
  9
$DIMSOXD
 70
     0
  9
$DIMSAH
 70
     0
  9
$DIMBLK1
  1

  9
$DIMBLK2
  1

  9
$DIMSTYLE
  2
STANDARD
  9
$DIMCLRD
 70
     0
  9
$DIMCLRE
 70
     0
  9
$DIMCLRT
 70
     0
  9
$DIMTFAC
 40
1.0
  9
$DIMGAP
 40
0.09
  9
$LUNITS
 70
     2
  9
$LUPREC
 70
     4
  9
$SKETCHINC
 40
0.1
  9
$FILLETRAD
 40
2.5
  9
$AUNITS
 70
     0
  9
$AUPREC
 70
     0
  9
$MENU
  1
E:\r13\win\SUPPORT\ACAD
  9
$ELEVATION
 40
0.0
  9
$PELEVATION
 40
0.0
  9
$THICKNESS
 40
0.0
  9
$LIMCHECK
 70
     0
  9
$BLIPMODE
 70
     0
  9
$CHAMFERA
 40
0.0
  9
$CHAMFERB
 40
0.0
  9
$SKPOLY
 70
     0
  9
$TDCREATE
 40
2448650.5678784722
  9
$TDUPDATE
 40
2456598.560761563
  9
$TDINDWG
 40
0.0824719907
  9
$TDUSRTIMER
 40
0.0824719907
  9
$USRTIMER
 70
     1
  9
$ANGBASE
 50
0.0
  9
$ANGDIR
 70
     0
  9
$PDMODE
 70
     0
  9
$PDSIZE
 40
0.0
  9
$PLINEWID
 40
0.0
  9
$COORDS
 70
     1
  9
$SPLFRAME
 70
     0
  9
$SPLINETYPE
 70
     6
  9
$SPLINESEGS
 70
     8
  9
$ATTDIA
 70
     0
  9
$ATTREQ
 70
     1
  9
$HANDLING
 70
     1
  9
$HANDSEED
  5
160E
  9
$SURFTAB1
 70
     6
  9
$SURFTAB2
 70
     6
  9
$SURFTYPE
 70
     6
  9
$SURFU
 70
     6
  9
$SURFV
 70
     6
  9
$UCSNAME
  2

  9
$UCSORG
 10
0.0
 20
0.0
 30
0.0
  9
$UCSXDIR
 10
1.0
 20
0.0
 30
0.0
  9
$UCSYDIR
 10
0.0
 20
1.0
 30
0.0
  9
$PUCSNAME
  2

  9
$PUCSORG
 10
0.0
 20
0.0
 30
0.0
  9
$PUCSXDIR
 10
1.0
 20
0.0
 30
0.0
  9
$PUCSYDIR
 10
0.0
 20
1.0
 30
0.0
  9
$USERI1
 70
     0
  9
$USERI2
 70
     1
  9
$USERI3
 70
     1
  9
$USERI4
 70
     0
  9
$USERI5
 70
     0
  9
$USERR1
 40
0.0
  9
$USERR2
 40
0.0
  9
$USERR3
 40
0.0
  9
$USERR4
 40
0.0
  9
$USERR5
 40
0.0
  9
$WORLDVIEW
 70
     1
  9
$SHADEDGE
 70
     3
  9
$SHADEDIF
 70
    70
  9
$TILEMODE
 70
     1
  9
$MAXACTVP
 70
    16
  9
$PLIMCHECK
 70
     0
  9
$PEXTMIN
 10
1.0000000000000000E+020
 20
1.0000000000000000E+020
 30
1.0000000000000000E+020
  9
$PEXTMAX
 10
-1.0000000000000000E+020
 20
-1.0000000000000000E+020
 30
-1.0000000000000000E+020
  9
$PLIMMIN
 10
0.0
 20
0.0
  9
$PLIMMAX
 10
12.0
 20
9.0
  9
$UNITMODE
 70
     0
  9
$VISRETAIN
 70
     0
  9
$PLINEGEN
 70
     1
  9
$PSLTSCALE
 70
     0
  0
ENDSEC
  0
SECTION
  2
TABLES
  0
TABLE
  2
VPORT
 70
     1
  0
VPORT
  2
*ACTIVE
 70
     0
 10
0.0
 20
0.0
 11
1.0
 21
1.0
 12
187.4942783906524
 22
197.0509055860143
 13
0.0
 23
0.0
 14
10.0
 24
10.0
 15
10.0
 25
10.0
 16
0.0
 26
0.0
 36
1.0
 17
0.0
 27
0.0
 37
0.0
 40
403.57315882993248
 41
1.7807262569832401
 42
50.0
 43
0.0
 44
0.0
 50
0.0
 51
0.0
 71
     0
 72
   500
 73
     1
 74
     0
 75
     0
 76
     0
 77
     0
 78
     2
  0
ENDTAB
  0
TABLE
  2
LTYPE
 70
     3
  0
LTYPE
  2
CONTINUOUS
 70
     0
  3
Solid Line
 72
    65
 73
     0
 40
0.0
  0
LTYPE
  2
CENTER
 70
     0
  3
____ _ ____ _ ____ _ ____ _ ____ _ ____ _ ____
 72
    65
 73
     4
 40
2.0
 49
1.25
 49
-0.25
 49
0.25
 49
-0.25
  0
LTYPE
  2
PHANTOM2
 70
     0
  3
___ _ _ ___ _ _ ___ _ _ ___ _ _
 72
    65
 73
     6
 40
1.25
 49
0.625
 49
-0.125
 49
0.125
 49
-0.125
 49
0.125
 49
-0.125
  0
ENDTAB
  0
TABLE
  2
LAYER
 70
     4
  0
LAYER
  2
0
 70
     0
 62
     7
  6
CONTINUOUS
  0
LAYER
  2
1
 70
     0
 62
     1
  6
CENTER
  0
LAYER
  2
3
 70
     0
 62
     3
  6
CONTINUOUS
  0
LAYER
  2
DEFPOINTS
 70
     0
 62
     7
  6
CONTINUOUS
  0
ENDTAB
  0
TABLE
  2
STYLE
 70
     2
  0
STYLE
  2
STANDARD
 70
     0
 40
0.0
 41
1.0
 50
0.0
 71
     0
 42
2.0
  3
TXT
  4
BIGFONT
  0
STYLE
  2
STANDARD1
 70
     0
 40
0.0
 41
1.0
 50
0.0
 71
     0
 42
3.0
  3
txt
  4

  0
ENDTAB
  0
TABLE
  2
VIEW
 70
     1
  0
VIEW
  2
ALL
 70
     0
 40
270.0
 10
220.99159663865549
 20
135.0
 41
0.0
 11
0.0
 21
0.0
 31
1.0
 12
0.0
 22
0.0
 32
0.0
 42
0.0
 43
0.0
 44
0.0
 50
0.0
 71
     0
  0
ENDTAB
  0
TABLE
  2
UCS
 70
     0
  0
ENDTAB
  0
TABLE
  2
APPID
 70
     7
  0
APPID
  2
ACAD
 70
     0
  0
APPID
  2
GENIUS_GENODEF_13
 70
     0
  0
APPID
  2
GENIUS_GENOBJ-N-CEN_13
 70
     0
  0
APPID
  2
GENIUS_GENCEN_19
 70
     0
  0
APPID
  2
GENIUS_GENOREF_13
 70
     0
  0
APPID
  2
ACAD_MLEADERVER
 70
     0
  0
APPID
  2
ACAD_NAV_VCDISPLAY
 70
     0
  0
ENDTAB
  0
TABLE
  2
DIMSTYLE
 70
     1
  0
DIMSTYLE
  2
STANDARD
 70
     0
  3

  4

  5

  6

  7

 40
1.0
 41
0.18
 42
0.0625
 43
0.38
 44
0.18
 45
0.0
 46
0.0
 47
0.0
 48
0.0
140
0.18
141
0.09
142
0.0
143
25.399999999999999
144
1.0
145
0.0
146
1.0
147
0.09
 71
     0
 72
     0
 73
     1
 74
     1
 75
     0
 76
     0
 77
     0
 78
     0
170
     0
171
     2
172
     0
173
     0
174
     0
175
     0
176
     0
177
     0
178
     0
  0
ENDTAB
  0
ENDSEC
  0
SECTION
  2
BLOCKS
  0
BLOCK
  8
0
  2
$MODEL_SPACE
 70
     0
 10
0.0
 20
0.0
 30
0.0
  3
$MODEL_SPACE
  1

  0
ENDBLK
  5
217
  8
0
  0
BLOCK
 67
     1
  8
0
  2
$PAPER_SPACE
 70
     0
 10
0.0
 20
0.0
 30
0.0
  3
$PAPER_SPACE
  1

  0
ENDBLK
  5
215
 67
     1
  8
0
  0
ENDSEC
  0
SECTION
  2
ENTITIES
  0
ARC
  5
116E
  8
0
 10
98.862158319636023
 20
54.932402565748127
 30
0.0
 40
1.5
 50
90.0
 51
166.01771087191651
  0
ARC
  5
116F
  8
0
 10
116.6968162756372
 20
42.654530421438317
 30
0.0
 40
19.219771226606099
 50
165.23847809633341
 51
196.96220866227051
  0
ARC
  5
1170
  8
0
 10
80.074178712910395
 20
52.304353938312488
 30
0.0
 40
18.65286633612072
 50
345.23844195038862
 51
12.42883628749154
  0
ARC
  5
1171
  8
0
 10
162.42142352353849
 20
39.106164644499017
 30
0.0
 40
67.0
 50
166.01771087191651
 51
173.31458529171871
  0
ARC
  5
1172
  8
0
 10
111.7542259424884
 20
54.937803339693907
 30
0.0
 40
1.5
 50
13.00000000000059
 51
90.0
  0
LINE
  5
1173
  8
0
 10
114.1770387318733
 20
51.111565418444791
 30
0.0
 11
113.2157810396663
 21
55.2752299212097
 31
0.0
  0
ARC
  5
1174
  8
0
 10
94.057310284535902
 20
42.659931195384097
 30
0.0
 40
19.219771226606099
 50
343.03779133772952
 51
14.7615219036665
  0
LINE
  5
1175
  8
0
 10
125.8770387318733
 20
47.111565418444798
 30
0.0
 11
124.8770387318733
 21
48.111565418444791
 31
0.0
  0
LINE
  5
1176
  8
0
 10
114.1770387318733
 20
48.111565418444791
 30
0.0
 11
124.8770387318733
 21
48.111565418444791
 31
0.0
  0
ARC
  5
1177
  8
0
 10
130.6799478472627
 20
52.309754712258268
 30
0.0
 40
18.65286633612072
 50
167.7549067113834
 51
194.76155804961141
  0
LINE
  5
1178
  8
0
 10
98.839648454576604
 20
39.037678066096589
 30
0.0
 11
111.9144781055966
 21
39.043078840042369
 31
0.0
  0
LINE
  5
1179
  8
0
 10
99.521972420173142
 20
49.472662721885683
 30
0.0
 11
111.2321541400002
 21
49.478063495831456
 31
0.0
  0
LINE
  5
117A
  8
0
 10
98.862158319636023
 20
56.432402565748127
 30
0.0
 11
111.7542259424884
 21
56.437803339693922
 31
0.0
  0
ARC
  5
117B
  8
0
 10
106.3549597125517
 20
26.943591245678711
 30
0.0
 40
8.8779146635206416
 50
158.97806522323521
 51
198.76369292725579
  0
ARC
  5
117C
  8
0
 10
99.588311233918546
 20
20.606164644498961
 30
0.0
 40
1.5
 50
196.40604979328791
 51
270.0
  0
ARC
  5
117D
  8
0
 10
162.42142352353849
 20
39.106164644499017
 30
0.0
 40
67.0
 50
186.68541470828129
 51
196.40604979328791
  0
ARC
  5
117E
  8
0
 10
84.085105187750401
 20
19.378068374653541
 30
0.0
 40
14.64193986128077
 50
359.99999982353847
 51
18.763655711793
  0
ARC
  5
117F
  8
0
 10
104.3991668476213
 20
26.94899201962448
 30
0.0
 40
8.8779146635206416
 50
341.23630707274077
 51
21.02193477676478
  0
ARC
  5
1180
  8
0
 10
111.1369393278671
 20
20.61156541844468
 30
0.0
 40
1.5
 50
270.0
 51
346.99999999999937
  0
LINE
  5
1181
  8
0
 10
114.1770387318733
 20
27.111565418444801
 30
0.0
 11
112.5984944250449
 21
20.274138836928898
 31
0.0
  0
ARC
  5
1182
  8
0
 10
126.6690213724227
 20
19.383469148599321
 30
0.0
 40
14.64193986128077
 50
161.23634428820699
 51
180.00000017646141
  0
LINE
  5
1183
  8
0
 10
125.8770387318733
 20
31.111565418444801
 30
0.0
 11
124.8770387318733
 21
30.111565418444801
 31
0.0
  0
LINE
  5
1184
  8
0
 10
114.1770387318733
 20
30.111565418444801
 30
0.0
 11
124.8770387318733
 21
30.111565418444801
 31
0.0
  0
LINE
  5
1185
  8
0
 10
99.432100699243406
 20
22.40131355064182
 30
0.0
 11
111.3220258609299
 21
22.4067143245876
 31
0.0
  0
LINE
  5
1186
  8
0
 10
98.711315899716183
 20
28.850486289515061
 30
0.0
 11
112.04281066045731
 21
28.855887063460841
 31
0.0
  0
LINE
  5
1187
  8
0
 10
99.588311233918603
 20
19.106164644498961
 30
0.0
 11
111.1369393278671
 21
19.11156541844468
 31
0.0
  0
LINE
  5
1188
  8
0
 10
114.1770387318733
 20
27.111565418444911
 30
0.0
 11
114.1770387318733
 21
51.111565418444691
 31
0.0
  0
LINE
  5
1189
  8
0
 10
125.8770387318733
 20
31.111565418444741
 30
0.0
 11
125.8770387318733
 21
47.111565418444798
 31
0.0
  0
LINE
  5
118A
  8
0
 10
124.8770387318733
 20
48.111565418444791
 30
0.0
 11
124.8770387318733
 21
30.111565418444851
 31
0.0
  0
ARC
  5
118B
  8
0
 10
122.6152319467723
 20
33.94948295175044
 30
0.0
 40
10.637000170709531
 50
163.03774895826081
 51
201.02191558773029
  0
ARC
  5
118C
  8
0
 10
88.138894613400794
 20
33.94408217780466
 30
0.0
 40
10.637000170709531
 50
338.97808441226971
 51
16.962251041739162
  0
LINE
  5
118D
  8
0
 10
95.877002269762428
 20
31.306164644499241
 30
0.0
 11
95.877002269762428
 21
46.906164644498801
 31
0.0
  0
ARC
  5
1190
  8
0
 10
18.484008619799791
 20
47.558575865169921
 30
0.0
 40
12.0
 50
314.79558208140838
 51
9.2043923256734939
  0
ARC
  5
1191
  8
0
 10
44.481233610031893
 20
66.446665430696953
 30
0.0
 40
12.0
 50
242.7955820814077
 51
297.20439232567583
  0
CIRCLE
  5
1192
  8
0
 10
44.481233610031552
 20
39.111565418445032
 30
0.0
 40
6.0000000000000568
  0
CIRCLE
  5
1193
  8
0
 10
44.481233610031552
 20
39.111565418445032
 30
0.0
 40
7.3000000000000123
  0
ARC
  5
1194
  8
0
 10
36.25224007793696
 20
50.437803339694362
 30
0.0
 40
5.9999999999999982
 50
62.795620500821713
 51
189.20443068500029
  0
ARC
  5
1195
  8
0
 10
70.478458600263536
 20
47.558575865169473
 30
0.0
 40
12.0
 50
170.79558208141071
 51
225.20439232567659
  0
LINE
  5
1196
  8
1
 10
21.481233610031499
 20
39.111565418445082
 30
0.0
 11
67.481233610031609
 21
39.111565418445032
 31
0.0
  0
ARC
  5
1197
  8
0
 10
52.710227142126257
 20
50.437803339694142
 30
0.0
 40
5.9999999999999858
 50
350.79562050082109
 51
117.2044306850008
  0
ARC
  5
1198
  8
0
 10
44.481233610031552
 20
25.111565418445029
 30
0.0
 40
6.0
 50
206.7956205008233
 51
333.2044306850139
  0
ARC
  5
1199
  8
0
 10
28.414064952889881
 20
16.997004965594549
 30
0.0
 40
12.0
 50
26.79558208141091
 51
81.204392325673723
  0
ARC
  5
119A
  8
0
 10
60.548402267172783
 20
16.997004965594211
 30
0.0
 40
12.0
 50
98.795582081410416
 51
153.20439232567421
  0
LINE
  5
119B
  8
1
 10
44.481233610031609
 20
62.111565418445139
 30
0.0
 11
44.481233610031609
 21
16.111565418445021
 31
0.0
  0
ARC
  5
119C
  8
0
 10
57.796024838163873
 20
34.785327497195802
 30
0.0
 40
5.999999999999968
 50
278.79562050081017
 51
45.204430685007239
  0
ARC
  5
119D
  8
0
 10
31.166442381899572
 20
34.785327497195802
 30
0.0
 40
6.0000000000000586
 50
134.7956205008322
 51
261.20443068501862
  0
LINE
  5
119E
  8
1
 10
92.877002269762443
 20
39.111565418445032
 30
0.0
 11
155.60660031438951
 21
39.111565418445032
 31
0.0
  0
LINE
  5
119F
  8
0
 10
125.8770387318733
 20
45.861565418444968
 30
0.0
 11
132.3770387318734
 21
45.861565418445018
 31
0.0
  0
LINE
  5
11A1
  8
0
 10
132.8770387318734
 20
45.361565418445018
 30
0.0
 11
132.3770387318734
 21
45.861565418445018
 31
0.0
  0
LINE
  5
11A3
  8
0
 10
132.3770387318734
 20
32.361565418445032
 30
0.0
 11
132.37703873187351
 21
45.861565418444897
 31
0.0
  0
LINE
  5
11A4
  8
0
 10
132.8770387318734
 20
32.861565418445032
 30
0.0
 11
132.8770387318734
 21
45.361565418445018
 31
0.0
  0
LINE
  5
11A5
  8
0
 10
132.8770387318734
 20
32.861565418445032
 30
0.0
 11
132.3770387318734
 21
32.361565418445032
 31
0.0
  0
LINE
  5
11A6
  8
0
 10
125.8770387318733
 20
32.361565418445032
 30
0.0
 11
132.3770387318734
 21
32.361565418445032
 31
0.0
  0
LINE
  5
13A2
  8
0
 10
152.26353873187341
 20
42.111565418445032
 30
0.0
 11
152.8770387318734
 21
41.49806541844503
 31
0.0
  0
LINE
  5
13A3
  8
0
 10
152.8770387318734
 20
36.725065418445041
 30
0.0
 11
152.26353873187341
 21
36.111565418445032
 31
0.0
  0
LINE
  5
13A4
  8
0
 10
132.87532245814651
 20
42.111565418445018
 30
0.0
 11
152.2618224581465
 21
42.111565418445018
 31
0.0
  0
LINE
  5
13A5
  8
0
 10
152.2618224581465
 20
36.111565418445032
 30
0.0
 11
132.87532245814651
 21
36.111565418445032
 31
0.0
  0
LINE
  5
147B
  8
0
 10
152.8770387318734
 20
36.725065418445041
 30
0.0
 11
152.8770387318734
 21
41.49806541844503
 31
0.0
  0
LINE
  5
147D
  8
0
 10
152.26353873187341
 20
36.111565418445032
 30
0.0
 11
152.26353873187341
 21
42.111565418445032
 31
0.0
  0
LINE
  5
147E
  8
3
 10
152.80473944201381
 20
41.57036470830468
 30
0.0
 11
134.47532245814651
 21
41.570364708304687
 31
0.0
  0
LINE
  5
147F
  8
3
 10
133.06387806332251
 20
42.111565418445018
 30
0.0
 11
134.47532245814651
 21
41.570364708304687
 31
0.0
  0
LINE
  5
1480
  8
0
 10
134.47532245814651
 20
42.111565418445018
 30
0.0
 11
134.47532245814651
 21
36.111565418445032
 31
0.0
  0
LINE
  5
1481
  8
3
 10
152.80533802173289
 20
36.653364708304522
 30
0.0
 11
134.47532245814651
 21
36.653364708304522
 31
0.0
  0
LINE
  5
1482
  8
3
 10
133.0623169752204
 20
36.111565418445032
 30
0.0
 11
134.47532245814651
 21
36.653364708304522
 31
0.0
  0
TEXT
  5
1579
  8
0
 62
     3
 10
0.0
 20
0.0
 30
0.0
 40
10.0
  1
SSTK40X20NA
  7
STANDARD1
  0
ENDSEC
  0
EOF
