  0
SECTION
  2
HEADER
  9
$ACADVER
  1
AC1009
  9
$INSBASE
 10
0.0
 20
0.0
 30
0.0
  9
$EXTMIN
 10
0.0
 20
-2.960436562073669
 30
0.0
  9
$EXTMAX
 10
183.97595485389269
 20
68.662663042589259
 30
0.0
  9
$LIMMIN
 10
0.0
 20
0.0
  9
$LIMMAX
 10
375.0
 20
270.0
  9
$ORTHOMODE
 70
     1
  9
$REGENMODE
 70
     1
  9
$FILLMODE
 70
     1
  9
$QTEXTMODE
 70
     0
  9
$MIRRTEXT
 70
     0
  9
$DRAGMODE
 70
     2
  9
$LTSCALE
 40
10.0
  9
$OSMODE
 70
    55
  9
$ATTMODE
 70
     1
  9
$TEXTSIZE
 40
2.0
  9
$TRACEWID
 40
0.05
  9
$TEXTSTYLE
  7
STANDARD
  9
$CLAYER
  8
0
  9
$CELTYPE
  6
BYLAYER
  9
$CECOLOR
 62
   256
  9
$DIMSCALE
 40
1.0
  9
$DIMASZ
 40
2.5
  9
$DIMEXO
 40
2.0
  9
$DIMDLI
 40
0.38
  9
$DIMRND
 40
0.0
  9
$DIMDLE
 40
0.0
  9
$DIMEXE
 40
2.0
  9
$DIMTP
 40
0.0
  9
$DIMTM
 40
0.0
  9
$DIMTXT
 40
3.0
  9
$DIMCEN
 40
0.09
  9
$DIMTSZ
 40
0.0
  9
$DIMTOL
 70
     0
  9
$DIMLIM
 70
     0
  9
$DIMTIH
 70
     0
  9
$DIMTOH
 70
     0
  9
$DIMSE1
 70
     0
  9
$DIMSE2
 70
     0
  9
$DIMTAD
 70
     1
  9
$DIMZIN
 70
     0
  9
$DIMBLK
  1

  9
$DIMASO
 70
     1
  9
$DIMSHO
 70
     0
  9
$DIMPOST
  1

  9
$DIMAPOST
  1

  9
$DIMALT
 70
     0
  9
$DIMALTD
 70
     2
  9
$DIMALTF
 40
25.399999999999999
  9
$DIMLFAC
 40
1.0
  9
$DIMTOFL
 70
     0
  9
$DIMTVP
 40
1.6000000000000001
  9
$DIMTIX
 70
     1
  9
$DIMSOXD
 70
     0
  9
$DIMSAH
 70
     0
  9
$DIMBLK1
  1

  9
$DIMBLK2
  1

  9
$DIMSTYLE
  2
STANDARD
  9
$DIMCLRD
 70
     0
  9
$DIMCLRE
 70
     0
  9
$DIMCLRT
 70
     0
  9
$DIMTFAC
 40
1.0
  9
$DIMGAP
 40
0.09
  9
$LUNITS
 70
     2
  9
$LUPREC
 70
     4
  9
$SKETCHINC
 40
0.1
  9
$FILLETRAD
 40
2.5
  9
$AUNITS
 70
     0
  9
$AUPREC
 70
     0
  9
$MENU
  1
E:\r13\win\SUPPORT\ACAD
  9
$ELEVATION
 40
0.0
  9
$PELEVATION
 40
0.0
  9
$THICKNESS
 40
0.0
  9
$LIMCHECK
 70
     0
  9
$BLIPMODE
 70
     0
  9
$CHAMFERA
 40
0.0
  9
$CHAMFERB
 40
0.0
  9
$SKPOLY
 70
     0
  9
$TDCREATE
 40
2448650.5678784722
  9
$TDUPDATE
 40
2456598.5614107992
  9
$TDINDWG
 40
0.0974219907
  9
$TDUSRTIMER
 40
0.0974219907
  9
$USRTIMER
 70
     1
  9
$ANGBASE
 50
0.0
  9
$ANGDIR
 70
     0
  9
$PDMODE
 70
     0
  9
$PDSIZE
 40
0.0
  9
$PLINEWID
 40
0.0
  9
$COORDS
 70
     1
  9
$SPLFRAME
 70
     0
  9
$SPLINETYPE
 70
     6
  9
$SPLINESEGS
 70
     8
  9
$ATTDIA
 70
     0
  9
$ATTREQ
 70
     1
  9
$HANDLING
 70
     1
  9
$HANDSEED
  5
18BA
  9
$SURFTAB1
 70
     6
  9
$SURFTAB2
 70
     6
  9
$SURFTYPE
 70
     6
  9
$SURFU
 70
     6
  9
$SURFV
 70
     6
  9
$UCSNAME
  2

  9
$UCSORG
 10
0.0
 20
0.0
 30
0.0
  9
$UCSXDIR
 10
1.0
 20
0.0
 30
0.0
  9
$UCSYDIR
 10
0.0
 20
1.0
 30
0.0
  9
$PUCSNAME
  2

  9
$PUCSORG
 10
0.0
 20
0.0
 30
0.0
  9
$PUCSXDIR
 10
1.0
 20
0.0
 30
0.0
  9
$PUCSYDIR
 10
0.0
 20
1.0
 30
0.0
  9
$USERI1
 70
     0
  9
$USERI2
 70
     1
  9
$USERI3
 70
     1
  9
$USERI4
 70
     0
  9
$USERI5
 70
     0
  9
$USERR1
 40
0.0
  9
$USERR2
 40
0.0
  9
$USERR3
 40
0.0
  9
$USERR4
 40
0.0
  9
$USERR5
 40
0.0
  9
$WORLDVIEW
 70
     1
  9
$SHADEDGE
 70
     3
  9
$SHADEDIF
 70
    70
  9
$TILEMODE
 70
     1
  9
$MAXACTVP
 70
    16
  9
$PLIMCHECK
 70
     0
  9
$PEXTMIN
 10
1.0000000000000000E+020
 20
1.0000000000000000E+020
 30
1.0000000000000000E+020
  9
$PEXTMAX
 10
-1.0000000000000000E+020
 20
-1.0000000000000000E+020
 30
-1.0000000000000000E+020
  9
$PLIMMIN
 10
0.0
 20
0.0
  9
$PLIMMAX
 10
12.0
 20
9.0
  9
$UNITMODE
 70
     0
  9
$VISRETAIN
 70
     0
  9
$PLINEGEN
 70
     1
  9
$PSLTSCALE
 70
     0
  0
ENDSEC
  0
SECTION
  2
TABLES
  0
TABLE
  2
VPORT
 70
     1
  0
VPORT
  2
*ACTIVE
 70
     0
 10
0.0
 20
0.0
 11
1.0
 21
1.0
 12
187.4942783906524
 22
197.0509055860143
 13
0.0
 23
0.0
 14
10.0
 24
10.0
 15
10.0
 25
10.0
 16
0.0
 26
0.0
 36
1.0
 17
0.0
 27
0.0
 37
0.0
 40
403.57315882993248
 41
1.7807262569832401
 42
50.0
 43
0.0
 44
0.0
 50
0.0
 51
0.0
 71
     0
 72
   500
 73
     1
 74
     0
 75
     0
 76
     0
 77
     0
 78
     2
  0
ENDTAB
  0
TABLE
  2
LTYPE
 70
     3
  0
LTYPE
  2
CONTINUOUS
 70
     0
  3
Solid Line
 72
    65
 73
     0
 40
0.0
  0
LTYPE
  2
CENTER
 70
     0
  3
____ _ ____ _ ____ _ ____ _ ____ _ ____ _ ____
 72
    65
 73
     4
 40
2.0
 49
1.25
 49
-0.25
 49
0.25
 49
-0.25
  0
LTYPE
  2
PHANTOM2
 70
     0
  3
___ _ _ ___ _ _ ___ _ _ ___ _ _
 72
    65
 73
     6
 40
1.25
 49
0.625
 49
-0.125
 49
0.125
 49
-0.125
 49
0.125
 49
-0.125
  0
ENDTAB
  0
TABLE
  2
LAYER
 70
     4
  0
LAYER
  2
0
 70
     0
 62
     7
  6
CONTINUOUS
  0
LAYER
  2
1
 70
     0
 62
     1
  6
CENTER
  0
LAYER
  2
DEFPOINTS
 70
     0
 62
     7
  6
CONTINUOUS
  0
LAYER
  2
3
 70
     0
 62
     3
  6
CONTINUOUS
  0
ENDTAB
  0
TABLE
  2
STYLE
 70
     2
  0
STYLE
  2
STANDARD
 70
     0
 40
0.0
 41
1.0
 50
0.0
 71
     0
 42
2.0
  3
TXT
  4
BIGFONT
  0
STYLE
  2
STANDARD1
 70
     0
 40
0.0
 41
1.0
 50
0.0
 71
     0
 42
3.0
  3
txt
  4

  0
ENDTAB
  0
TABLE
  2
VIEW
 70
     1
  0
VIEW
  2
ALL
 70
     0
 40
270.0
 10
220.99159663865549
 20
135.0
 41
0.0
 11
0.0
 21
0.0
 31
1.0
 12
0.0
 22
0.0
 32
0.0
 42
0.0
 43
0.0
 44
0.0
 50
0.0
 71
     0
  0
ENDTAB
  0
TABLE
  2
UCS
 70
     0
  0
ENDTAB
  0
TABLE
  2
APPID
 70
    25
  0
APPID
  2
ACAD
 70
     0
  0
APPID
  2
GENIUS_GENODEF_13
 70
     0
  0
APPID
  2
GENIUS_GENOBJ-N-CEN_13
 70
     0
  0
APPID
  2
GENIUS_GENCEN_19
 70
     0
  0
APPID
  2
GENIUS_GENOREF_13
 70
     0
  0
APPID
  2
GENIUS_GENCFG_13
 70
     0
  0
APPID
  2
GENIUS_GENCFG0_13
 70
     0
  0
APPID
  2
GENIUS_GENCFG1_13
 70
     0
  0
APPID
  2
GENIUS_GENCFG2_13
 70
     0
  0
APPID
  2
GENIUS_GENCFG3_13
 70
     0
  0
APPID
  2
GENIUS_GENCFG4_13
 70
     0
  0
APPID
  2
GENIUS_GEVCFG0_13
 70
     0
  0
APPID
  2
GENIUS_GENOENT_13
 70
     0
  0
APPID
  2
GENIUS_GENOBJ-N-FIL_13
 70
     0
  0
APPID
  2
GENIUS_GENFIL_13
 70
     0
  0
APPID
  2
GENIUS_GENOBJ-N-CHA_13
 70
     0
  0
APPID
  2
GENIUS_GENOBJ-N-HTC_13
 70
     0
  0
APPID
  2
GENIUS_GENHATCH_13
 70
     0
  0
APPID
  2
GENIUS_GENREC_14
 70
     0
  0
APPID
  2
GENIUS_GENOBJ-N-REC_13
 70
     0
  0
APPID
  2
GEV_VCCNULL_SWITCH_OFF
 70
     0
  0
APPID
  2
GENIUS_GENDTOL_13
 70
     0
  0
APPID
  2
ACAD_MLEADERVER
 70
     0
  0
APPID
  2
ACAD_EXEMPT_FROM_CAD_STANDARDS
 70
     0
  0
APPID
  2
ACAD_NAV_VCDISPLAY
 70
     0
  0
ENDTAB
  0
TABLE
  2
DIMSTYLE
 70
     1
  0
DIMSTYLE
  2
STANDARD
 70
     0
  3

  4

  5

  6

  7

 40
1.0
 41
0.18
 42
0.0625
 43
0.38
 44
0.18
 45
0.0
 46
0.0
 47
0.0
 48
0.0
140
0.18
141
0.09
142
0.0
143
25.399999999999999
144
1.0
145
0.0
146
1.0
147
0.09
 71
     0
 72
     0
 73
     1
 74
     1
 75
     0
 76
     0
 77
     0
 78
     0
170
     0
171
     2
172
     0
173
     0
174
     0
175
     0
176
     0
177
     0
178
     0
  0
ENDTAB
  0
ENDSEC
  0
SECTION
  2
BLOCKS
  0
BLOCK
  8
0
  2
$MODEL_SPACE
 70
     0
 10
0.0
 20
0.0
 30
0.0
  3
$MODEL_SPACE
  1

  0
ENDBLK
  5
217
  8
0
  0
BLOCK
 67
     1
  8
0
  2
$PAPER_SPACE
 70
     0
 10
0.0
 20
0.0
 30
0.0
  3
$PAPER_SPACE
  1

  0
ENDBLK
  5
215
 67
     1
  8
0
  0
ENDSEC
  0
SECTION
  2
ENTITIES
  0
LINE
  5
14CB
  8
0
 10
154.9759548538928
 20
32.662663042589323
 30
0.0
 11
154.9759548538928
 21
48.662663042589323
 31
0.0
  0
LINE
  5
14CC
  8
0
 10
154.9759548538928
 20
48.662663042589323
 30
0.0
 11
147.9759548538928
 21
48.662663042589372
 31
0.0
  0
LINE
  5
14CD
  8
0
 10
154.9759548538928
 20
32.662663042589323
 30
0.0
 11
147.9759548538928
 21
32.662663042589323
 31
0.0
  0
ARC
  5
14CE
  8
0
 10
25.59580107612447
 20
12.32841623998786
 30
0.0
 40
15.5
 50
28.836273414313482
 51
79.16372679805302
  0
LINE
  5
14CF
  8
1
 10
46.181836377214317
 20
12.66266304258939
 30
0.0
 11
46.181836377214317
 21
68.662663042589259
 31
0.0
  0
ARC
  5
14D0
  8
0
 10
30.01387560019657
 20
35.409374138215192
 30
0.0
 40
8.0
 50
136.83628134218429
 51
259.16372303132539
  0
ARC
  5
14D1
  8
0
 10
62.349797154232071
 20
35.409374138215192
 30
0.0
 40
8.0
 50
280.83626980220311
 51
43.163720467003252
  0
ARC
  5
14D2
  8
0
 10
66.767871678304175
 20
12.32841623998786
 30
0.0
 40
15.5
 50
100.8362734143146
 51
151.16372679805289
  0
ARC
  5
14D3
  8
0
 10
46.181836377214317
 20
23.662663042589319
 30
0.0
 40
8.0
 50
208.8362769441714
 51
331.16375023681161
  0
ARC
  5
14D4
  8
0
 10
79.490741187982906
 20
51.485382275555018
 30
0.0
 40
15.5
 50
172.8362734143131
 51
223.16372679805221
  0
LINE
  5
14D5
  8
1
 10
18.181836377214381
 20
40.662663042589308
 30
0.0
 11
74.181836377214253
 21
40.662663042589308
 31
0.0
  0
ARC
  5
14D6
  8
0
 10
56.174185666186361
 20
54.415951946963439
 30
0.0
 40
8.0
 50
352.83624966447002
 51
115.1637295982452
  0
ARC
  5
14D7
  8
0
 10
46.181836377214317
 20
75.685718181860807
 30
0.0
 40
15.5
 50
244.83627341431449
 51
295.16372679805158
  0
ARC
  5
14D8
  8
0
 10
36.189487088242181
 20
54.41595194696356
 30
0.0
 40
8.0
 50
64.836281776719048
 51
187.1637329097282
  0
CIRCLE
  5
14D9
  8
0
 10
46.181836377214317
 20
40.662663042589308
 30
0.0
 40
8.0
  0
CIRCLE
  5
14DA
  8
0
 10
46.181836377214317
 20
40.662663042589308
 30
0.0
 40
9.1999999999999886
  0
ARC
  5
14DB
  8
0
 10
12.87293156644574
 20
51.485382275555018
 30
0.0
 40
15.5
 50
316.83627341431321
 51
7.1637267980523118
  0
ARC
  5
14DC
  8
0
 10
126.5996391780651
 20
25.33361647903763
 30
0.0
 40
10.089986955397761
 50
158.21764012529999
 51
199.9864295037076
  0
ARC
  5
14DD
  8
0
 10
183.29757226103871
 20
40.662663042589259
 30
0.0
 40
70.0
 50
187.96518940678141
 51
199.88759444141141
  0
ARC
  5
14DE
  8
0
 10
121.7227187933491
 20
25.333616479037691
 30
0.0
 40
10.089986955397761
 50
340.0135704962924
 51
21.78235987469996
  0
LINE
  5
14DF
  8
0
 10
132.9759548538928
 20
24.912663042589319
 30
0.0
 11
132.9759548538928
 21
56.412663042589308
 31
0.0
  0
LINE
  5
14E0
  8
0
 10
119.1648972817428
 20
15.662663042589269
 30
0.0
 11
128.81623624554271
 21
15.66266304258931
 31
0.0
  0
LINE
  5
14E1
  8
0
 10
118.753523596352
 20
19.804195753602428
 30
0.0
 11
130.29288204826261
 21
19.804195753602471
 31
0.0
  0
LINE
  5
14E2
  8
0
 10
117.7845090936038
 20
27.552026820549091
 30
0.0
 11
131.26581242882631
 21
27.552026820549091
 31
0.0
  0
LINE
  5
14E3
  8
0
 10
132.9759548538928
 20
24.912663042589319
 30
0.0
 11
130.85490273286311
 21
16.99678876140479
 31
0.0
  0
ARC
  5
14E4
  8
0
 10
147.46933731451509
 20
15.9695179575649
 30
0.0
 40
17.306631565768189
 50
160.01356715629751
 51
180.00000013998749
  0
ARC
  5
14E5
  8
0
 10
129.11623624554281
 20
17.46266304258927
 30
0.0
 40
1.8
 50
270.0
 51
344.9999999999996
  0
ARC
  5
14E6
  8
0
 10
100.8530206568991
 20
15.969517957564859
 30
0.0
 40
17.306631565768189
 50
359.99999986001251
 51
19.986432843702531
  0
ARC
  5
14E7
  8
0
 10
119.1648972817428
 20
17.462663042589231
 30
0.0
 40
1.8
 50
199.88759444141141
 51
270.0
  0
LINE
  5
14E8
  8
1
 10
110.9729013278132
 20
40.662663042589308
 30
0.0
 11
183.97595485389269
 21
40.662663042589308
 31
0.0
  0
LINE
  5
14E9
  8
0
 10
118.0817286193392
 20
62.415951946963389
 30
0.0
 11
129.6861898616728
 21
62.415951946963439
 31
0.0
  0
LINE
  5
14EA
  8
0
 10
118.9898206188026
 20
53.418311481892992
 30
0.0
 11
130.04722712423981
 21
53.418311481893063
 31
0.0
  0
LINE
  5
14EB
  8
0
 10
117.9458693246775
 20
40.882057240301087
 30
0.0
 11
131.09696395307029
 21
40.882057240301151
 31
0.0
  0
LINE
  5
14EC
  8
0
 10
147.9759548538928
 20
51.662663042589372
 30
0.0
 11
147.9759548538928
 21
29.662663042589319
 31
0.0
  0
LINE
  5
14ED
  8
0
 10
155.9759548538928
 20
33.662663042589323
 30
0.0
 11
155.9759548538928
 21
47.662663042589308
 31
0.0
  0
ARC
  5
14EE
  8
0
 10
110.0821804776529
 20
45.11239220974835
 30
0.0
 40
21.730525271093938
 50
342.16825801496458
 51
18.065875463943541
  0
LINE
  5
14EF
  8
0
 10
147.9759548538928
 20
29.662663042589319
 30
0.0
 11
132.9759548538928
 21
29.662663042589319
 31
0.0
  0
LINE
  5
14F0
  8
0
 10
154.9759548538928
 20
32.662663042589323
 30
0.0
 11
155.9759548538928
 21
33.662663042589323
 31
0.0
  0
ARC
  5
14F1
  8
0
 10
143.95271471414179
 20
34.217041943639522
 30
0.0
 40
13.849268810468001
 50
162.1682221939754
 51
201.78235799272301
  0
LINE
  5
14F2
  8
0
 10
132.9759548538928
 20
51.662663042589323
 30
0.0
 11
147.9759548538928
 21
51.662663042589323
 31
0.0
  0
LINE
  5
14F3
  8
0
 10
155.9759548538928
 20
47.662663042589308
 30
0.0
 11
154.9759548538928
 21
48.662663042589323
 31
0.0
  0
ARC
  5
14F4
  8
0
 10
141.9010969509275
 20
55.491454034489827
 30
0.0
 40
11.73839120218061
 50
150.6303260969764
 51
198.0659134377068
  0
ARC
  5
14F5
  8
0
 10
129.98618986167281
 20
60.615951946963371
 30
0.0
 40
1.8
 50
15.00000000000038
 51
90.0
  0
LINE
  5
14F6
  8
0
 10
132.9759548538928
 20
56.412663042589308
 30
0.0
 11
131.7248563489932
 21
61.081826228147982
 31
0.0
  0
LINE
  5
14F7
  8
0
 10
113.9729013278132
 20
30.96266304258922
 30
0.0
 11
113.9729013278132
 21
50.362663042589297
 31
0.0
  0
ARC
  5
14F8
  8
0
 10
138.24017749376119
 20
45.112392209748293
 30
0.0
 40
21.730525271093938
 50
161.9341245360564
 51
197.83174198503539
  0
ARC
  5
14F9
  8
0
 10
104.3696432572724
 20
34.217041943639458
 30
0.0
 40
13.849268810468001
 50
338.21764200727711
 51
17.831777806024601
  0
ARC
  5
14FA
  8
0
 10
183.29757226103871
 20
40.662663042589259
 30
0.0
 40
70.0
 50
162.98810592040181
 51
172.03481059321851
  0
ARC
  5
14FB
  8
0
 10
106.4212610204867
 20
55.491454034489777
 30
0.0
 40
11.73839120218061
 50
341.9340865622932
 51
30.7467297632537
  0
ARC
  5
14FC
  8
0
 10
118.0817286193392
 20
60.615951946963442
 30
0.0
 40
1.8
 50
90.0
 51
162.98810592040181
  0
LINE
  5
176E
  8
0
 10
180.05595485389281
 20
45.662663042589308
 30
0.0
 11
180.97595485389269
 21
44.742663042589307
 31
0.0
  0
LINE
  5
176F
  8
0
 10
180.97595485389269
 20
36.582663042589317
 30
0.0
 11
180.05595485389281
 21
35.662663042589308
 31
0.0
  0
LINE
  5
1770
  8
0
 10
155.9759548538928
 20
45.662663042589308
 30
0.0
 11
180.05595485389281
 21
45.662663042589308
 31
0.0
  0
LINE
  5
1771
  8
0
 10
180.05595485389281
 20
35.662663042589308
 30
0.0
 11
155.9759548538928
 21
35.662663042589308
 31
0.0
  0
LINE
  5
1772
  8
0
 10
180.97595485389269
 20
36.582663042589317
 30
0.0
 11
180.97595485389269
 21
44.742663042589307
 31
0.0
  0
LINE
  5
1773
  8
0
 10
180.05595485389281
 20
35.662663042589308
 30
0.0
 11
180.05595485389281
 21
45.662663042589308
 31
0.0
  0
LINE
  5
1774
  8
3
 10
180.86795485389271
 20
44.85066304258941
 30
0.0
 11
157.9759548538928
 21
44.850663042589417
 31
0.0
  0
LINE
  5
1775
  8
3
 10
156.2107374625887
 20
45.662663042589308
 30
0.0
 11
157.9759548538928
 21
44.850663042589417
 31
0.0
  0
LINE
  5
1776
  8
0
 10
157.9759548538928
 20
45.662663042589308
 30
0.0
 11
157.9759548538928
 21
35.662663042589308
 31
0.0
  0
LINE
  5
1777
  8
3
 10
180.8679548538926
 20
36.474663042589228
 30
0.0
 11
157.9759548538928
 21
36.474663042589228
 31
0.0
  0
LINE
  5
1778
  8
3
 10
156.21073746258861
 20
35.662663042589308
 30
0.0
 11
157.9759548538928
 21
36.474663042589228
 31
0.0
  0
TEXT
  5
1825
  8
0
 62
     3
 10
0.0
 20
0.0
 30
0.0
 40
10.0
  1
SSTK50X25N-SUS
  7
STANDARD1
  0
ENDSEC
  0
EOF
